  0
SECTION
  2
HEADER
  9
$ACADVER
  1
AC1009
  9
$INSBASE
 10
0.0
 20
0.0
 30
0.0
  9
$EXTMIN
 10
-107.4130656350698
 20
-21.00704902271622
 30
-0.0015258207003583
  9
$EXTMAX
 10
59.750258779169599
 20
54.000275014434408
 30
0.0000000349246037
  9
$LIMMIN
 10
0.0
 20
0.0
  9
$LIMMAX
 10
297.0
 20
210.0
  9
$ORTHOMODE
 70
     0
  9
$REGENMODE
 70
     1
  9
$FILLMODE
 70
     1
  9
$QTEXTMODE
 70
     0
  9
$MIRRTEXT
 70
     1
  9
$DRAGMODE
 70
     2
  9
$LTSCALE
 40
10.0
  9
$OSMODE
 70
    39
  9
$ATTMODE
 70
     1
  9
$TEXTSIZE
 40
3.0
  9
$TRACEWID
 40
1.0
  9
$TEXTSTYLE
  7
YOKO
  9
$CLAYER
  8
240
  9
$CELTYPE
  6
BYLAYER
  9
$CECOLOR
 62
   256
  9
$DIMSCALE
 40
1.0
  9
$DIMASZ
 40
2.2299999999999991
  9
$DIMEXO
 40
0.5
  9
$DIMDLI
 40
7.0
  9
$DIMRND
 40
0.0
  9
$DIMDLE
 40
0.0
  9
$DIMEXE
 40
1.0
  9
$DIMTP
 40
0.0
  9
$DIMTM
 40
0.01
  9
$DIMTXT
 40
2.7999999999999989
  9
$DIMCEN
 40
0.0
  9
$DIMTSZ
 40
0.0
  9
$DIMTOL
 70
     0
  9
$DIMLIM
 70
     0
  9
$DIMTIH
 70
     0
  9
$DIMTOH
 70
     0
  9
$DIMSE1
 70
     0
  9
$DIMSE2
 70
     0
  9
$DIMTAD
 70
     3
  9
$DIMZIN
 70
     9
  9
$DIMBLK
  1
OPEN
  9
$DIMASO
 70
     1
  9
$DIMSHO
 70
     1
  9
$DIMPOST
  1

  9
$DIMAPOST
  1

  9
$DIMALT
 70
     0
  9
$DIMALTD
 70
     2
  9
$DIMALTF
 40
25.399999999999999
  9
$DIMLFAC
 40
1.0
  9
$DIMTOFL
 70
     1
  9
$DIMTVP
 40
0.0
  9
$DIMTIX
 70
     1
  9
$DIMSOXD
 70
     0
  9
$DIMSAH
 70
     0
  9
$DIMBLK1
  1

  9
$DIMBLK2
  1

  9
$DIMSTYLE
  2
BIGT
  9
$DIMCLRD
 70
   256
  9
$DIMCLRE
 70
   256
  9
$DIMCLRT
 70
    40
  9
$DIMTFAC
 40
1.0
  9
$DIMGAP
 40
1.0
  9
$LUNITS
 70
     2
  9
$LUPREC
 70
     6
  9
$SKETCHINC
 40
1.0
  9
$FILLETRAD
 40
0.0
  9
$AUNITS
 70
     0
  9
$AUPREC
 70
     6
  9
$MENU
  1
.
  9
$ELEVATION
 40
0.0
  9
$PELEVATION
 40
0.0
  9
$THICKNESS
 40
0.0
  9
$LIMCHECK
 70
     0
  9
$BLIPMODE
 70
     0
  9
$CHAMFERA
 40
0.2
  9
$CHAMFERB
 40
0.2
  9
$SKPOLY
 70
     0
  9
$TDCREATE
 40
2457840.6015128698
  9
$TDUPDATE
 40
2457840.6077214009
  9
$TDINDWG
 40
0.0060748958
  9
$TDUSRTIMER
 40
0.0060748727
  9
$USRTIMER
 70
     1
  9
$ANGBASE
 50
0.0
  9
$ANGDIR
 70
     0
  9
$PDMODE
 70
     1
  9
$PDSIZE
 40
0.0
  9
$PLINEWID
 40
0.0
  9
$COORDS
 70
     1
  9
$SPLFRAME
 70
     0
  9
$SPLINETYPE
 70
     6
  9
$SPLINESEGS
 70
     4
  9
$ATTDIA
 70
     1
  9
$ATTREQ
 70
     1
  9
$HANDLING
 70
     1
  9
$HANDSEED
  5
4589
  9
$SURFTAB1
 70
     6
  9
$SURFTAB2
 70
     6
  9
$SURFTYPE
 70
     6
  9
$SURFU
 70
     6
  9
$SURFV
 70
     6
  9
$UCSNAME
  2

  9
$UCSORG
 10
0.0
 20
0.0
 30
0.0
  9
$UCSXDIR
 10
1.0
 20
0.0
 30
0.0
  9
$UCSYDIR
 10
0.0
 20
1.0
 30
0.0
  9
$PUCSNAME
  2

  9
$PUCSORG
 10
0.0
 20
0.0
 30
0.0
  9
$PUCSXDIR
 10
1.0
 20
0.0
 30
0.0
  9
$PUCSYDIR
 10
0.0
 20
1.0
 30
0.0
  9
$USERI1
 70
     1
  9
$USERI2
 70
     0
  9
$USERI3
 70
     0
  9
$USERI4
 70
     0
  9
$USERI5
 70
     0
  9
$USERR1
 40
0.0
  9
$USERR2
 40
0.0
  9
$USERR3
 40
0.0
  9
$USERR4
 40
0.0
  9
$USERR5
 40
0.0
  9
$WORLDVIEW
 70
     1
  9
$SHADEDGE
 70
     3
  9
$SHADEDIF
 70
    70
  9
$TILEMODE
 70
     1
  9
$MAXACTVP
 70
    16
  9
$PLIMCHECK
 70
     0
  9
$PEXTMIN
 10
1.0000000000000000E+020
 20
1.0000000000000000E+020
 30
1.0000000000000000E+020
  9
$PEXTMAX
 10
-1.0000000000000000E+020
 20
-1.0000000000000000E+020
 30
-1.0000000000000000E+020
  9
$PLIMMIN
 10
0.0
 20
0.0
  9
$PLIMMAX
 10
420.0
 20
297.0
  9
$UNITMODE
 70
     0
  9
$VISRETAIN
 70
     1
  9
$PLINEGEN
 70
     0
  9
$PSLTSCALE
 70
     1
  0
ENDSEC
  0
SECTION
  2
TABLES
  0
TABLE
  2
VPORT
 70
     1
  0
VPORT
  2
*ACTIVE
 70
     0
 10
0.0
 20
0.0
 11
1.0
 21
1.0
 12
-23.831403427950139
 22
16.496612995859088
 13
0.0
 23
0.0
 14
7.0
 24
7.0
 15
7.0
 25
7.0
 16
0.0
 26
0.0
 36
1.0
 17
0.0
 27
0.0
 37
0.0
 40
109.71592206459199
 41
1.5303030303030301
 42
50.0
 43
0.0
 44
0.0
 50
0.0
 51
0.0
 71
     0
 72
  2000
 73
     1
 74
     0
 75
     0
 76
     1
 77
     0
 78
     0
  0
ENDTAB
  0
TABLE
  2
LTYPE
 70
    23
  0
LTYPE
  2
CONTINUOUS
 70
     0
  3
Solid line
 72
    65
 73
     0
 40
0.0
  0
LTYPE
  2
CENTER2
 70
     0
  3
___ _ ___ _ ___ _ ___ _ ___ _ ___ _ ___ _ ___ _
 72
    65
 73
     4
 40
1.125
 49
0.75
 49
-0.125
 49
0.125
 49
-0.125
  0
LTYPE
  2
HIDDEN2
 70
     0
  3
_ _ _ _ _ _ _ _ _ _ _ _ _ _ _ _ _ _ _ _ _ _ _ _
 72
    65
 73
     2
 40
0.1875
 49
0.125
 49
-0.0625
  0
LTYPE
  2
PHANTOM2
 70
     0
  3
___ _ _ ___ _ _ ___ _ _ ___ _ _ ___ _ _ ___ _ _
 72
    65
 73
     6
 40
1.25
 49
0.625
 49
-0.125
 49
0.125
 49
-0.125
 49
0.125
 49
-0.125
  0
LTYPE
  2
CENTER
 70
     0
  3
____ _ ____ _ ____ _ ____ _ ____ _ ____ _ ____ 
 72
    65
 73
     4
 40
2.0
 49
1.25
 49
-0.25
 49
0.25
 49
-0.25
  0
LTYPE
  2
AM_ISO02W050
 70
     0
  3
__ __ __ __ __ __ __ __ __ __ __ __ __ __ __
 72
    65
 73
     2
 40
7.5
 49
6.0
 49
-1.5
  0
LTYPE
  2
AMCONSTR
 70
     0
  3
_______________________
 72
    65
 73
     2
 40
9999.0
 49
9999.0
 49
0.0
  0
LTYPE
  2
ACISOWELD
 70
     0
  3
_ _ _ _ _
 72
    65
 73
     2
 40
2.0
 49
2.0
 49
-1.0
  0
LTYPE
  2
ACISOTGB
 70
     0
  3
__ . . __ . .
 72
    65
 73
     6
 40
9.0
 49
4.0
 49
-1.0
 49
1.0
 49
-1.0
 49
1.0
 49
-1.0
  0
LTYPE
  2
ACISOTGL
 70
     0
  3
_ _ _ _ _
 72
    65
 73
     2
 40
3.0
 49
2.0
 49
-1.0
  0
LTYPE
  2
HIDDEN
 70
     0
  3
Hidden __ __ __ __ __ __ __ __ __ __ __ __ __ _
 72
    65
 73
     2
 40
9.5249999999999986
 49
6.3499999999999988
 49
-3.1749999999999989
  0
LTYPE
  2
AMZIGZAG2
 70
     0
  3
/\/-/\/-/\/-/\/-/\/-/\/
 72
    65
 73
     2
 40
0.4401
 49
0.0001
 49
-0.4400000000000001
  0
LTYPE
  2
ACANSTGB
 70
     0
  3
__ . . __ . .
 72
    65
 73
     6
 40
0.35433070866
 49
0.15748031496
 49
-0.03937007874
 49
0.03937007874
 49
-0.03937007874
 49
0.03937007874
 49
-0.03937007874
  0
LTYPE
  2
ACANSTGL
 70
     0
  3
_ _ _ _ _
 72
    65
 73
     2
 40
0.11811023622
 49
0.07874015748
 49
-0.03937007874
  0
LTYPE
  2
AM_ISO08W050
 70
     0
  3
____ . ____ . ____ . ____ . ____ . ____ . ____
 72
    65
 73
     4
 40
18.0
 49
12.0
 49
-1.5
 49
3.0
 49
-1.5
  0
LTYPE
  2
AM_ISO09W050
 70
     0
  3
_____ . . _____ . . _____ . . ____ .. ____
 72
    65
 73
     6
 40
22.5
 49
12.0
 49
-1.5
 49
3.0
 49
-1.5
 49
3.0
 49
-1.5
  0
LTYPE
  2
AM_ISO08W050X2
 70
     0
  3
__ . __ . __ . __ . __ . __
 72
    65
 73
     4
 40
9.0
 49
6.0
 49
-0.75
 49
1.5
 49
-0.75
  0
LTYPE
  2
AM_ISO02W050X2
 70
     0
  3
 _ _ _ _ _ _ _ _ _ _ _ _
 72
    65
 73
     2
 40
3.75
 49
3.0
 49
-0.75
  0
LTYPE
  2
AMZIGZAG
 70
     0
  3
/\/-/\/-/\/-/\/-/\/-/\/
 72
    65
 73
     2
 40
11.0001
 49
0.0001
 49
-11.0
  0
ENDTAB
  0
TABLE
  2
LAYER
 70
     7
  0
LAYER
  2
0
 70
     0
 62
     7
  6
CONTINUOUS
  0
LAYER
  2
DEFPOINTS
 70
     0
 62
     7
  6
CONTINUOUS
  0
LAYER
  2
245
 70
     0
 62
     2
  6
CENTER2
  0
LAYER
  2
240
 70
     0
 62
     4
  6
CONTINUOUS
  0
LAYER
  2
241
 70
     0
 62
   211
  6
CONTINUOUS
  0
LAYER
  2
247
 70
     0
 62
    60
  6
CONTINUOUS
  0
LAYER
  2
250
 70
     0
 62
     3
  6
CONTINUOUS
  0
ENDTAB
  0
TABLE
  2
STYLE
 70
     8
  0
STYLE
  2
STANDARD
 70
     0
 40
0.0
 41
1.0
 50
0.0
 71
     0
 42
3.0
  3
romans.shx
  4
extfont.shx
  0
STYLE
  2
ACISOGDT
 70
     0
 40
0.0
 41
1.0
 50
0.0
 71
     0
 42
3.0
  3
amgdt.shx
  4
extfont.shx
  0
STYLE
  2
YOKO
 70
     0
 40
0.0
 41
1.0
 50
0.0
 71
     0
 42
3.0
  3
romans.shx
  4
extfont.shx
  0
STYLE
  2

 70
     1
 40
0.0
 41
1.0
 50
0.0
 71
     0
 42
3.0
  3
genltshp.shx
  4

  0
STYLE
  2
ACANSGDT
 70
     0
 40
0.0
 41
1.0
 50
0.0
 71
     0
 42
3.0
  3
amgdt.shx
  4

  0
ENDTAB
  0
TABLE
  2
VIEW
 70
     0
  0
ENDTAB
  0
TABLE
  2
UCS
 70
     0
  0
ENDTAB
  0
TABLE
  2
APPID
 70
    42
  0
APPID
  2
ACAD
 70
     0
  0
APPID
  2
GLOBAL
 70
     0
  0
APPID
  2
DETAIL
 70
     0
  0
APPID
  2
GRPNAME
 70
     0
  0
APPID
  2
GPARA
 70
     0
  0
APPID
  2
MCAD_NO_VIS
 70
     0
  0
APPID
  2
ACAD_TEMP_GRAPHIC
 70
     0
  0
APPID
  2
ACATTRIBSERVICES
 70
     0
  0
APPID
  2
GENIUS_GENSCREG_15
 70
     0
  0
APPID
  2
GENIUS_GENODEF_13
 70
     0
  0
APPID
  2
GENIUS_GENOBJ-N-SDF_13
 70
     0
  0
APPID
  2
GENIUS_GENREC_14
 70
     0
  0
APPID
  2
GENIUS_GENOBJ-N-REC_13
 70
     0
  0
APPID
  2
GENIUS_GENDIMSH_14
 70
     0
  0
APPID
  2
GENIUS_GENOBJ-N-DIM_13
 70
     0
  0
APPID
  2
GENIUS_GENDIM_13
 70
     0
  0
APPID
  2
GENIUS_GENDTOL_13
 70
     0
  0
APPID
  2
GENIUS_GENOLIS_13
 70
     0
  0
APPID
  2
GENIUS_GENOENT_13
 70
     0
  0
APPID
  2
GENIUS_GENOBJ-F-FEM_13
 70
     0
  0
APPID
  2
GENIUS_GENOREF_13
 70
     0
  0
APPID
  2
GENIUS_GEFFEM_13
 70
     0
  0
APPID
  2
GENIUS_GEFFEMP_13
 70
     0
  0
APPID
  2
AD_DRAW
 70
     0
  0
APPID
  2
DESIGNERASSEMBLIES
 70
     0
  0
APPID
  2
ACADM_DIM_EDIT
 70
     0
  0
APPID
  2
AMDT_DM_ADJ
 70
     0
  0
APPID
  2
ITEMNAME
 70
     0
  0
APPID
  2
GENIUS_GENOBJ-N-FIL_13
 70
     0
  0
APPID
  2
GENIUS_GENFIL_13
 70
     0
  0
APPID
  2
GENIUS_GENOBJ-N-CHA_13
 70
     0
  0
APPID
  2
ACAECLAYERSTANDARD
 70
     0
  0
APPID
  2
ACAD_NAV_VCDISPLAY
 70
     0
  0
APPID
  2
ACAD_DSTYLE_DIMJAG
 70
     0
  0
APPID
  2
ACAD_DSTYLE_DIMBREAK
 70
     0
  0
APPID
  2
ACAD_EXEMPT_FROM_CAD_STANDARDS
 70
     0
  0
APPID
  2
ACAD_PSEXT
 70
     0
  0
APPID
  2
ACAD_MLEADERVER
 70
     0
  0
APPID
  2
ACAD_DSTYLE_DIMARC_LENGTH_
 70
     0
  0
APPID
  2
ACAD_DSTYLE_DIM_LINETYPE
 70
     0
  0
APPID
  2
ACAD_DSTYLE_DIM_EXT1_LINETYPE
 70
     0
  0
APPID
  2
ACAD_DSTYLE_DIM_EXT2_LINETYPE
 70
     0
  0
ENDTAB
  0
TABLE
  2
DIMSTYLE
 70
    30
  0
DIMSTYLE
  2
BIGT
 70
     0
  3

  4

  5
OPEN
  6

  7

 40
1.0
 41
2.2299999999999991
 42
0.5
 43
7.0
 44
1.0
 45
0.0
 46
0.0
 47
0.0
 48
0.01
140
2.7999999999999989
141
0.0
142
0.0
143
25.399999999999999
144
1.0
145
0.0
146
1.0
147
1.0
 71
     0
 72
     0
 73
     0
 74
     0
 75
     0
 76
     0
 77
     3
 78
     9
170
     0
171
     2
172
     1
173
     0
174
     1
175
     0
176
   256
177
   256
178
    40
  0
DIMSTYLE
  2
AM_ISO
 70
     0
  3

  4
"
  5

  6

  7

 40
1.0
 41
2.5
 42
1.0
 43
10.0
 44
1.0
 45
0.0
 46
0.0
 47
0.1
 48
0.1
140
3.5
141
0.0
142
0.0
143
0.0393701
144
1.0
145
0.0
146
0.71
147
1.5
 71
     0
 72
     0
 73
     0
 74
     0
 75
     0
 76
     0
 77
     1
 78
     8
170
     0
171
     2
172
     1
173
     0
174
     0
175
     0
176
   256
177
   256
178
     2
  0
DIMSTYLE
  2
AM_ISO$3
 70
     0
  3

  4
"
  5

  6

  7

 40
1.0
 41
2.5
 42
1.0
 43
10.0
 44
1.0
 45
0.0
 46
0.0
 47
0.1
 48
0.1
140
3.5
141
0.0
142
0.0
143
0.0393701
144
1.0
145
0.0
146
0.71
147
1.5
 71
     0
 72
     0
 73
     0
 74
     1
 75
     0
 76
     0
 77
     1
 78
     8
170
     0
171
     2
172
     0
173
     0
174
     0
175
     0
176
   256
177
   256
178
     2
  0
DIMSTYLE
  2
AM_ISO$4
 70
     0
  3

  4
"
  5

  6

  7

 40
1.0
 41
2.5
 42
1.0
 43
10.0
 44
1.0
 45
0.0
 46
0.0
 47
0.1
 48
0.1
140
3.5
141
0.0
142
0.0
143
0.0393701
144
1.0
145
0.0
146
0.71
147
1.5
 71
     0
 72
     0
 73
     0
 74
     1
 75
     0
 76
     0
 77
     1
 78
     8
170
     0
171
     2
172
     0
173
     0
174
     0
175
     0
176
   256
177
   256
178
     2
  0
DIMSTYLE
  2
AM_ISO$6
 70
     0
  3

  4
"
  5

  6

  7

 40
1.0
 41
2.5
 42
1.0
 43
10.0
 44
1.0
 45
0.0
 46
0.0
 47
0.1
 48
0.1
140
3.5
141
0.0
142
0.0
143
0.0393701
144
1.0
145
0.0
146
0.71
147
1.5
 71
     0
 72
     0
 73
     0
 74
     0
 75
     0
 76
     0
 77
     0
 78
     8
170
     0
171
     2
172
     1
173
     0
174
     0
175
     0
176
   256
177
   256
178
     2
  0
DIMSTYLE
  2
AM_ISO$7
 70
     0
  3

  4
"
  5

  6

  7

 40
1.0
 41
2.5
 42
1.0
 43
10.0
 44
1.0
 45
0.0
 46
0.0
 47
0.1
 48
0.1
140
5.0
141
0.0
142
0.0
143
0.0393701
144
1.0
145
0.0
146
0.71
147
1.5
 71
     0
 72
     0
 73
     0
 74
     0
 75
     0
 76
     0
 77
     1
 78
     8
170
     0
171
     2
172
     1
173
     0
174
     0
175
     0
176
   256
177
   256
178
     2
  0
DIMSTYLE
  2
AM_ISO$SF
 70
     0
  3

  4
"
  5

  6

  7

 40
1.0
 41
2.5
 42
1.0
 43
10.0
 44
1.0
 45
0.0
 46
0.0
 47
0.1
 48
0.1
140
3.5
141
0.0
142
0.0
143
0.0393701
144
1.0
145
0.0
146
0.71
147
1.5
 71
     0
 72
     0
 73
     0
 74
     0
 75
     1
 76
     1
 77
     1
 78
     8
170
     0
171
     2
172
     1
173
     0
174
     0
175
     0
176
   256
177
   256
178
     2
  0
DIMSTYLE
  2
AM_ISO$SH
 70
     0
  3

  4
"
  5

  6
GENAXEH
  7

 40
1.0
 41
2.5
 42
1.0
 43
10.0
 44
1.0
 45
0.0
 46
0.0
 47
0.1
 48
0.1
140
3.5
141
0.0
142
0.0
143
0.0393701
144
2.0
145
0.0
146
0.71
147
1.5
 71
     0
 72
     0
 73
     0
 74
     0
 75
     1
 76
     1
 77
     1
 78
     8
170
     0
171
     2
172
     1
173
     1
174
     0
175
     0
176
   256
177
   256
178
     2
  0
DIMSTYLE
  2
AM_ANSI
 70
     0
  3

  4
mm
  5

  6

  7

 40
1.0
 41
0.12
 42
0.05
 43
0.5
 44
0.1
 45
0.0
 46
0.0
 47
0.1
 48
0.1
140
0.12
141
0.0
142
0.0
143
25.399999999999999
144
1.0
145
0.0
146
0.71
147
0.06
 71
     0
 72
     0
 73
     1
 74
     1
 75
     0
 76
     0
 77
     0
 78
     7
170
     0
171
     2
172
     0
173
     0
174
     0
175
     0
176
   256
177
   256
178
     2
  0
DIMSTYLE
  2
AM_ANSI$3
 70
     0
  3

  4
mm
  5

  6

  7

 40
1.0
 41
0.12
 42
0.05
 43
0.5
 44
0.1
 45
0.0
 46
0.0
 47
0.1
 48
0.1
140
0.12
141
0.0
142
0.0
143
25.399999999999999
144
1.0
145
0.0
146
0.71
147
0.06
 71
     0
 72
     0
 73
     1
 74
     1
 75
     0
 76
     0
 77
     0
 78
     7
170
     0
171
     2
172
     0
173
     0
174
     0
175
     0
176
   256
177
   256
178
     2
  0
DIMSTYLE
  2
AM_ANSI$4
 70
     0
  3

  4
mm
  5

  6

  7

 40
1.0
 41
0.12
 42
0.05
 43
0.5
 44
0.1
 45
0.0
 46
0.0
 47
0.1
 48
0.1
140
0.12
141
0.0
142
0.0
143
25.399999999999999
144
1.0
145
0.0
146
0.71
147
0.06
 71
     0
 72
     0
 73
     1
 74
     1
 75
     0
 76
     0
 77
     0
 78
     7
170
     0
171
     2
172
     0
173
     0
174
     0
175
     0
176
   256
177
   256
178
     2
  0
DIMSTYLE
  2
AM_ANSI$7
 70
     0
  3

  4
mm
  5

  6

  7

 40
1.0
 41
0.12
 42
0.05
 43
0.5
 44
0.1
 45
0.0
 46
0.0
 47
0.1
 48
0.1
140
0.12
141
0.0
142
0.0
143
25.399999999999999
144
1.0
145
0.0
146
0.71
147
0.06
 71
     0
 72
     0
 73
     1
 74
     1
 75
     0
 76
     0
 77
     0
 78
     7
170
     0
171
     2
172
     0
173
     0
174
     0
175
     0
176
   256
177
   256
178
     2
  0
DIMSTYLE
  2
AM_ANSI$SF
 70
     0
  3

  4
mm
  5

  6

  7

 40
1.0
 41
0.12
 42
0.05
 43
0.5
 44
0.1
 45
0.0
 46
0.0
 47
0.1
 48
0.1
140
0.12
141
0.0
142
0.0
143
25.399999999999999
144
1.0
145
0.0
146
0.71
147
0.06
 71
     0
 72
     0
 73
     1
 74
     1
 75
     1
 76
     1
 77
     0
 78
     7
170
     0
171
     2
172
     0
173
     0
174
     0
175
     0
176
   256
177
   256
178
     2
  0
DIMSTYLE
  2
AM_ANSI$SH
 70
     0
  3

  4
mm
  5

  6
GENAXEH
  7

 40
1.0
 41
0.12
 42
0.05
 43
0.5
 44
0.1
 45
0.0
 46
0.0
 47
0.1
 48
0.1
140
0.12
141
0.0
142
0.0
143
25.399999999999999
144
1.0
145
0.0
146
0.71
147
0.06
 71
     0
 72
     0
 73
     1
 74
     1
 75
     1
 76
     1
 77
     0
 78
     7
170
     0
171
     2
172
     0
173
     1
174
     0
175
     0
176
   256
177
   256
178
     2
  0
ENDTAB
  0
ENDSEC
  0
SECTION
  2
BLOCKS
  0
BLOCK
  8
0
  2
$MODEL_SPACE
 70
     0
 10
0.0
 20
0.0
 30
0.0
  3
$MODEL_SPACE
  1

  0
ENDBLK
  5
1C
  8
0
  0
BLOCK
 67
     1
  8
0
  2
$PAPER_SPACE
 70
     0
 10
0.0
 20
0.0
 30
0.0
  3
$PAPER_SPACE
  1

  0
ENDBLK
  5
19
 67
     1
  8
0
  0
BLOCK
  8
0
  2
_OPEN
 70
     0
 10
0.0
 20
0.0
 30
0.0
  3
_OPEN
  1

  0
LINE
  5
3E1A
  8
0
  6
BYBLOCK
 62
     0
 10
-1.0
 20
0.1666666666666666
 30
0.0
 11
0.0
 21
0.0
 31
0.0
  0
LINE
  5
3E1B
  8
0
  6
BYBLOCK
 62
     0
 10
-1.0
 20
-0.1666666666666666
 30
0.0
 11
0.0
 21
0.0
 31
0.0
  0
LINE
  5
3E1C
  8
0
  6
BYBLOCK
 62
     0
 10
0.0
 20
0.0
 30
0.0
 11
-1.0
 21
0.0
 31
0.0
  0
ENDBLK
  5
3E1D
  8
0
  0
BLOCK
  8
0
  2
GENAXEH
 70
     0
 10
0.0
 20
0.0
 30
0.0
  3
GENAXEH
  1

  0
LINE
  5
3E45
  8
0
 10
-1.0
 20
0.0
 30
0.0
 11
1.0
 21
0.0
 31
0.0
  0
ENDBLK
  5
3E46
  8
0
  0
ENDSEC
  0
SECTION
  2
ENTITIES
  0
ARC
  5
42E3
  8
240
  6
CONTINUOUS
 10
-30.3573593128807
 20
9.6500000171236024
 30
0.0
 40
3.0000000000000031
 50
225.0
 51
270.0
  0
ARC
  5
42E4
  8
240
  6
CONTINUOUS
 10
-30.3573593128807
 20
-9.6499999828763521
 30
0.0
 40
3.000000000000028
 50
90.0
 51
135.0
  0
LINE
  5
42E5
  8
241
  6
CONTINUOUS
 10
-10.98982725674851
 20
-2.685707499154804
 30
0.0
 11
-20.325534773027329
 21
6.650000017123574
 31
0.0
  0
LINE
  5
42E6
  8
241
  6
CONTINUOUS
 10
-5.8363758045561811
 20
-2.6827691682198309
 30
0.0
 11
-0.4000000000000058
 21
2.7536066363363418
 31
0.0
  0
LINE
  5
42E7
  8
240
  6
CONTINUOUS
 10
-0.4000000000000057
 20
2.9438852711694792
 30
0.0
 11
-0.4000000000000057
 21
-4.249999982876373
 31
0.0
  0
LINE
  5
42E8
  8
240
  6
CONTINUOUS
 10
-13.169523989354071
 20
-6.6999999828763617
 30
0.0
 11
-4.6818014212469716
 21
-6.6999999828763617
 31
0.0
  0
ARC
  5
42E9
  8
240
  6
CONTINUOUS
 10
-1.4000000000000039
 20
-4.249999982876373
 30
0.0
 40
1.0
 50
270.0
 51
0.0
  0
ARC
  5
42EA
  8
240
  6
CONTINUOUS
 10
-1.5999999999999941
 20
-9.2499999828763748
 30
0.0
 40
4.0
 50
90.0
 51
140.39434760613321
  0
ARC
  5
42EB
  8
240
  6
CONTINUOUS
 10
-13.80000000000001
 20
-10.64999998287635
 30
0.0
 40
4.0000000000000284
 50
80.92482440735246
 51
90.0
  0
LINE
  5
42EC
  8
241
  6
CONTINUOUS
 10
-15.36954282231204
 20
5.9348546909972262
 30
0.0
 11
-16.861718681603008
 21
5.9348546909973248
 31
0.0
  0
LINE
  5
42ED
  8
241
  6
CONTINUOUS
 10
-32.949999999999989
 20
-7.9999999828763739
 30
0.0
 11
-32.949999999999989
 21
8.0000000171236252
 31
0.0
  0
LINE
  5
42EE
  8
240
  6
CONTINUOUS
 10
-103.0
 20
-7.999999999999944
 30
0.0
 11
-103.0
 21
8.0000000000000533
 31
0.0
  0
LINE
  5
42EF
  8
240
  6
CONTINUOUS
 10
-32.950000017123592
 20
-7.9999999999999796
 30
0.0
 11
-32.47867965644037
 21
-7.5286796393166906
 31
0.0
  0
LINE
  5
42F0
  8
240
  6
CONTINUOUS
 10
-30.3573593128807
 20
-6.6499999828763521
 30
0.0
 11
-13.80000000000001
 21
-6.6499999828763521
 31
0.0
  0
LINE
  5
42F1
  8
245
  6
CENTER2
 10
-107.4007252458979
 20
0.0000000000000568
 30
0.0
 11
3.147547459947531
 21
0.0
 31
0.0
  0
LINE
  5
42F2
  8
240
  6
CONTINUOUS
 10
-103.0
 20
-7.999999999999944
 30
0.0
 11
-32.950000017123592
 21
-7.9999999999999796
 31
0.0
  0
LINE
  5
42F3
  8
240
  6
CONTINUOUS
 10
-103.0
 20
8.0000000000000533
 30
0.0
 11
-32.950000220070038
 21
8.0000000000000178
 31
0.0
  0
LINE
  5
42F4
  8
241
  6
CONTINUOUS
 10
-31.60000000000014
 20
-6.9194608195030574
 30
0.0
 11
-31.60000000000014
 21
6.9194608537503068
 31
0.0
  0
TEXT
  5
42F5
  8
241
  6
CONTINUOUS
 10
-105.0
 20
49.0
 30
0.0
 40
5.0
  1
ST16-RC121B-30+RC12400
  7
YOKO
 11
-105.0
 21
49.0
 31
0.0
 73
     1
  0
LINE
  5
42F6
  8
240
  6
CONTINUOUS
 10
-30.3573593128807
 20
6.6500000171236007
 30
0.0
 11
-20.325534773027329
 21
6.650000017123574
 31
0.0
  0
LINE
  5
42F7
  8
250
  6
CONTINUOUS
 10
6.0485946250880431
 20
29.30929758973457
 30
0.0
 11
59.74962202608441
 21
29.309297589734321
 31
0.0
1001
ITEMNAME
1000
LNSP2
  0
ARC
  5
42F8
  8
241
  6
CONTINUOUS
 10
-18.458407399643779
 20
9.8856009846877537
 30
0.0
 40
4.261198322001376
 50
257.13997402237442
 51
292.00602901581482
  0
ARC
  5
42F9
  8
241
  6
CONTINUOUS
 10
-8.4155522303414472
 20
1.613971152764031
 30
0.0
 40
5.0113998464795211
 50
239.09047967277371
 51
300.97485671175878
  0
LINE
  5
42FB
  8
250
  6
CONTINUOUS
 10
-30.0
 20
7.1500000171235438
 30
0.0
 11
-30.0
 21
26.530366380769809
 31
0.0
  0
LINE
  5
42FC
  8
250
  6
CONTINUOUS
 10
0.0
 20
4.6163105219421237
 30
0.0
 11
0.0000000000000014
 21
26.530366380769809
 31
0.0
  0
LINE
  5
42FD
  8
250
  6
CONTINUOUS
 10
-27.77
 20
25.530366380769809
 30
0.0
 11
-2.2299999999999982
 21
25.530366380769809
 31
0.0
  0
LINE
  5
42FE
  8
250
  6
CONTINUOUS
 10
-7.5175522354634561
 20
12.19999999999999
 30
0.0
 11
24.49733177114874
 21
12.19999999999998
 31
0.0
  0
LINE
  5
42FF
  8
250
  6
CONTINUOUS
 10
23.49733177114874
 20
9.9699999999999811
 30
0.0
 11
23.49733177114874
 21
-6.6761948020334438
 31
0.0
  0
LINE
  5
4300
  8
250
  6
CONTINUOUS
 10
0.0
 20
4.6163105219421823
 30
0.0
 11
0.0000000000000018
 21
33.530366380769813
 31
0.0
  0
LINE
  5
4301
  8
250
  6
CONTINUOUS
 10
-103.0
 20
8.5000000000000533
 30
0.0
 11
-103.0
 21
33.530366380769813
 31
0.0
  0
LINE
  5
4302
  8
250
  6
CONTINUOUS
 10
-2.2299999999999982
 20
32.530366380769813
 30
0.0
 11
-100.77
 21
32.530366380769813
 31
0.0
  0
LINE
  5
4303
  8
250
  6
CONTINUOUS
 10
-1.596043781284888
 20
15.936178628868991
 30
0.0
 11
6.0485946250880431
 21
29.30929758973457
 31
0.0
1001
ACAD
1000
DSTYLE
1002
{
1070
    40
1040
1.0
1002
}
  0
LINE
  5
4304
  8
250
  6
CONTINUOUS
 10
-1.273376436652218
 20
15.751728375904101
 30
0.0
 11
-2.70274529907425
 21
14.00017456107298
 31
0.0
  0
LINE
  5
4305
  8
250
  6
CONTINUOUS
 10
-1.918711125917556
 20
16.120628881833891
 30
0.0
 11
-2.70274529907425
 21
14.00017456107298
 31
0.0
  0
LINE
  5
4306
  8
250
  6
CONTINUOUS
 10
-2.70274529907425
 20
14.00017456107298
 30
0.0
 11
-1.596043781284888
 21
15.936178628868991
 31
0.0
  0
TEXT
  5
4307
  8
250
  6
CONTINUOUS
 10
-17.666666666666661
 20
26.530366380769809
 30
0.0
 40
2.799999999999998
  1
30
  0
LINE
  5
4308
  8
250
  6
CONTINUOUS
 10
-2.2299999999999982
 20
25.902033047436468
 30
0.0
 11
0.0000000000000013
 21
25.530366380769809
 31
0.0
  0
LINE
  5
4309
  8
250
  6
CONTINUOUS
 10
-2.2299999999999982
 20
25.15869971410314
 30
0.0
 11
0.0000000000000013
 21
25.530366380769809
 31
0.0
  0
LINE
  5
430A
  8
250
  6
CONTINUOUS
 10
0.0000000000000013
 20
25.530366380769809
 30
0.0
 11
-2.2299999999999982
 21
25.530366380769809
 31
0.0
  0
LINE
  5
430B
  8
250
  6
CONTINUOUS
 10
-27.77
 20
25.15869971410314
 30
0.0
 11
-30.0
 21
25.530366380769809
 31
0.0
  0
LINE
  5
430C
  8
250
  6
CONTINUOUS
 10
-27.77
 20
25.902033047436468
 30
0.0
 11
-30.0
 21
25.530366380769809
 31
0.0
  0
LINE
  5
430D
  8
250
  6
CONTINUOUS
 10
-30.0
 20
25.530366380769809
 30
0.0
 11
-27.77
 21
25.530366380769809
 31
0.0
  0
TEXT
  5
430E
  8
250
  6
CONTINUOUS
 10
22.49733177114874
 20
-5.9619090877477259
 30
0.0
 40
3.0
  1
\U+2205
 50
90.0
  0
TEXT
  5
430F
  8
250
  6
CONTINUOUS
 10
22.397331771148739
 20
-3.2476233734620119
 30
0.0
 40
2.799999999999998
  1
24.4
 50
90.0
  0
LINE
  5
4310
  8
250
  6
CONTINUOUS
 10
23.125665104482081
 20
9.9699999999999811
 30
0.0
 11
23.49733177114874
 21
12.19999999999998
 31
0.0
  0
LINE
  5
4311
  8
250
  6
CONTINUOUS
 10
23.86899843781541
 20
9.9699999999999811
 30
0.0
 11
23.49733177114874
 21
12.19999999999998
 31
0.0
  0
LINE
  5
4312
  8
250
  6
CONTINUOUS
 10
23.49733177114874
 20
12.19999999999998
 30
0.0
 11
23.49733177114874
 21
9.9699999999999811
 31
0.0
  0
TEXT
  5
4313
  8
250
  6
CONTINUOUS
 10
-55.700000000000003
 20
33.530366380769813
 30
0.0
 40
2.799999999999998
  1
103
  0
LINE
  5
4314
  8
250
  6
CONTINUOUS
 10
-100.77
 20
32.158699714103143
 30
0.0
 11
-103.0
 21
32.530366380769813
 31
0.0
  0
LINE
  5
4315
  8
250
  6
CONTINUOUS
 10
-100.77
 20
32.902033047436483
 30
0.0
 11
-103.0
 21
32.530366380769813
 31
0.0
  0
LINE
  5
4316
  8
250
  6
CONTINUOUS
 10
-103.0
 20
32.530366380769813
 30
0.0
 11
-100.77
 21
32.530366380769813
 31
0.0
  0
LINE
  5
4317
  8
250
  6
CONTINUOUS
 10
-2.2299999999999982
 20
32.902033047436483
 30
0.0
 11
0.0000000000000017
 21
32.530366380769813
 31
0.0
  0
LINE
  5
4318
  8
250
  6
CONTINUOUS
 10
-2.2299999999999982
 20
32.158699714103143
 30
0.0
 11
0.0000000000000017
 21
32.530366380769813
 31
0.0
  0
LINE
  5
4319
  8
250
  6
CONTINUOUS
 10
0.0000000000000017
 20
32.530366380769813
 30
0.0
 11
-2.2299999999999982
 21
32.530366380769813
 31
0.0
  0
LINE
  5
431A
  8
240
  6
CONTINUOUS
 10
-32.950000220070038
 20
8.0000000000000178
 30
0.0
 11
-32.478679847430222
 21
7.5286796512733254
 31
0.0
  0
LINE
  5
431B
  8
250
  6
CONTINUOUS
 10
-87.122970128118197
 20
-20.99999999999995
 30
0.0
 11
-101.77533394171709
 21
-20.99999999999995
 31
0.0
1001
ITEMNAME
1000
LNSP2
  0
TEXT
  5
431C
  8
250
  6
CONTINUOUS
 10
-99.619931873061319
 20
-19.99999999999994
 30
0.0
 40
3.0
  1
ST16
  7
YOKO
1001
ITEMNAME
1000
LNSP3
1001
ACAD
1000
MTEXTBEGIN
1070
    73
1070
     1
1070
    44
1040
1.0
1070
    74
1070
     0
1000
MTEXTEND
  0
LINE
  5
431D
  8
250
  6
CONTINUOUS
 10
-80.732416628653084
 20
-9.9312366504393044
 30
0.0
 11
-87.122970128118197
 21
-20.99999999999995
 31
0.0
1001
ACAD
1000
DSTYLE
1002
{
1070
     5
1000
OPEN
1070
    78
1070
     8
1070
   140
1040
3.0
1002
}
  0
LINE
  5
431E
  8
250
  6
CONTINUOUS
 10
-81.054289403726273
 20
-9.7454033171059695
 30
0.0
 11
-79.617416628653075
 21
-8.0000000000000586
 31
0.0
  0
LINE
  5
431F
  8
250
  6
CONTINUOUS
 10
-80.410543853579895
 20
-10.117069983772639
 30
0.0
 11
-79.617416628653075
 21
-8.0000000000000586
 31
0.0
  0
LINE
  5
4320
  8
250
  6
CONTINUOUS
 10
-79.617416628653075
 20
-8.0000000000000586
 30
0.0
 11
-80.732416628653084
 21
-9.9312366504393044
 31
0.0
  0
LINE
  5
4321
  8
247
  6
CONTINUOUS
 10
-96.250000000070045
 20
-5.4999999999999449
 30
0.0
 11
-89.557692308030028
 21
-5.4999999999999449
 31
0.0
  0
ARC
  5
4322
  8
247
  6
CONTINUOUS
 10
-96.250000000070045
 20
-3.750000000069976
 30
0.0
 40
1.7499999999299991
 50
90.0
 51
270.0
  0
ARC
  5
4323
  8
247
  6
CONTINUOUS
 10
-89.557692308030028
 20
-3.750000000069976
 30
0.0
 40
1.7499999999299991
 50
270.0
 51
90.0
  0
LINE
  5
4324
  8
247
  6
CONTINUOUS
 10
-95.384615384720007
 20
-2.0000000001400071
 30
0.0
 11
-96.244851541962021
 21
-5.0000000000199538
 31
0.0
  0
LINE
  5
4325
  8
247
  6
CONTINUOUS
 10
-94.48498381833582
 20
-3.4230769231598419
 30
0.0
 11
-95.792676125975845
 21
-3.4230769231598419
 31
0.0
  0
ARC
  5
4326
  8
247
  6
CONTINUOUS
 10
-94.145143816089785
 20
-2.5495986677028122
 30
0.0
 40
0.5538165441895349
 50
342.9978896752952
 51
82.924166218513577
  0
ARC
  5
4327
  8
247
  6
CONTINUOUS
 10
-94.566878323028789
 20
-2.4360330444657752
 30
0.0
 40
0.9904354236226808
 50
274.74293685219902
 51
343.84922627326682
1001
GENIUS_GENOBJ-N-FIL_13
1002
{
1000
OWNER
1000
GEN
1002
}
1001
GENIUS_GENODEF_13
1002
{
1000
HIER
1070
     0
1002
}
1002
{
1000
MANEDIT
1070
     0
1002
}
1002
{
1000
NOSEL
1070
     0
1002
}
1002
{
1000
BEHIND
1070
     0
1002
}
1002
{
1000
OTHER
1070
     0
1002
}
1002
{
1000
REACTOR
1002
}
  0
LINE
  5
4328
  8
247
  6
CONTINUOUS
 10
-94.937159234321996
 20
-5.0000000000199538
 30
0.0
 11
-96.244851541962021
 21
-5.0000000000199538
 31
0.0
  0
LINE
  5
4329
  8
247
  6
CONTINUOUS
 10
-95.384615384720007
 20
-2.0000000001400071
 30
0.0
 11
-94.076923077079982
 21
-2.0000000001400071
 31
0.0
  0
ARC
  5
432A
  8
247
  6
CONTINUOUS
 10
-94.560919636546942
 20
-3.9820242326654252
 30
0.0
 40
0.5640818586791229
 50
335.9909416525216
 51
82.263443459069066
  0
ARC
  5
432B
  8
247
  6
CONTINUOUS
 10
-95.038262685347036
 20
-3.9874290391864542
 30
0.0
 40
1.0176059446230981
 50
275.70198516425648
 51
347.27733843682199
1001
GENIUS_GENOBJ-N-FIL_13
1002
{
1000
OWNER
1000
GEN
1002
}
1001
GENIUS_GENODEF_13
1002
{
1000
HIER
1070
     0
1002
}
1002
{
1000
MANEDIT
1070
     0
1002
}
1002
{
1000
NOSEL
1070
     0
1002
}
1002
{
1000
BEHIND
1070
     0
1002
}
1002
{
1000
OTHER
1070
     0
1002
}
1002
{
1000
REACTOR
1002
}
  0
LINE
  5
432C
  8
247
  6
CONTINUOUS
 10
-93.283313080542015
 20
-5.0000000000199538
 30
0.0
 11
-92.423076923300016
 21
-2.0000000001400071
 31
0.0
  0
LINE
  5
432D
  8
247
  6
CONTINUOUS
 10
-90.000000000320014
 20
-2.0000000001400071
 30
0.0
 11
-90.565736619456615
 21
-2.0000000001400071
 31
0.0
  0
LINE
  5
432E
  8
247
  6
CONTINUOUS
 10
-91.461538461799975
 20
-5.0000000000199538
 30
0.0
 11
-90.846153846440004
 21
-5.0000000000199538
 31
0.0
  0
ARC
  5
432F
  8
247
  6
CONTINUOUS
 10
-89.708791209122865
 20
-4.0832851359733153
 30
0.0
 40
2.2526500823422122
 50
112.3594881415293
 51
164.9932485428464
  0
ARC
  5
4330
  8
247
  6
CONTINUOUS
 10
-90.374069479213233
 20
-2.8083126551945852
 30
0.0
 40
0.8906723995727782
 50
4.9945893190753248
 51
65.166328957300522
1001
GENIUS_GENOBJ-N-FIL_13
1002
{
1000
OWNER
1000
GEN
1002
}
1001
GENIUS_GENODEF_13
1002
{
1000
HIER
1070
     0
1002
}
1002
{
1000
MANEDIT
1070
     0
1002
}
1002
{
1000
NOSEL
1070
     0
1002
}
1002
{
1000
BEHIND
1070
     0
1002
}
1002
{
1000
OTHER
1070
     0
1002
}
1002
{
1000
REACTOR
1002
}
  0
ARC
  5
4331
  8
247
  6
CONTINUOUS
 10
-91.226458886212583
 20
-3.6601458886677301
 30
0.0
 40
1.392781735586712
 50
285.84609655578072
 51
352.3251370041624
  0
ARC
  5
4332
  8
247
  6
CONTINUOUS
 10
-90.642212725840352
 20
-3.9592434315272289
 30
0.0
 40
1.324563662670287
 50
159.71360167048999
 51
231.78874565641439
1001
GENIUS_GENOBJ-N-FIL_13
1002
{
1000
OWNER
1000
GEN
1002
}
1001
GENIUS_GENODEF_13
1002
{
1000
HIER
1070
     0
1002
}
1002
{
1000
MANEDIT
1070
     0
1002
}
1002
{
1000
NOSEL
1070
     0
1002
}
1002
{
1000
BEHIND
1070
     0
1002
}
1002
{
1000
OTHER
1070
     0
1002
}
1002
{
1000
REACTOR
1002
}
  0
LINE
  5
4333
  8
247
  6
CONTINUOUS
 10
-90.538461538759975
 20
-3.8461538462199218
 30
0.0
 11
-89.846153846479979
 21
-3.8461538462199218
 31
0.0
  0
LINE
  5
4334
  8
247
  6
CONTINUOUS
 10
-96.250000000070045
 20
-2.0000000001400071
 30
0.0
 11
-95.576923077020069
 21
-2.0000000001400071
 31
0.0
  0
LINE
  5
4353
  8
240
  6
CONTINUOUS
 10
-1.599999999999993
 20
-5.2499999828763739
 30
0.0
 11
-1.4000000000000039
 21
-5.249999982876373
 31
0.0
  0
LINE
  5
43B1
  8
241
  6
CONTINUOUS
 10
-0.087867965644023
 20
4.5631240867188172
 30
0.0
 11
-1.1498586873827601
 21
5.6251148084563747
 31
0.0
  0
ARC
  5
43B2
  8
241
  6
CONTINUOUS
 10
-0.3000000000000116
 20
4.3509920523628711
 30
0.0
 40
0.3
 50
359.99999999999591
 51
44.999999999992802
  0
ARC
  5
43B3
  8
241
  6
CONTINUOUS
 10
-0.3000000000000685
 20
3.4681493398881802
 30
0.0
 40
0.3
 50
314.99999999999852
 51
359.99999999999591
  0
LINE
  5
43B4
  8
241
  6
CONTINUOUS
 10
-0.0000000000000287
 20
4.3509920523628489
 30
0.0
 11
-0.0000000000000855
 21
3.468149339888158
 31
0.0
  0
ARC
  5
43B5
  8
241
  6
CONTINUOUS
 10
-8.8559920523562283
 20
12.02414139224557
 30
0.0
 40
0.3
 50
89.999999999995111
 51
134.99999999999309
  0
ARC
  5
43B6
  8
241
  6
CONTINUOUS
 10
-7.9731493398815303
 20
12.02414139224552
 30
0.0
 40
0.3
 50
44.999999999999133
 51
89.999999999995111
  0
LINE
  5
43B7
  8
241
  6
CONTINUOUS
 10
-8.8559920523562141
 20
12.32414139224557
 30
0.0
 11
-7.9731493398815161
 21
12.324141392245521
 31
0.0
  0
ARC
  5
43B8
  8
241
  6
CONTINUOUS
 10
-16.52914139223893
 20
3.468149339889373
 30
0.0
 40
0.3
 50
179.99999999999591
 51
224.9999999999925
  0
ARC
  5
43B9
  8
241
  6
CONTINUOUS
 10
-16.52914139223887
 20
4.3509920523640639
 30
0.0
 40
0.3
 50
134.99999999999821
 51
179.99999999999591
  0
LINE
  5
43BA
  8
241
  6
CONTINUOUS
 10
-16.829141392238942
 20
3.4681493398893952
 30
0.0
 11
-16.829141392238881
 21
4.3509920523640861
 31
0.0
  0
LINE
  5
43BE
  8
241
  6
CONTINUOUS
 10
-5.2904698756670419
 20
9.7657259967433223
 30
0.0
 11
-7.7610173055251428
 21
12.23627342660186
 31
0.0
  0
LINE
  5
43C2
  8
241
  6
CONTINUOUS
 10
-1.2904698756646551
 20
5.6251148084566447
 30
0.0
 11
-1.1498586873827601
 21
5.6251148084563747
 31
0.0
  0
LINE
  5
43C3
  8
241
  6
CONTINUOUS
 10
-5.2904698756646829
 20
9.6251148084566172
 30
0.0
 11
-5.2904698756670419
 21
9.7657259967433223
 31
0.0
  0
ARC
  5
43C4
  8
241
  6
CONTINUOUS
 10
-1.2904698756646831
 20
9.6251148084566314
 30
0.0
 40
4.0
 50
180.0
 51
270.0
  0
LINE
  5
43C5
  8
241
  6
CONTINUOUS
 10
-9.0681240867121744
 20
12.23627342660156
 30
0.0
 11
-10.130114808448271
 21
11.174282704865011
 31
0.0
  0
LINE
  5
43C6
  8
241
  6
CONTINUOUS
 10
-14.270725996734599
 20
7.0336715165804424
 30
0.0
 11
-16.741273426595232
 21
4.5631240867204506
 31
0.0
  0
LINE
  5
43C8
  8
241
  6
CONTINUOUS
 10
-10.130114808449999
 20
11.03367151658092
 30
0.0
 11
-10.130114808448271
 21
11.174282704865011
 31
0.0
  0
LINE
  5
43C9
  8
241
  6
CONTINUOUS
 10
-14.130114808449971
 20
7.0336715165809114
 30
0.0
 11
-14.270725996734599
 21
7.0336715165804424
 31
0.0
  0
ARC
  5
43CA
  8
241
  6
CONTINUOUS
 10
-14.130114808449999
 20
11.03367151658092
 30
0.0
 40
4.0
 50
270.0
 51
0.0
  0
LINE
  5
43CB
  8
241
  6
CONTINUOUS
 10
-16.74127342659494
 20
3.2560173055334061
 30
0.0
 11
-15.679282704858389
 21
2.194026583797311
 31
0.0
  0
LINE
  5
43CC
  8
241
  6
CONTINUOUS
 10
-11.53867151657381
 20
-1.9465846044890089
 30
0.0
 11
-10.578752323135379
 21
-2.9065037979276842
 31
0.0
  0
LINE
  5
43CE
  8
241
  6
CONTINUOUS
 10
-15.538671516574309
 20
2.1940265837955781
 30
0.0
 11
-15.679282704858389
 21
2.194026583797311
 31
0.0
  0
LINE
  5
43CF
  8
241
  6
CONTINUOUS
 10
-11.538671516574279
 20
-1.805973416204393
 30
0.0
 11
-11.53867151657381
 21
-1.9465846044890089
 31
0.0
  0
ARC
  5
43D0
  8
241
  6
CONTINUOUS
 10
-15.538671516574279
 20
-1.805973416204407
 30
0.0
 40
4.0
 50
0.0
 51
90.0
  0
LINE
  5
43D2
  8
241
  6
CONTINUOUS
 10
-2.5584153955043689
 20
0.7854698756717813
 30
0.0
 11
-0.0878679656437387
 21
3.2560173055317718
 31
0.0
  0
LINE
  5
43D5
  8
241
  6
CONTINUOUS
 10
-2.6990265837889922
 20
0.7854698756713124
 30
0.0
 11
-2.5584153955043689
 21
0.7854698756717813
 31
0.0
  0
ARC
  5
43D6
  8
241
  6
CONTINUOUS
 10
-2.6990265837889642
 20
-3.2145301243286868
 30
0.0
 40
4.0
 50
90.0
 51
178.26778818935639
  0
CIRCLE
  5
4441
  8
241
  6
CONTINUOUS
 10
-8.4145706961194833
 20
3.909570696126115
 30
0.0
 40
3.0
  0
TEXT
  5
4532
  8
250
  6
CONTINUOUS
 10
8.3152612917547124
 20
30.309297589734602
 30
0.0
 40
2.799999999999998
  1
INSERT MODEL:RC12400
  7
YOKO
1001
ITEMNAME
1000
LNSP3
  0
TEXT
  5
4533
  8
250
  6
CONTINUOUS
 10
7.1685946250880432
 20
25.509297589734562
 30
0.0
 40
2.799999999999998
  1
üiOPTIONüj
  7
YOKO
1001
ITEMNAME
1000
LNSP4
  0
VIEWPORT
  5
22
 67
     1
  8
0
 10
261.51769911504419
 20
148.5
 30
0.0
 40
523.0353982300885
 41
297.0
 68
     1
 69
     1
1001
ACAD
1000
MVIEW
1002
{
1070
    16
1010
0.0
1020
0.0
1030
0.0
1010
0.0
1020
0.0
1030
1.0
1040
0.0
1040
297.0
1040
261.51769911504419
1040
148.5
1040
50.0
1040
0.0
1040
0.0
1070
     0
1070
   100
1070
     1
1070
     1
1070
     0
1070
     0
1070
     0
1070
     0
1040
0.0
1040
0.0
1040
0.0
1040
1.0
1040
1.0
1040
10.0
1040
10.0
1070
     0
1002
{
1002
}
1002
}
1001
GENIUS_GENODEF_13
1002
{
1000
HIER
1070
     0
1002
}
1002
{
1000
MANEDIT
1070
     0
1002
}
1002
{
1000
NOSEL
1070
     0
1002
}
1002
{
1000
BEHIND
1070
     0
1002
}
1002
{
1000
OTHER
1070
     0
1002
}
1002
{
1000
REACTOR
1002
}
1001
GENIUS_GENOBJ-N-SDF_13
1002
{
1000
OWNER
1000
GEN
1002
}
1001
GENIUS_GENSCREG_15
1000
PF
1040
1.0
1000
DF
1040
1.0
1000
MIN
1011
0.0
1021
0.0
1031
0.0
1021
0.0
1031
0.0
1000
MAX
1011
523.0353982300885
1021
0.0
1031
0.0
1021
297.0
1031
0.0
1000
FLAGS
1070
     4
  0
ENDSEC
  0
EOF
