  0
SECTION
  2
HEADER
  9
$ACADVER
  1
AC1009
  9
$INSBASE
 10
0.0
 20
0.0
 30
0.0
  9
$EXTMIN
 10
-98.057198357125785
 20
-20.999999999999879
 30
0.0
  9
$EXTMAX
 10
58.429865130373841
 20
47.000000000000007
 30
0.0
  9
$LIMMIN
 10
0.0
 20
0.0
  9
$LIMMAX
 10
297.0
 20
210.0
  9
$ORTHOMODE
 70
     0
  9
$REGENMODE
 70
     1
  9
$FILLMODE
 70
     1
  9
$QTEXTMODE
 70
     0
  9
$MIRRTEXT
 70
     1
  9
$DRAGMODE
 70
     2
  9
$LTSCALE
 40
10.0
  9
$OSMODE
 70
     0
  9
$ATTMODE
 70
     1
  9
$TEXTSIZE
 40
3.0
  9
$TRACEWID
 40
1.0
  9
$TEXTSTYLE
  7
YOKO
  9
$CLAYER
  8
240
  9
$CELTYPE
  6
BYLAYER
  9
$CECOLOR
 62
   256
  9
$DIMSCALE
 40
1.0
  9
$DIMASZ
 40
2.2299999999999991
  9
$DIMEXO
 40
0.5
  9
$DIMDLI
 40
7.0
  9
$DIMRND
 40
0.0
  9
$DIMDLE
 40
0.0
  9
$DIMEXE
 40
1.0
  9
$DIMTP
 40
0.0
  9
$DIMTM
 40
0.01
  9
$DIMTXT
 40
2.7999999999999989
  9
$DIMCEN
 40
0.0
  9
$DIMTSZ
 40
0.0
  9
$DIMTOL
 70
     0
  9
$DIMLIM
 70
     0
  9
$DIMTIH
 70
     0
  9
$DIMTOH
 70
     0
  9
$DIMSE1
 70
     0
  9
$DIMSE2
 70
     0
  9
$DIMTAD
 70
     3
  9
$DIMZIN
 70
     9
  9
$DIMBLK
  1
OPEN
  9
$DIMASO
 70
     1
  9
$DIMSHO
 70
     1
  9
$DIMPOST
  1

  9
$DIMAPOST
  1

  9
$DIMALT
 70
     0
  9
$DIMALTD
 70
     2
  9
$DIMALTF
 40
25.399999999999999
  9
$DIMLFAC
 40
1.0
  9
$DIMTOFL
 70
     1
  9
$DIMTVP
 40
0.0
  9
$DIMTIX
 70
     1
  9
$DIMSOXD
 70
     0
  9
$DIMSAH
 70
     0
  9
$DIMBLK1
  1

  9
$DIMBLK2
  1

  9
$DIMSTYLE
  2
BIGT
  9
$DIMCLRD
 70
   256
  9
$DIMCLRE
 70
   256
  9
$DIMCLRT
 70
    40
  9
$DIMTFAC
 40
1.0
  9
$DIMGAP
 40
1.0
  9
$LUNITS
 70
     2
  9
$LUPREC
 70
     6
  9
$SKETCHINC
 40
1.0
  9
$FILLETRAD
 40
0.0
  9
$AUNITS
 70
     0
  9
$AUPREC
 70
     6
  9
$MENU
  1
.
  9
$ELEVATION
 40
0.0
  9
$PELEVATION
 40
0.0
  9
$THICKNESS
 40
0.0
  9
$LIMCHECK
 70
     0
  9
$BLIPMODE
 70
     0
  9
$CHAMFERA
 40
0.2
  9
$CHAMFERB
 40
0.2
  9
$SKPOLY
 70
     0
  9
$TDCREATE
 40
2457840.697508438
  9
$TDUPDATE
 40
2457840.7029092941
  9
$TDINDWG
 40
0.005278287
  9
$TDUSRTIMER
 40
0.0052782639
  9
$USRTIMER
 70
     1
  9
$ANGBASE
 50
0.0
  9
$ANGDIR
 70
     0
  9
$PDMODE
 70
     1
  9
$PDSIZE
 40
0.0
  9
$PLINEWID
 40
0.0
  9
$COORDS
 70
     1
  9
$SPLFRAME
 70
     0
  9
$SPLINETYPE
 70
     6
  9
$SPLINESEGS
 70
     4
  9
$ATTDIA
 70
     1
  9
$ATTREQ
 70
     1
  9
$HANDLING
 70
     1
  9
$HANDSEED
  5
4507
  9
$SURFTAB1
 70
     6
  9
$SURFTAB2
 70
     6
  9
$SURFTYPE
 70
     6
  9
$SURFU
 70
     6
  9
$SURFV
 70
     6
  9
$UCSNAME
  2

  9
$UCSORG
 10
0.0
 20
0.0
 30
0.0
  9
$UCSXDIR
 10
1.0
 20
0.0
 30
0.0
  9
$UCSYDIR
 10
0.0
 20
1.0
 30
0.0
  9
$PUCSNAME
  2

  9
$PUCSORG
 10
0.0
 20
0.0
 30
0.0
  9
$PUCSXDIR
 10
1.0
 20
0.0
 30
0.0
  9
$PUCSYDIR
 10
0.0
 20
1.0
 30
0.0
  9
$USERI1
 70
     1
  9
$USERI2
 70
     0
  9
$USERI3
 70
     0
  9
$USERI4
 70
     0
  9
$USERI5
 70
     0
  9
$USERR1
 40
0.0
  9
$USERR2
 40
0.0
  9
$USERR3
 40
0.0
  9
$USERR4
 40
0.0
  9
$USERR5
 40
0.0
  9
$WORLDVIEW
 70
     1
  9
$SHADEDGE
 70
     3
  9
$SHADEDIF
 70
    70
  9
$TILEMODE
 70
     1
  9
$MAXACTVP
 70
    16
  9
$PLIMCHECK
 70
     0
  9
$PEXTMIN
 10
1.0000000000000000E+020
 20
1.0000000000000000E+020
 30
1.0000000000000000E+020
  9
$PEXTMAX
 10
-1.0000000000000000E+020
 20
-1.0000000000000000E+020
 30
-1.0000000000000000E+020
  9
$PLIMMIN
 10
0.0
 20
0.0
  9
$PLIMMAX
 10
420.0
 20
297.0
  9
$UNITMODE
 70
     0
  9
$VISRETAIN
 70
     1
  9
$PLINEGEN
 70
     0
  9
$PSLTSCALE
 70
     1
  0
ENDSEC
  0
SECTION
  2
TABLES
  0
TABLE
  2
VPORT
 70
     1
  0
VPORT
  2
*ACTIVE
 70
     0
 10
0.0
 20
0.0
 11
1.0
 21
1.0
 12
-15.92129795231844
 22
30.408862566073822
 13
0.0
 23
0.0
 14
7.0
 24
7.0
 15
7.0
 25
7.0
 16
0.0
 26
0.0
 36
1.0
 17
0.0
 27
0.0
 37
0.0
 40
166.83939528177251
 41
1.5303030303030301
 42
50.0
 43
0.0
 44
0.0
 50
0.0
 51
0.0
 71
     0
 72
  2000
 73
     1
 74
     0
 75
     0
 76
     1
 77
     0
 78
     0
  0
ENDTAB
  0
TABLE
  2
LTYPE
 70
    18
  0
LTYPE
  2
CONTINUOUS
 70
     0
  3
Solid line
 72
    65
 73
     0
 40
0.0
  0
LTYPE
  2
CENTER2
 70
     0
  3
___ _ ___ _ ___ _ ___ _ ___ _ ___ _ ___ _ ___ _
 72
    65
 73
     4
 40
1.125
 49
0.75
 49
-0.125
 49
0.125
 49
-0.125
  0
LTYPE
  2
AM_ISO02W050
 70
     0
  3
__ __ __ __ __ __ __ __ __ __ __ __ __ __ __
 72
    65
 73
     2
 40
7.5
 49
6.0
 49
-1.5
  0
LTYPE
  2
AMCONSTR
 70
     0
  3
_______________________
 72
    65
 73
     2
 40
9999.0
 49
9999.0
 49
0.0
  0
LTYPE
  2
ACISOWELD
 70
     0
  3
_ _ _ _ _
 72
    65
 73
     2
 40
2.0
 49
2.0
 49
-1.0
  0
LTYPE
  2
ACISOTGB
 70
     0
  3
__ . . __ . .
 72
    65
 73
     6
 40
9.0
 49
4.0
 49
-1.0
 49
1.0
 49
-1.0
 49
1.0
 49
-1.0
  0
LTYPE
  2
ACISOTGL
 70
     0
  3
_ _ _ _ _
 72
    65
 73
     2
 40
3.0
 49
2.0
 49
-1.0
  0
LTYPE
  2
AM_ISO08W050
 70
     0
  3
____ . ____ . ____ . ____ . ____ . ____ . ____
 72
    65
 73
     4
 40
18.0
 49
12.0
 49
-1.5
 49
3.0
 49
-1.5
  0
LTYPE
  2
AM_ISO09W050
 70
     0
  3
_____ . . _____ . . _____ . . ____ .. ____
 72
    65
 73
     6
 40
22.5
 49
12.0
 49
-1.5
 49
3.0
 49
-1.5
 49
3.0
 49
-1.5
  0
LTYPE
  2
AM_ISO08W050X2
 70
     0
  3
__ . __ . __ . __ . __ . __
 72
    65
 73
     4
 40
9.0
 49
6.0
 49
-0.75
 49
1.5
 49
-0.75
  0
LTYPE
  2
AM_ISO02W050X2
 70
     0
  3
 _ _ _ _ _ _ _ _ _ _ _ _
 72
    65
 73
     2
 40
3.75
 49
3.0
 49
-0.75
  0
LTYPE
  2
AMZIGZAG
 70
     0
  3
/\/-/\/-/\/-/\/-/\/-/\/
 72
    65
 73
     2
 40
11.0001
 49
0.0001
 49
-11.0
  0
ENDTAB
  0
TABLE
  2
LAYER
 70
     7
  0
LAYER
  2
0
 70
     0
 62
     7
  6
CONTINUOUS
  0
LAYER
  2
DEFPOINTS
 70
     0
 62
     7
  6
CONTINUOUS
  0
LAYER
  2
245
 70
     0
 62
     2
  6
CENTER2
  0
LAYER
  2
240
 70
     0
 62
     4
  6
CONTINUOUS
  0
LAYER
  2
241
 70
     0
 62
   211
  6
CONTINUOUS
  0
LAYER
  2
247
 70
     0
 62
    60
  6
CONTINUOUS
  0
LAYER
  2
250
 70
     0
 62
     3
  6
CONTINUOUS
  0
ENDTAB
  0
TABLE
  2
STYLE
 70
     7
  0
STYLE
  2
STANDARD
 70
     0
 40
0.0
 41
1.0
 50
0.0
 71
     0
 42
3.0
  3
romans.shx
  4
extfont.shx
  0
STYLE
  2
ACISOGDT
 70
     0
 40
0.0
 41
1.0
 50
0.0
 71
     0
 42
3.0
  3
amgdt.shx
  4
extfont.shx
  0
STYLE
  2
YOKO
 70
     0
 40
0.0
 41
1.0
 50
0.0
 71
     0
 42
3.0
  3
romans.shx
  4
extfont.shx
  0
STYLE
  2

 70
     1
 40
0.0
 41
1.0
 50
0.0
 71
     0
 42
3.0
  3
genltshp.shx
  4

  0
ENDTAB
  0
TABLE
  2
VIEW
 70
     0
  0
ENDTAB
  0
TABLE
  2
UCS
 70
     0
  0
ENDTAB
  0
TABLE
  2
APPID
 70
    38
  0
APPID
  2
ACAD
 70
     0
  0
APPID
  2
GLOBAL
 70
     0
  0
APPID
  2
DETAIL
 70
     0
  0
APPID
  2
GRPNAME
 70
     0
  0
APPID
  2
GPARA
 70
     0
  0
APPID
  2
MCAD_NO_VIS
 70
     0
  0
APPID
  2
ACAD_TEMP_GRAPHIC
 70
     0
  0
APPID
  2
ACATTRIBSERVICES
 70
     0
  0
APPID
  2
GENIUS_GENSCREG_15
 70
     0
  0
APPID
  2
GENIUS_GENODEF_13
 70
     0
  0
APPID
  2
GENIUS_GENOBJ-N-SDF_13
 70
     0
  0
APPID
  2
GENIUS_GENREC_14
 70
     0
  0
APPID
  2
GENIUS_GENOBJ-N-REC_13
 70
     0
  0
APPID
  2
GENIUS_GENDIMSH_14
 70
     0
  0
APPID
  2
GENIUS_GENOBJ-N-DIM_13
 70
     0
  0
APPID
  2
GENIUS_GENDIM_13
 70
     0
  0
APPID
  2
GENIUS_GENDTOL_13
 70
     0
  0
APPID
  2
GENIUS_GENOLIS_13
 70
     0
  0
APPID
  2
GENIUS_GENOENT_13
 70
     0
  0
APPID
  2
GENIUS_GENOBJ-F-FEM_13
 70
     0
  0
APPID
  2
GENIUS_GENOREF_13
 70
     0
  0
APPID
  2
GENIUS_GEFFEM_13
 70
     0
  0
APPID
  2
GENIUS_GEFFEMP_13
 70
     0
  0
APPID
  2
AD_DRAW
 70
     0
  0
APPID
  2
DESIGNERASSEMBLIES
 70
     0
  0
APPID
  2
ACADM_DIM_EDIT
 70
     0
  0
APPID
  2
AMDT_DM_ADJ
 70
     0
  0
APPID
  2
ITEMNAME
 70
     0
  0
APPID
  2
GENIUS_GENOBJ-N-FIL_13
 70
     0
  0
APPID
  2
GENIUS_GENFIL_13
 70
     0
  0
APPID
  2
GENIUS_GENOBJ-N-CHA_13
 70
     0
  0
APPID
  2
ACAECLAYERSTANDARD
 70
     0
  0
APPID
  2
ACAD_NAV_VCDISPLAY
 70
     0
  0
APPID
  2
ACAD_PSEXT
 70
     0
  0
APPID
  2
ACAD_DSTYLE_DIMJAG
 70
     0
  0
APPID
  2
ACAD_DSTYLE_DIMBREAK
 70
     0
  0
APPID
  2
ACAD_EXEMPT_FROM_CAD_STANDARDS
 70
     0
  0
APPID
  2
ACAD_MLEADERVER
 70
     0
  0
ENDTAB
  0
TABLE
  2
DIMSTYLE
 70
    23
  0
DIMSTYLE
  2
BIGT
 70
     0
  3

  4

  5
OPEN
  6

  7

 40
1.0
 41
2.2299999999999991
 42
0.5
 43
7.0
 44
1.0
 45
0.0
 46
0.0
 47
0.0
 48
0.01
140
2.7999999999999989
141
0.0
142
0.0
143
25.399999999999999
144
1.0
145
0.0
146
1.0
147
1.0
 71
     0
 72
     0
 73
     0
 74
     0
 75
     0
 76
     0
 77
     3
 78
     9
170
     0
171
     2
172
     1
173
     0
174
     1
175
     0
176
   256
177
   256
178
    40
  0
DIMSTYLE
  2
AM_ISO
 70
     0
  3

  4
"
  5

  6

  7

 40
1.0
 41
2.5
 42
1.0
 43
10.0
 44
1.0
 45
0.0
 46
0.0
 47
0.1
 48
0.1
140
3.5
141
0.0
142
0.0
143
0.0393701
144
1.0
145
0.0
146
0.71
147
1.5
 71
     0
 72
     0
 73
     0
 74
     0
 75
     0
 76
     0
 77
     1
 78
     8
170
     0
171
     2
172
     1
173
     0
174
     0
175
     0
176
   256
177
   256
178
     2
  0
DIMSTYLE
  2
AM_ISO$3
 70
     0
  3

  4
"
  5

  6

  7

 40
1.0
 41
2.5
 42
1.0
 43
10.0
 44
1.0
 45
0.0
 46
0.0
 47
0.1
 48
0.1
140
3.5
141
0.0
142
0.0
143
0.0393701
144
1.0
145
0.0
146
0.71
147
1.5
 71
     0
 72
     0
 73
     0
 74
     1
 75
     0
 76
     0
 77
     1
 78
     8
170
     0
171
     2
172
     0
173
     0
174
     0
175
     0
176
   256
177
   256
178
     2
  0
DIMSTYLE
  2
AM_ISO$4
 70
     0
  3

  4
"
  5

  6

  7

 40
1.0
 41
2.5
 42
1.0
 43
10.0
 44
1.0
 45
0.0
 46
0.0
 47
0.1
 48
0.1
140
3.5
141
0.0
142
0.0
143
0.0393701
144
1.0
145
0.0
146
0.71
147
1.5
 71
     0
 72
     0
 73
     0
 74
     1
 75
     0
 76
     0
 77
     1
 78
     8
170
     0
171
     2
172
     0
173
     0
174
     0
175
     0
176
   256
177
   256
178
     2
  0
DIMSTYLE
  2
AM_ISO$6
 70
     0
  3

  4
"
  5

  6

  7

 40
1.0
 41
2.5
 42
1.0
 43
10.0
 44
1.0
 45
0.0
 46
0.0
 47
0.1
 48
0.1
140
3.5
141
0.0
142
0.0
143
0.0393701
144
1.0
145
0.0
146
0.71
147
1.5
 71
     0
 72
     0
 73
     0
 74
     0
 75
     0
 76
     0
 77
     0
 78
     8
170
     0
171
     2
172
     1
173
     0
174
     0
175
     0
176
   256
177
   256
178
     2
  0
DIMSTYLE
  2
AM_ISO$7
 70
     0
  3

  4
"
  5

  6

  7

 40
1.0
 41
2.5
 42
1.0
 43
10.0
 44
1.0
 45
0.0
 46
0.0
 47
0.1
 48
0.1
140
5.0
141
0.0
142
0.0
143
0.0393701
144
1.0
145
0.0
146
0.71
147
1.5
 71
     0
 72
     0
 73
     0
 74
     0
 75
     0
 76
     0
 77
     1
 78
     8
170
     0
171
     2
172
     1
173
     0
174
     0
175
     0
176
   256
177
   256
178
     2
  0
DIMSTYLE
  2
AM_ISO$SF
 70
     0
  3

  4
"
  5

  6

  7

 40
1.0
 41
2.5
 42
1.0
 43
10.0
 44
1.0
 45
0.0
 46
0.0
 47
0.1
 48
0.1
140
3.5
141
0.0
142
0.0
143
0.0393701
144
1.0
145
0.0
146
0.71
147
1.5
 71
     0
 72
     0
 73
     0
 74
     0
 75
     1
 76
     1
 77
     1
 78
     8
170
     0
171
     2
172
     1
173
     0
174
     0
175
     0
176
   256
177
   256
178
     2
  0
DIMSTYLE
  2
AM_ISO$SH
 70
     0
  3

  4
"
  5

  6
GENAXEH
  7

 40
1.0
 41
2.5
 42
1.0
 43
10.0
 44
1.0
 45
0.0
 46
0.0
 47
0.1
 48
0.1
140
3.5
141
0.0
142
0.0
143
0.0393701
144
2.0
145
0.0
146
0.71
147
1.5
 71
     0
 72
     0
 73
     0
 74
     0
 75
     1
 76
     1
 77
     1
 78
     8
170
     0
171
     2
172
     1
173
     1
174
     0
175
     0
176
   256
177
   256
178
     2
  0
ENDTAB
  0
ENDSEC
  0
SECTION
  2
BLOCKS
  0
BLOCK
  8
0
  2
$MODEL_SPACE
 70
     0
 10
0.0
 20
0.0
 30
0.0
  3
$MODEL_SPACE
  1

  0
ENDBLK
  5
1C
  8
0
  0
BLOCK
 67
     1
  8
0
  2
$PAPER_SPACE
 70
     0
 10
0.0
 20
0.0
 30
0.0
  3
$PAPER_SPACE
  1

  0
ENDBLK
  5
19
 67
     1
  8
0
  0
BLOCK
  8
0
  2
_OPEN
 70
     0
 10
0.0
 20
0.0
 30
0.0
  3
_OPEN
  1

  0
LINE
  5
3E1A
  8
0
  6
BYBLOCK
 62
     0
 10
-1.0
 20
0.1666666666666666
 30
0.0
 11
0.0
 21
0.0
 31
0.0
  0
LINE
  5
3E1B
  8
0
  6
BYBLOCK
 62
     0
 10
-1.0
 20
-0.1666666666666666
 30
0.0
 11
0.0
 21
0.0
 31
0.0
  0
LINE
  5
3E1C
  8
0
  6
BYBLOCK
 62
     0
 10
0.0
 20
0.0
 30
0.0
 11
-1.0
 21
0.0
 31
0.0
  0
ENDBLK
  5
3E1D
  8
0
  0
BLOCK
  8
0
  2
GENAXEH
 70
     0
 10
0.0
 20
0.0
 30
0.0
  3
GENAXEH
  1

  0
LINE
  5
3E45
  8
0
 10
-1.0
 20
0.0
 30
0.0
 11
1.0
 21
0.0
 31
0.0
  0
ENDBLK
  5
3E46
  8
0
  0
ENDSEC
  0
SECTION
  2
ENTITIES
  0
LINE
  5
42F0
  8
240
  6
CONTINUOUS
 10
-4.5180960050149661
 20
-2.8180960025753161
 30
0.0
 11
-7.650499999999937
 21
-5.9504999975603132
 31
0.0
  0
LINE
  5
42F1
  8
241
  6
CONTINUOUS
 10
-1.3385209996941629
 20
0.5029003589834311
 30
0.0
 11
-3.384515077565653
 21
-1.543093718888493
 31
0.0
  0
LINE
  5
42F2
  8
241
  6
CONTINUOUS
 10
-4.0304213586772688
 20
-2.1890000000002461
 30
0.0
 11
-4.5888066831335923
 21
-2.7473853244566881
 31
0.0
  0
LINE
  5
42F3
  8
241
  6
CONTINUOUS
 10
-4.5180960050149661
 20
-2.8180960025753161
 30
0.0
 11
-7.474340589066343
 21
0.1381485814761163
 31
0.0
  0
LINE
  5
42F4
  8
241
  6
CONTINUOUS
 10
-7.474340589066343
 20
3.6736824874088789
 30
0.0
 11
-5.1980230740356026
 21
5.9500000024396522
 31
0.0
  0
LINE
  5
42F5
  8
241
  6
CONTINUOUS
 10
-23.950000000000021
 20
-7.9999999975602778
 30
0.0
 11
-23.950000000000021
 21
8.0000000024397178
 31
0.0
  0
ARC
  5
42F6
  8
240
  6
CONTINUOUS
 10
-20.243145750507608
 20
-9.9499999975603224
 30
0.0
 40
4.0
 50
90.0
 51
135.0
  0
ARC
  5
42F7
  8
240
  6
CONTINUOUS
 10
-20.243145750507608
 20
9.9500000024397082
 30
0.0
 40
4.0
 50
225.0
 51
270.0
  0
LINE
  5
42F8
  8
240
  6
CONTINUOUS
 10
-94.0
 20
-7.999999999999889
 30
0.0
 11
-94.0
 21
8.0000000000001101
 31
0.0
  0
LINE
  5
42F9
  8
240
  6
CONTINUOUS
 10
-23.950000002439712
 20
-7.9999999999999689
 30
0.0
 11
-23.071572875253821
 21
-7.1215728728141121
 31
0.0
  0
LINE
  5
42FA
  8
240
  6
CONTINUOUS
 10
-20.24314575050764
 20
-5.949999997560325
 30
0.0
 11
-7.650499999999937
 21
-5.9504999975603132
 31
0.0
  0
LINE
  5
42FB
  8
241
  6
CONTINUOUS
 10
-21.89997458278097
 20
-6.3092695460509267
 30
0.0
 11
-21.89997458278097
 21
6.3092695509302521
 31
0.0
  0
LINE
  5
42FC
  8
245
 10
-98.057198357125785
 20
0.0000000000001137
 30
0.0
 11
1.6775445815026151
 21
0.0
 31
0.0
  0
LINE
  5
42FD
  8
240
  6
CONTINUOUS
 10
-94.0
 20
8.0000000000001101
 30
0.0
 11
-23.950000002439712
 21
8.0000000000000284
 31
0.0
  0
LINE
  5
42FE
  8
240
  6
CONTINUOUS
 10
-94.0
 20
-7.999999999999889
 30
0.0
 11
-23.950000002439712
 21
-7.9999999999999689
 31
0.0
  0
LINE
  5
42FF
  8
240
  6
CONTINUOUS
 10
-20.243145750507608
 20
5.9500000024396513
 30
0.0
 11
-4.7656987542189082
 21
5.9500000024396513
 31
0.0
  0
TEXT
  5
4300
  8
241
  6
CONTINUOUS
 10
-91.0
 20
42.0
 30
0.0
 40
5.0
  1
ST16-RC061-20+RC06200
  7
YOKO
1001
ITEMNAME
1000
DI010
  0
LINE
  5
4301
  8
250
  6
CONTINUOUS
 10
-20.0
 20
6.4500000024396513
 30
0.0
 11
-20.0
 21
21.999999999999989
 31
0.0
  0
LINE
  5
4302
  8
250
  6
CONTINUOUS
 10
0.0
 20
2.6044247647705561
 30
0.0
 11
0.000000000000001
 21
21.999999999999989
 31
0.0
  0
LINE
  5
4303
  8
250
  6
CONTINUOUS
 10
-17.77
 20
20.999999999999989
 30
0.0
 11
-2.2299999999999991
 21
20.999999999999989
 31
0.0
  0
LINE
  5
4304
  8
250
  6
CONTINUOUS
 10
-3.5087761177316281
 20
6.1499999999999764
 30
0.0
 11
16.497331936649019
 21
6.149999999999971
 31
0.0
  0
LINE
  5
4305
  8
250
  6
CONTINUOUS
 10
15.497331936649029
 20
3.9199999999999711
 30
0.0
 11
15.497331936649029
 21
-6.6095238095238722
 31
0.0
  0
LINE
  5
4306
  8
250
  6
CONTINUOUS
 10
0.0
 20
2.6044247647706671
 30
0.0
 11
0.0000000000000014
 21
28.999999999999989
 31
0.0
  0
LINE
  5
4307
  8
250
  6
CONTINUOUS
 10
-94.0
 20
8.5000000000001101
 30
0.0
 11
-94.0
 21
28.999999999999989
 31
0.0
  0
LINE
  5
4308
  8
250
  6
CONTINUOUS
 10
-2.2299999999999982
 20
28.0
 30
0.0
 11
-91.769999999999996
 21
28.0
 31
0.0
  0
TEXT
  5
4309
  8
250
  6
CONTINUOUS
 10
-12.666666666666661
 20
21.999999999999989
 30
0.0
 40
2.799999999999998
  1
20
  0
LINE
  5
430A
  8
250
  6
CONTINUOUS
 10
-2.2299999999999991
 20
21.371666666666659
 30
0.0
 11
0.0000000000000009
 21
20.999999999999989
 31
0.0
  0
LINE
  5
430B
  8
250
  6
CONTINUOUS
 10
-2.2299999999999991
 20
20.62833333333332
 30
0.0
 11
0.0000000000000009
 21
20.999999999999989
 31
0.0
  0
LINE
  5
430C
  8
250
  6
CONTINUOUS
 10
0.0000000000000009
 20
20.999999999999989
 30
0.0
 11
-2.2299999999999991
 21
20.999999999999989
 31
0.0
  0
LINE
  5
430D
  8
250
  6
CONTINUOUS
 10
-17.77
 20
20.62833333333332
 30
0.0
 11
-20.0
 21
20.999999999999989
 31
0.0
  0
LINE
  5
430E
  8
250
  6
CONTINUOUS
 10
-17.77
 20
21.371666666666659
 30
0.0
 11
-20.0
 21
20.999999999999989
 31
0.0
  0
LINE
  5
430F
  8
250
  6
CONTINUOUS
 10
-20.0
 20
20.999999999999989
 30
0.0
 11
-17.77
 21
20.999999999999989
 31
0.0
  0
TEXT
  5
4310
  8
250
  6
CONTINUOUS
 10
14.497331936649029
 20
-5.8952380952381551
 30
0.0
 40
3.0
  1
\U+2205
 50
90.0
  0
TEXT
  5
4311
  8
250
  6
CONTINUOUS
 10
14.39733193664903
 20
-3.180952380952438
 30
0.0
 40
2.799999999999998
  1
12.3
 50
90.0
  0
LINE
  5
4312
  8
250
  6
CONTINUOUS
 10
15.12566526998237
 20
3.9199999999999711
 30
0.0
 11
15.497331936649029
 21
6.149999999999971
 31
0.0
  0
LINE
  5
4313
  8
250
  6
CONTINUOUS
 10
15.868998603315699
 20
3.9199999999999711
 30
0.0
 11
15.497331936649029
 21
6.149999999999971
 31
0.0
  0
LINE
  5
4314
  8
250
  6
CONTINUOUS
 10
15.497331936649029
 20
6.149999999999971
 30
0.0
 11
15.497331936649029
 21
3.9199999999999711
 31
0.0
  0
TEXT
  5
4315
  8
250
  6
CONTINUOUS
 10
-49.73333333333332
 20
28.999999999999989
 30
0.0
 40
2.799999999999998
  1
94
  0
LINE
  5
4316
  8
250
  6
CONTINUOUS
 10
-91.769999999999996
 20
27.62833333333333
 30
0.0
 11
-94.0
 21
28.0
 31
0.0
  0
LINE
  5
4317
  8
250
  6
CONTINUOUS
 10
-91.769999999999996
 20
28.371666666666659
 30
0.0
 11
-94.0
 21
28.0
 31
0.0
  0
LINE
  5
4318
  8
250
  6
CONTINUOUS
 10
-94.0
 20
28.0
 30
0.0
 11
-91.769999999999996
 21
28.0
 31
0.0
  0
LINE
  5
4319
  8
250
  6
CONTINUOUS
 10
-2.2299999999999982
 20
28.371666666666659
 30
0.0
 11
0.0000000000000013
 21
28.0
 31
0.0
  0
LINE
  5
431A
  8
250
  6
CONTINUOUS
 10
-2.2299999999999982
 20
27.62833333333333
 30
0.0
 11
0.0000000000000013
 21
28.0
 31
0.0
  0
LINE
  5
431B
  8
250
  6
CONTINUOUS
 10
0.0000000000000013
 20
28.0
 30
0.0
 11
-2.2299999999999982
 21
28.0
 31
0.0
  0
POLYLINE
  5
431C
  8
241
  6
CONTINUOUS
 66
     1
 10
0.0
 20
0.0
 30
0.0
 70
     8
  0
VERTEX
  5
431D
  8
241
  6
CONTINUOUS
 10
-5.3991300000000004
 20
5.950499999999999
 30
0.0
 70
    32
  0
VERTEX
  5
431E
  8
241
  6
CONTINUOUS
 10
-5.399149999999997
 20
5.9504900000000003
 30
0.0
 70
    32
  0
VERTEX
  5
431F
  8
241
  6
CONTINUOUS
 10
-5.3991600000000002
 20
5.9504799999999971
 30
0.0
 70
    32
  0
VERTEX
  5
4320
  8
241
  6
CONTINUOUS
 10
-5.3991800000000003
 20
5.9504799999999971
 30
0.0
 70
    32
  0
VERTEX
  5
4321
  8
241
  6
CONTINUOUS
 10
-5.399189999999999
 20
5.9504700000000001
 30
0.0
 70
    32
  0
VERTEX
  5
4322
  8
241
  6
CONTINUOUS
 10
-5.3992000000000004
 20
5.9504599999999988
 30
0.0
 70
    32
  0
VERTEX
  5
4323
  8
241
  6
CONTINUOUS
 10
-5.399219999999997
 20
5.95045
 30
0.0
 70
    32
  0
VERTEX
  5
4324
  8
241
  6
CONTINUOUS
 10
-5.3992300000000002
 20
5.9504400000000004
 30
0.0
 70
    32
  0
VERTEX
  5
4325
  8
241
  6
CONTINUOUS
 10
-5.399239999999998
 20
5.9504400000000004
 30
0.0
 70
    32
  0
VERTEX
  5
4326
  8
241
  6
CONTINUOUS
 10
-5.3992599999999991
 20
5.9504299999999981
 30
0.0
 70
    32
  0
VERTEX
  5
4327
  8
241
  6
CONTINUOUS
 10
-5.3992699999999987
 20
5.9504200000000003
 30
0.0
 70
    32
  0
VERTEX
  5
4328
  8
241
  6
CONTINUOUS
 10
-5.399289999999997
 20
5.9504099999999971
 30
0.0
 70
    32
  0
VERTEX
  5
4329
  8
241
  6
CONTINUOUS
 10
-5.3993000000000002
 20
5.9504000000000001
 30
0.0
 70
    32
  0
VERTEX
  5
432A
  8
241
  6
CONTINUOUS
 10
-5.3993099999999981
 20
5.9504000000000001
 30
0.0
 70
    32
  0
VERTEX
  5
432B
  8
241
  6
CONTINUOUS
 10
-5.3993299999999991
 20
5.9503899999999987
 30
0.0
 70
    32
  0
VERTEX
  5
432C
  8
241
  6
CONTINUOUS
 10
-5.3993399999999987
 20
5.95038
 30
0.0
 70
    32
  0
VERTEX
  5
432D
  8
241
  6
CONTINUOUS
 10
-5.3993500000000001
 20
5.9503699999999986
 30
0.0
 70
    32
  0
VERTEX
  5
432E
  8
241
  6
CONTINUOUS
 10
-5.3993699999999993
 20
5.9503699999999986
 30
0.0
 70
    32
  0
VERTEX
  5
432F
  8
241
  6
CONTINUOUS
 10
-5.3993799999999981
 20
5.9503599999999981
 30
0.0
 70
    32
  0
VERTEX
  5
4330
  8
241
  6
CONTINUOUS
 10
-5.3993999999999991
 20
5.9503500000000003
 30
0.0
 70
    32
  0
VERTEX
  5
4331
  8
241
  6
CONTINUOUS
 10
-5.3994099999999987
 20
5.9503399999999971
 30
0.0
 70
    32
  0
VERTEX
  5
4332
  8
241
  6
CONTINUOUS
 10
-5.3994200000000001
 20
5.9503300000000001
 30
0.0
 70
    32
  0
VERTEX
  5
4333
  8
241
  6
CONTINUOUS
 10
-5.3994400000000002
 20
5.9503300000000001
 30
0.0
 70
    32
  0
VERTEX
  5
4334
  8
241
  6
CONTINUOUS
 10
-5.3994499999999981
 20
5.9503199999999987
 30
0.0
 70
    32
  0
VERTEX
  5
4335
  8
241
  6
CONTINUOUS
 10
-5.3994599999999986
 20
5.9503099999999991
 30
0.0
 70
    32
  0
VERTEX
  5
4336
  8
241
  6
CONTINUOUS
 10
-5.3994799999999987
 20
5.9503000000000004
 30
0.0
 70
    32
  0
VERTEX
  5
4337
  8
241
  6
CONTINUOUS
 10
-5.3994900000000001
 20
5.9502899999999981
 30
0.0
 70
    32
  0
VERTEX
  5
4338
  8
241
  6
CONTINUOUS
 10
-5.3995100000000003
 20
5.9502899999999981
 30
0.0
 70
    32
  0
VERTEX
  5
4339
  8
241
  6
CONTINUOUS
 10
-5.3995199999999981
 20
5.9502800000000002
 30
0.0
 70
    32
  0
VERTEX
  5
433A
  8
241
  6
CONTINUOUS
 10
-5.3995300000000004
 20
5.9502699999999971
 30
0.0
 70
    32
  0
VERTEX
  5
433B
  8
241
  6
CONTINUOUS
 10
-5.3995499999999987
 20
5.9502600000000001
 30
0.0
 70
    32
  0
VERTEX
  5
433C
  8
241
  6
CONTINUOUS
 10
-5.3995600000000001
 20
5.9502499999999987
 30
0.0
 70
    32
  0
VERTEX
  5
433D
  8
241
  6
CONTINUOUS
 10
-5.3995699999999971
 20
5.9502499999999987
 30
0.0
 70
    32
  0
VERTEX
  5
433E
  8
241
  6
CONTINUOUS
 10
-5.399589999999999
 20
5.9502399999999991
 30
0.0
 70
    32
  0
VERTEX
  5
433F
  8
241
  6
CONTINUOUS
 10
-5.3996000000000004
 20
5.9502300000000004
 30
0.0
 70
    32
  0
VERTEX
  5
4340
  8
241
  6
CONTINUOUS
 10
-5.3996199999999988
 20
5.9502199999999981
 30
0.0
 70
    32
  0
VERTEX
  5
4341
  8
241
  6
CONTINUOUS
 10
-5.3996300000000002
 20
5.9502100000000002
 30
0.0
 70
    32
  0
VERTEX
  5
4342
  8
241
  6
CONTINUOUS
 10
-5.3996399999999971
 20
5.9502100000000002
 30
0.0
 70
    32
  0
VERTEX
  5
4343
  8
241
  6
CONTINUOUS
 10
-5.399659999999999
 20
5.950199999999997
 30
0.0
 70
    32
  0
VERTEX
  5
4344
  8
241
  6
CONTINUOUS
 10
-5.3996699999999986
 20
5.9501900000000001
 30
0.0
 70
    32
  0
VERTEX
  5
4345
  8
241
  6
CONTINUOUS
 10
-5.39968
 20
5.9501799999999987
 30
0.0
 70
    32
  0
VERTEX
  5
4346
  8
241
  6
CONTINUOUS
 10
-5.3997000000000002
 20
5.9501699999999991
 30
0.0
 70
    32
  0
VERTEX
  5
4347
  8
241
  6
CONTINUOUS
 10
-5.399709999999998
 20
5.9501699999999991
 30
0.0
 70
    32
  0
VERTEX
  5
4348
  8
241
  6
CONTINUOUS
 10
-5.399729999999999
 20
5.9501599999999986
 30
0.0
 70
    32
  0
VERTEX
  5
4349
  8
241
  6
CONTINUOUS
 10
-5.3997400000000004
 20
5.9501499999999981
 30
0.0
 70
    32
  0
VERTEX
  5
434A
  8
241
  6
CONTINUOUS
 10
-5.39975
 20
5.9501400000000002
 30
0.0
 70
    32
  0
VERTEX
  5
434B
  8
241
  6
CONTINUOUS
 10
-5.3997699999999993
 20
5.950129999999997
 30
0.0
 70
    32
  0
VERTEX
  5
434C
  8
241
  6
CONTINUOUS
 10
-5.399779999999998
 20
5.950129999999997
 30
0.0
 70
    32
  0
VERTEX
  5
434D
  8
241
  6
CONTINUOUS
 10
-5.3997900000000003
 20
5.9501200000000001
 30
0.0
 70
    32
  0
VERTEX
  5
434E
  8
241
  6
CONTINUOUS
 10
-5.3998099999999987
 20
5.9501099999999987
 30
0.0
 70
    32
  0
VERTEX
  5
434F
  8
241
  6
CONTINUOUS
 10
-5.3998200000000001
 20
5.9500999999999991
 30
0.0
 70
    32
  0
VERTEX
  5
4350
  8
241
  6
CONTINUOUS
 10
-5.3998400000000002
 20
5.9500999999999991
 30
0.0
 70
    32
  0
VERTEX
  5
4351
  8
241
  6
CONTINUOUS
 10
-5.399849999999998
 20
5.9500900000000003
 30
0.0
 70
    32
  0
VERTEX
  5
4352
  8
241
  6
CONTINUOUS
 10
-5.3998600000000003
 20
5.950079999999998
 30
0.0
 70
    32
  0
VERTEX
  5
4353
  8
241
  6
CONTINUOUS
 10
-5.3998799999999987
 20
5.9500699999999993
 30
0.0
 70
    32
  0
VERTEX
  5
4354
  8
241
  6
CONTINUOUS
 10
-5.3998900000000001
 20
5.950059999999997
 30
0.0
 70
    32
  0
VERTEX
  5
4355
  8
241
  6
CONTINUOUS
 10
-5.399899999999997
 20
5.950059999999997
 30
0.0
 70
    32
  0
VERTEX
  5
4356
  8
241
  6
CONTINUOUS
 10
-5.3999199999999981
 20
5.9500500000000001
 30
0.0
 70
    32
  0
VERTEX
  5
4357
  8
241
  6
CONTINUOUS
 10
-5.3999300000000003
 20
5.9500400000000004
 30
0.0
 70
    32
  0
VERTEX
  5
4358
  8
241
  6
CONTINUOUS
 10
-5.3999499999999987
 20
5.950029999999999
 30
0.0
 70
    32
  0
VERTEX
  5
4359
  8
241
  6
CONTINUOUS
 10
-5.3999600000000001
 20
5.9500200000000003
 30
0.0
 70
    32
  0
VERTEX
  5
435A
  8
241
  6
CONTINUOUS
 10
-5.3999699999999971
 20
5.9500200000000003
 30
0.0
 70
    32
  0
VERTEX
  5
435B
  8
241
  6
CONTINUOUS
 10
-5.3999899999999981
 20
5.950009999999998
 30
0.0
 70
    32
  0
VERTEX
  5
435C
  8
241
  6
CONTINUOUS
 10
-5.4000000000000004
 20
5.9500000000000002
 30
0.0
 70
    32
  0
SEQEND
  5
435D
  8
241
  6
CONTINUOUS
  0
ARC
  5
435E
  8
241
  6
CONTINUOUS
 10
-5.7066076685453124
 20
1.905916038231924
 30
0.0
 40
2.4999755793066241
 50
134.99945663956461
 51
225.00056245289511
  0
LINE
  5
435F
  8
240
  6
CONTINUOUS
 10
-23.950000002439712
 20
8.0000000000000284
 30
0.0
 11
-23.0715728752538
 21
7.1215728728141681
 31
0.0
  0
LINE
  5
437E
  8
250
  6
CONTINUOUS
 10
-79.041544773700707
 20
-20.999999999999879
 30
0.0
 11
-94.976550054802885
 21
-20.999999999999879
 31
0.0
1001
ITEMNAME
1000
LNSP2
  0
TEXT
  5
437F
  8
250
  6
CONTINUOUS
 10
-91.984838948636053
 20
-19.999999999999879
 30
0.0
 40
3.0
  1
ST16
  7
YOKO
1001
ITEMNAME
1000
LNSP3
1001
ACAD
1000
MTEXTBEGIN
1070
    73
1070
     1
1070
    44
1040
1.0
1070
    74
1070
     0
1000
MTEXTEND
  0
LINE
  5
4380
  8
250
  6
CONTINUOUS
 10
-72.650991274235579
 20
-9.9312366504392511
 30
0.0
 11
-79.041544773700707
 21
-20.999999999999879
 31
0.0
1001
ACAD
1000
DSTYLE
1002
{
1070
     5
1000
OPEN
1070
    78
1070
     8
1070
   140
1040
3.0
1002
}
  0
LINE
  5
4381
  8
250
  6
CONTINUOUS
 10
-72.972864049308754
 20
-9.7454033171059145
 30
0.0
 11
-71.535991274235585
 21
-8.0000000000000053
 31
0.0
  0
LINE
  5
4382
  8
250
  6
CONTINUOUS
 10
-72.329118499162391
 20
-10.117069983772589
 30
0.0
 11
-71.535991274235585
 21
-8.0000000000000053
 31
0.0
  0
LINE
  5
4383
  8
250
  6
CONTINUOUS
 10
-71.535991274235585
 20
-8.0000000000000053
 30
0.0
 11
-72.650991274235579
 21
-9.9312366504392511
 31
0.0
  0
LINE
  5
4384
  8
247
  6
CONTINUOUS
 10
-87.250000000070017
 20
-5.4999999999998899
 30
0.0
 11
-80.557692308030013
 21
-5.4999999999998899
 31
0.0
  0
ARC
  5
4385
  8
247
  6
CONTINUOUS
 10
-87.250000000070017
 20
-3.750000000069921
 30
0.0
 40
1.7499999999299991
 50
90.0
 51
270.0
  0
ARC
  5
4386
  8
247
  6
CONTINUOUS
 10
-80.557692308030013
 20
-3.750000000069921
 30
0.0
 40
1.7499999999299991
 50
270.0
 51
90.0
  0
LINE
  5
4387
  8
247
  6
CONTINUOUS
 10
-86.384615384719993
 20
-2.0000000001399512
 30
0.0
 11
-87.244851541962007
 21
-5.0000000000198987
 31
0.0
  0
LINE
  5
4388
  8
247
  6
CONTINUOUS
 10
-85.484983818335806
 20
-3.423076923159786
 30
0.0
 11
-86.792676125975859
 21
-3.423076923159786
 31
0.0
  0
ARC
  5
4389
  8
247
  6
CONTINUOUS
 10
-85.145143816089785
 20
-2.5495986677027571
 30
0.0
 40
0.5538165441895349
 50
342.99788967529508
 51
82.924166218513577
  0
ARC
  5
438A
  8
247
  6
CONTINUOUS
 10
-85.566878323028789
 20
-2.4360330444657201
 30
0.0
 40
0.9904354236226808
 50
274.74293685219902
 51
343.84922627326688
1001
GENIUS_GENOBJ-N-FIL_13
1002
{
1000
OWNER
1000
GEN
1002
}
1001
GENIUS_GENODEF_13
1002
{
1000
HIER
1070
     0
1002
}
1002
{
1000
MANEDIT
1070
     0
1002
}
1002
{
1000
NOSEL
1070
     0
1002
}
1002
{
1000
BEHIND
1070
     0
1002
}
1002
{
1000
OTHER
1070
     0
1002
}
1002
{
1000
REACTOR
1002
}
  0
LINE
  5
438B
  8
247
  6
CONTINUOUS
 10
-85.937159234321996
 20
-5.0000000000198987
 30
0.0
 11
-87.244851541962007
 21
-5.0000000000198987
 31
0.0
  0
LINE
  5
438C
  8
247
  6
CONTINUOUS
 10
-86.384615384719993
 20
-2.0000000001399512
 30
0.0
 11
-85.076923077079954
 21
-2.0000000001399512
 31
0.0
  0
ARC
  5
438D
  8
247
  6
CONTINUOUS
 10
-85.560919636546913
 20
-3.9820242326653701
 30
0.0
 40
0.5640818586791229
 50
335.9909416525216
 51
82.263443459069066
  0
ARC
  5
438E
  8
247
  6
CONTINUOUS
 10
-86.038262685347036
 20
-3.9874290391863991
 30
0.0
 40
1.0176059446230981
 50
275.70198516425648
 51
347.27733843682188
1001
GENIUS_GENOBJ-N-FIL_13
1002
{
1000
OWNER
1000
GEN
1002
}
1001
GENIUS_GENODEF_13
1002
{
1000
HIER
1070
     0
1002
}
1002
{
1000
MANEDIT
1070
     0
1002
}
1002
{
1000
NOSEL
1070
     0
1002
}
1002
{
1000
BEHIND
1070
     0
1002
}
1002
{
1000
OTHER
1070
     0
1002
}
1002
{
1000
REACTOR
1002
}
  0
LINE
  5
438F
  8
247
  6
CONTINUOUS
 10
-84.283313080542015
 20
-5.0000000000198987
 30
0.0
 11
-83.423076923300016
 21
-2.0000000001399512
 31
0.0
  0
LINE
  5
4390
  8
247
  6
CONTINUOUS
 10
-81.000000000320014
 20
-2.0000000001399512
 30
0.0
 11
-81.565736619456615
 21
-2.0000000001399512
 31
0.0
  0
LINE
  5
4391
  8
247
  6
CONTINUOUS
 10
-82.461538461799975
 20
-5.0000000000198987
 30
0.0
 11
-81.846153846439989
 21
-5.0000000000198987
 31
0.0
  0
ARC
  5
4392
  8
247
  6
CONTINUOUS
 10
-80.708791209122865
 20
-4.0832851359732594
 30
0.0
 40
2.2526500823422122
 50
112.3594881415293
 51
164.9932485428462
  0
ARC
  5
4393
  8
247
  6
CONTINUOUS
 10
-81.374069479213219
 20
-2.8083126551945301
 30
0.0
 40
0.8906723995727782
 50
4.9945893190753496
 51
65.166328957300493
1001
GENIUS_GENOBJ-N-FIL_13
1002
{
1000
OWNER
1000
GEN
1002
}
1001
GENIUS_GENODEF_13
1002
{
1000
HIER
1070
     0
1002
}
1002
{
1000
MANEDIT
1070
     0
1002
}
1002
{
1000
NOSEL
1070
     0
1002
}
1002
{
1000
BEHIND
1070
     0
1002
}
1002
{
1000
OTHER
1070
     0
1002
}
1002
{
1000
REACTOR
1002
}
  0
ARC
  5
4394
  8
247
  6
CONTINUOUS
 10
-82.226458886212583
 20
-3.6601458886676741
 30
0.0
 40
1.392781735586712
 50
285.84609655578072
 51
352.32513700416217
  0
ARC
  5
4395
  8
247
  6
CONTINUOUS
 10
-81.642212725840338
 20
-3.9592434315271738
 30
0.0
 40
1.324563662670287
 50
159.71360167048991
 51
231.78874565641419
1001
GENIUS_GENOBJ-N-FIL_13
1002
{
1000
OWNER
1000
GEN
1002
}
1001
GENIUS_GENODEF_13
1002
{
1000
HIER
1070
     0
1002
}
1002
{
1000
MANEDIT
1070
     0
1002
}
1002
{
1000
NOSEL
1070
     0
1002
}
1002
{
1000
BEHIND
1070
     0
1002
}
1002
{
1000
OTHER
1070
     0
1002
}
1002
{
1000
REACTOR
1002
}
  0
LINE
  5
4396
  8
247
  6
CONTINUOUS
 10
-81.538461538759989
 20
-3.8461538462198659
 30
0.0
 11
-80.846153846479964
 21
-3.8461538462198659
 31
0.0
  0
LINE
  5
4397
  8
247
  6
CONTINUOUS
 10
-87.250000000070017
 20
-2.0000000001399512
 30
0.0
 11
-86.576923077020055
 21
-2.0000000001399512
 31
0.0
  0
LINE
  5
4398
  8
250
  6
CONTINUOUS
 10
-1.119437939356754
 20
8.8684819318280823
 30
0.0
 11
-2.5563107144299688
 21
7.1230786147221181
 31
0.0
  0
LINE
  5
4399
  8
250
  6
CONTINUOUS
 10
-1.7631834895031839
 20
9.2401485984947485
 30
0.0
 11
-2.5563107144299688
 21
7.1230786147221181
 31
0.0
  0
LINE
  5
439A
  8
250
  6
CONTINUOUS
 10
-2.5563107144299688
 20
7.1230786147221181
 30
0.0
 11
-1.4413107144299671
 21
9.0543152651614207
 31
0.0
  0
POLYLINE
  5
439B
  8
250
  6
CONTINUOUS
 66
     1
 10
0.0
 20
0.0
 30
0.0
1001
ACAD
1000
DSTYLE
1002
{
1070
    42
1040
0.5
1070
    44
1040
1.0
1070
   140
1040
2.799999999999998
1002
}
  0
VERTEX
  5
439C
  8
250
  6
CONTINUOUS
 10
-1.4413107144299671
 20
9.0543152651614207
 30
0.0
  0
VERTEX
  5
439D
  8
250
  6
CONTINUOUS
 10
6.0681018660197479
 20
22.06099938949723
 30
0.0
  0
SEQEND
  5
439E
  8
250
  6
CONTINUOUS
  0
TEXT
  5
439F
  8
250
  6
CONTINUOUS
 10
8.334768532686418
 20
23.060999389497258
 30
0.0
 40
2.799999999999998
  1
INSERT MODEL:RC06200
  7
YOKO
1001
ITEMNAME
1000
LNSP3
  0
TEXT
  5
43A0
  8
250
  6
CONTINUOUS
 10
7.1881018660197471
 20
18.260999389497218
 30
0.0
 40
2.799999999999998
  1
üiOPTIONüj
  7
YOKO
1001
ITEMNAME
1000
LNSP4
  0
LINE
  5
43A1
  8
250
  6
CONTINUOUS
 10
6.0681018660197479
 20
22.06099938949723
 30
0.0
 11
58.429865130373841
 21
22.06099938949723
 31
0.0
1001
ITEMNAME
1000
LNSP2
  0
ARC
  5
43D6
  8
241
  6
CONTINUOUS
 10
-4.4072853480635388
 20
-1.9890000000067241
 30
0.0
 40
0.2
 50
225.00000000001609
 51
270.00000000000409
  0
LINE
  5
43D8
  8
241
  6
CONTINUOUS
 10
-3.865863991825961
 20
6.166992052349757
 30
0.0
 11
-2.7020612594416491
 21
5.0031893199660562
 31
0.0
  0
ARC
  5
43D9
  8
241
  6
CONTINUOUS
 10
-0.200000000003329
 20
2.2182853480523632
 30
0.0
 40
0.2
 50
359.99999999999432
 51
45.0
  0
ARC
  5
43DB
  8
241
  6
CONTINUOUS
 10
-4.4072853480632546
 20
6.0255706961124691
 30
0.0
 40
0.2
 50
89.999999999995111
 51
135.00000000000171
  0
LINE
  5
43DC
  8
241
  6
CONTINUOUS
 10
-4.407285348063227
 20
6.225570696112471
 30
0.0
 11
-4.0072853480632631
 21
6.2255706961124151
 31
0.0
  0
ARC
  5
43DD
  8
241
  6
CONTINUOUS
 10
-4.0072853480632782
 20
6.0255706961124398
 30
0.0
 40
0.2
 50
45.0
 51
90.0
  0
LINE
  5
43DE
  8
241
  6
CONTINUOUS
 10
-0.0000000000000008
 20
2.218285348052349
 30
0.0
 11
-0.0000000000032977
 21
1.8182853480523999
 31
0.0
  0
ARC
  5
43DF
  8
241
  6
CONTINUOUS
 10
-0.2000000000033148
 20
1.818285348052429
 30
0.0
 40
0.2
 50
314.9999999999925
 51
359.99999999999432
  0
LINE
  5
43E0
  8
241
  6
CONTINUOUS
 10
-4.0072853480633768
 20
-2.189000000006712
 30
0.0
 11
-4.4072853480635112
 21
-2.1890000000067409
 31
0.0
  0
ARC
  5
43E1
  8
241
  6
CONTINUOUS
 10
-4.0072853480634203
 20
-1.989000000006695
 30
0.0
 40
0.2
 50
270.00000000000978
 51
314.99999999999193
  0
LINE
  5
43E5
  8
241
  6
CONTINUOUS
 10
-0.5399275580201399
 20
2.8410556185498601
 30
0.0
 11
-0.0585786437660127
 21
2.3597067042896791
 31
0.0
  0
LINE
  5
43E7
  8
241
  6
CONTINUOUS
 10
-2.6726261196895398
 20
4.6667441330549346
 30
0.0
 11
-2.7020612594416491
 21
5.0031893199660562
 31
0.0
  0
ARC
  5
43E8
  8
241
  6
CONTINUOUS
 10
-0.680236723506142
 20
4.8410556185502296
 30
0.0
 40
2.0
 50
184.9999999999998
 51
270.00000000001472
  0
LINE
  5
43E9
  8
241
  6
CONTINUOUS
 10
-0.5399275580201399
 20
2.8410556185498601
 30
0.0
 11
-0.6802367235056303
 21
2.8410556185510258
 31
0.0
  0
LINE
  5
43EA
  8
241
  6
CONTINUOUS
 10
-8.1052578245927673
 20
2.610440932059682
 30
0.0
 11
-7.1921893199781977
 21
3.5235094366747299
 31
0.0
  0
LINE
  5
43EB
  8
241
  6
CONTINUOUS
 10
-5.0300556185619891
 20
5.68564313809624
 30
0.0
 11
-4.5487067043018081
 21
6.1669920523503681
 31
0.0
  0
LINE
  5
43ED
  8
241
  6
CONTINUOUS
 10
-6.855744133067077
 20
3.5529445764268401
 30
0.0
 11
-7.1921893199781977
 21
3.5235094366747299
 31
0.0
  0
ARC
  5
43EE
  8
241
  6
CONTINUOUS
 10
-7.0300556185623577
 20
5.545333972610238
 30
0.0
 40
2.0
 50
274.99999999999977
 51
0.000000000014656
  0
LINE
  5
43EF
  8
241
  6
CONTINUOUS
 10
-5.0300556185619891
 20
5.68564313809624
 30
0.0
 11
-5.0300556185631544
 21
5.5453339726107496
 31
0.0
  0
LINE
  5
43F0
  8
241
  6
CONTINUOUS
 10
-4.5487067043025613
 20
-2.1304213562455039
 30
0.0
 11
-5.7125094366868732
 21
-0.9666186238618035
 31
0.0
  0
LINE
  5
43F1
  8
241
  6
CONTINUOUS
 10
-7.8746431381083832
 20
1.195515077554391
 30
0.0
 11
-8.1722711466154827
 21
1.493143086065233
 31
0.0
  0
LINE
  5
43F3
  8
241
  6
CONTINUOUS
 10
-5.741944576438982
 20
-0.630173436950683
 30
0.0
 11
-5.7125094366868732
 21
-0.9666186238618035
 31
0.0
  0
ARC
  5
43F4
  8
241
  6
CONTINUOUS
 10
-7.7343339726223812
 20
-0.8044849224459778
 30
0.0
 40
2.0
 50
4.9999999999998126
 51
90.000000000014623
  0
LINE
  5
43F5
  8
241
  6
CONTINUOUS
 10
-7.8746431381083832
 20
1.195515077554391
 30
0.0
 11
-7.7343339726228919
 21
1.1955150775532259
 31
0.0
  0
LINE
  5
43F6
  8
241
  6
CONTINUOUS
 10
-0.0585786437666237
 20
1.6768639918138331
 30
0.0
 11
-1.2223813761503239
 21
0.5130612594295219
 31
0.0
  0
LINE
  5
43F7
  8
241
  6
CONTINUOUS
 10
-3.384515077566534
 20
-1.649072441991988
 30
0.0
 11
-3.865863991826715
 21
-2.130421356246115
 31
0.0
  0
LINE
  5
43F9
  8
241
  6
CONTINUOUS
 10
-1.5588265630614451
 20
0.4836261196774121
 30
0.0
 11
-1.2223813761503239
 21
0.5130612594295219
 31
0.0
  0
ARC
  5
43FA
  8
241
  6
CONTINUOUS
 10
-1.3845150775661641
 20
-1.508763276505986
 30
0.0
 40
2.0
 50
94.999999999999815
 51
180.00000000001461
  0
LINE
  5
43FB
  8
241
  6
CONTINUOUS
 10
-3.384515077566534
 20
-1.649072441991988
 30
0.0
 11
-3.3845150775653678
 21
-1.5087632765064971
 31
0.0
  0
CIRCLE
  5
4403
  8
241
  6
CONTINUOUS
 10
-4.207285348064258
 20
2.0182853480521219
 30
0.0
 40
1.5
  0
VIEWPORT
  5
22
 67
     1
  8
0
 10
261.51769911504419
 20
148.5
 30
0.0
 40
523.0353982300885
 41
297.0
 68
     1
 69
     1
1001
ACAD
1000
MVIEW
1002
{
1070
    16
1010
0.0
1020
0.0
1030
0.0
1010
0.0
1020
0.0
1030
1.0
1040
0.0
1040
297.0
1040
261.51769911504419
1040
148.5
1040
50.0
1040
0.0
1040
0.0
1070
     0
1070
   100
1070
     1
1070
     1
1070
     0
1070
     0
1070
     0
1070
     0
1040
0.0
1040
0.0
1040
0.0
1040
1.0
1040
1.0
1040
10.0
1040
10.0
1070
     0
1002
{
1002
}
1002
}
1001
GENIUS_GENODEF_13
1002
{
1000
HIER
1070
     0
1002
}
1002
{
1000
MANEDIT
1070
     0
1002
}
1002
{
1000
NOSEL
1070
     0
1002
}
1002
{
1000
BEHIND
1070
     0
1002
}
1002
{
1000
OTHER
1070
     0
1002
}
1002
{
1000
REACTOR
1002
}
1001
GENIUS_GENOBJ-N-SDF_13
1002
{
1000
OWNER
1000
GEN
1002
}
1001
GENIUS_GENSCREG_15
1000
PF
1040
1.0
1000
DF
1040
1.0
1000
MIN
1011
0.0
1021
0.0
1031
0.0
1021
0.0
1031
0.0
1000
MAX
1011
523.0353982300885
1021
0.0
1031
0.0
1021
297.0
1031
0.0
1000
FLAGS
1070
     4
  0
ENDSEC
  0
EOF
