ISO-10303-21;
HEADER;
FILE_DESCRIPTION((''),'1');
FILE_NAME('//Big_tech03/bigt/Translate/21_\X2\8F2A90ED7DDA\X0\-DXF/01_\X2\30E130AC30C130E330C330AF30B730EA30FC30BA\X0\/01_\X2\30E130AC30DE30A430AF30ED30C130E330C330AF\X0\ MEGA-S/ST/ST16-MEGA8S-160.stp','2012-05-23T08:30:32',(''),(''),'Spatial Interop R18','Kubotek KeyCreator V8.5.1 (14335)',' ');
FILE_SCHEMA(('CONFIG_CONTROL_DESIGN'));
ENDSEC;
DATA;
#1=DESIGN_CONTEXT('',#27,'design');
#2=APPLICATION_PROTOCOL_DEFINITION('INTERNATIONAL STANDARD','config_control_design',1994,#27);
#3=PRODUCT_CATEGORY_RELATIONSHIP('NONE','NONE',#28,#29);
#4=DATE_AND_TIME(#30,#31);
#5=DATE_TIME_ROLE('creation_date');
#6=DATE_TIME_ROLE('classification_date');
#7=PERSON_AND_ORGANIZATION_ROLE('creator');
#8=PERSON_AND_ORGANIZATION_ROLE('design_supplier');
#9=PERSON_AND_ORGANIZATION_ROLE('classification_officer');
#10=PERSON_AND_ORGANIZATION_ROLE('design_owner');
#11=APPROVAL_PERSON_ORGANIZATION(#32,#33,#34);
#12=APPROVAL_DATE_TIME(#4,#33);
#13=CC_DESIGN_APPROVAL(#33,(#35,#36,#37));
#14=CC_DESIGN_DATE_AND_TIME_ASSIGNMENT(#4,#5,(#37));
#15=CC_DESIGN_DATE_AND_TIME_ASSIGNMENT(#4,#6,(#35));
#16=CC_DESIGN_PERSON_AND_ORGANIZATION_ASSIGNMENT(#32,#10,(#38));
#17=CC_DESIGN_PERSON_AND_ORGANIZATION_ASSIGNMENT(#32,#7,(#37));
#18=CC_DESIGN_PERSON_AND_ORGANIZATION_ASSIGNMENT(#32,#7,(#36));
#19=CC_DESIGN_PERSON_AND_ORGANIZATION_ASSIGNMENT(#32,#8,(#36));
#20=CC_DESIGN_SECURITY_CLASSIFICATION(#35,(#36));
#21=CC_DESIGN_PERSON_AND_ORGANIZATION_ASSIGNMENT(#32,#9,(#35));
#22=SHAPE_DEFINITION_REPRESENTATION(#39,#40);
#23= (GEOMETRIC_REPRESENTATION_CONTEXT(3)GLOBAL_UNCERTAINTY_ASSIGNED_CONTEXT((#43))GLOBAL_UNIT_ASSIGNED_CONTEXT((#45,#46,#47))REPRESENTATION_CONTEXT('NONE','WORKSPACE'));
#27=APPLICATION_CONTEXT('CONFIGURATION CONTROLLED 3D DESIGNS OF MECHANICAL PARTS AND ASSEMBLIES');
#28=PRODUCT_CATEGORY('part','NONE');
#29=PRODUCT_RELATED_PRODUCT_CATEGORY('detail',' ',(#38));
#30=CALENDAR_DATE(2012,23,4);
#31=LOCAL_TIME(17,30,32.0,#49);
#32=PERSON_AND_ORGANIZATION(#50,#51);
#33=APPROVAL(#52,'SOLID MODEL');
#34=APPROVAL_ROLE('APPROVED');
#35=SECURITY_CLASSIFICATION('','',#53);
#36=PRODUCT_DEFINITION_FORMATION_WITH_SPECIFIED_SOURCE(' ','NONE',#38,.NOT_KNOWN.);
#37=PRODUCT_DEFINITION('NONE','NONE',#36,#1);
#38=PRODUCT('1','1','PART-1-DESC',(#54));
#39=PRODUCT_DEFINITION_SHAPE('NONE','NONE',#37);
#40=ADVANCED_BREP_SHAPE_REPRESENTATION('1',(#55,#56),#23);
#43=UNCERTAINTY_MEASURE_WITH_UNIT(LENGTH_MEASURE(1.0E-006),#45,'','');
#45= (CONVERSION_BASED_UNIT('MILLIMETRE',#59)LENGTH_UNIT()NAMED_UNIT(#62));
#46= (NAMED_UNIT(#64)PLANE_ANGLE_UNIT()SI_UNIT($,.RADIAN.));
#47= (NAMED_UNIT(#64)SOLID_ANGLE_UNIT()SI_UNIT($,.STERADIAN.));
#49=COORDINATED_UNIVERSAL_TIME_OFFSET(9,0,.AHEAD.);
#50=PERSON('','UNSPECIFIED',$,$,$,$);
#51=ORGANIZATION('UNSPECIFIED','UNSPECIFIED','UNSPECIFIED');
#52=APPROVAL_STATUS('approved');
#53=SECURITY_CLASSIFICATION_LEVEL('unclassified');
#54=MECHANICAL_CONTEXT('',#27,'mechanical');
#55=MANIFOLD_SOLID_BREP('1',#70);
#56=AXIS2_PLACEMENT_3D('',#71,#72,#73);
#59=LENGTH_MEASURE_WITH_UNIT(LENGTH_MEASURE(1.0),#74);
#62=DIMENSIONAL_EXPONENTS(1.0,0.0,0.0,0.0,0.0,0.0,0.0);
#64=DIMENSIONAL_EXPONENTS(0.0,0.0,0.0,0.0,0.0,0.0,0.0);
#70=CLOSED_SHELL('',(#75,#76,#77,#78,#79,#80,#81));
#71=CARTESIAN_POINT('',(0.0,0.0,0.0));
#72=DIRECTION('',(0.0,0.0,1.0));
#73=DIRECTION('',(1.0,0.0,0.0));
#74= (NAMED_UNIT(#62)LENGTH_UNIT()SI_UNIT(.MILLI.,.METRE.));
#75=ADVANCED_FACE('',(#83),#84,.T.);
#76=ADVANCED_FACE('',(#85,#86),#87,.T.);
#77=ADVANCED_FACE('',(#88,#89),#90,.T.);
#78=ADVANCED_FACE('',(#91),#92,.T.);
#79=ADVANCED_FACE('',(#93,#94),#95,.T.);
#80=ADVANCED_FACE('',(#96,#97),#98,.T.);
#81=ADVANCED_FACE('',(#99,#100),#101,.T.);
#83=FACE_OUTER_BOUND('',#102,.T.);
#84=PLANE('',#103);
#85=FACE_BOUND('',#104,.T.);
#86=FACE_BOUND('',#105,.T.);
#87=CONICAL_SURFACE('',#106,9.07500000000098,0.124354994546784);
#88=FACE_BOUND('',#107,.T.);
#89=FACE_BOUND('',#108,.T.);
#90=CYLINDRICAL_SURFACE('',#109,9.00000000000098);
#91=FACE_OUTER_BOUND('',#110,.T.);
#92=PLANE('',#111);
#93=FACE_BOUND('',#112,.T.);
#94=FACE_BOUND('',#113,.T.);
#95=CYLINDRICAL_SURFACE('',#114,8.0);
#96=FACE_OUTER_BOUND('',#115,.T.);
#97=FACE_BOUND('',#116,.T.);
#98=PLANE('',#117);
#99=FACE_BOUND('',#118,.T.);
#100=FACE_BOUND('',#119,.T.);
#101=CYLINDRICAL_SURFACE('',#120,9.150000000001);
#102=EDGE_LOOP('',(#121));
#103=AXIS2_PLACEMENT_3D('',#122,#123,#124);
#104=EDGE_LOOP('',(#125));
#105=EDGE_LOOP('',(#126));
#106=AXIS2_PLACEMENT_3D('',#127,#128,#129);
#107=EDGE_LOOP('',(#130));
#108=EDGE_LOOP('',(#131));
#109=AXIS2_PLACEMENT_3D('',#132,#133,#134);
#110=EDGE_LOOP('',(#135));
#111=AXIS2_PLACEMENT_3D('',#136,#137,#138);
#112=EDGE_LOOP('',(#139));
#113=EDGE_LOOP('',(#140));
#114=AXIS2_PLACEMENT_3D('',#141,#142,#143);
#115=EDGE_LOOP('',(#144));
#116=EDGE_LOOP('',(#145));
#117=AXIS2_PLACEMENT_3D('',#146,#147,#148);
#118=EDGE_LOOP('',(#149));
#119=EDGE_LOOP('',(#150));
#120=AXIS2_PLACEMENT_3D('',#151,#152,#153);
#121=ORIENTED_EDGE('',*,*,#154,.T.);
#122=CARTESIAN_POINT('',(-4.40906706070677E-030,4.5000000000005,7.16507792528091E-014));
#123=DIRECTION('',(6.12323399573677E-017,1.22533970316355E-016,-1.0));
#124=DIRECTION('',(-1.23301944575061E-032,1.0,1.22533970316355E-016));
#125=ORIENTED_EDGE('',*,*,#155,.F.);
#126=ORIENTED_EDGE('',*,*,#156,.T.);
#127=CARTESIAN_POINT('',(-9.73594205322142E-016,-1.94718841064428E-015,15.8999999999999));
#128=DIRECTION('',(-6.12323399573677E-017,-1.22464679914735E-016,1.0));
#129=DIRECTION('',(-1.23259516440783E-032,1.0,1.22464679914735E-016));
#130=ORIENTED_EDGE('',*,*,#154,.F.);
#131=ORIENTED_EDGE('',*,*,#155,.T.);
#132=CARTESIAN_POINT('',(-4.68427400673862E-016,-9.36854801347723E-016,7.64999999999999));
#133=DIRECTION('',(-6.12323399573677E-017,-1.22464679914735E-016,1.0));
#134=DIRECTION('',(-1.23259516440783E-032,1.0,1.22464679914735E-016));
#135=ORIENTED_EDGE('',*,*,#157,.F.);
#136=CARTESIAN_POINT('',(-9.79717439317883E-015,3.99999999999996,160.0));
#137=DIRECTION('',(-6.12323399573677E-017,-1.22464679914735E-016,1.0));
#138=DIRECTION('',(1.23259516440783E-032,-1.0,-1.22464679914735E-016));
#139=ORIENTED_EDGE('',*,*,#158,.F.);
#140=ORIENTED_EDGE('',*,*,#157,.T.);
#141=CARTESIAN_POINT('',(-5.46498634119507E-015,-1.09299726823901E-014,89.2500000000001));
#142=DIRECTION('',(-6.12323399573677E-017,-1.22464679914735E-016,1.0));
#143=DIRECTION('',(-1.23259516440783E-032,1.0,1.22464679914735E-016));
#144=ORIENTED_EDGE('',*,*,#159,.F.);
#145=ORIENTED_EDGE('',*,*,#158,.T.);
#146=CARTESIAN_POINT('',(-1.1327982892113E-015,8.57500000000051,18.5));
#147=DIRECTION('',(-6.12323399573677E-017,1.69789928653879E-013,1.0));
#148=DIRECTION('',(-1.03918074799407E-029,-1.0,1.69789928653879E-013));
#149=ORIENTED_EDGE('',*,*,#156,.F.);
#150=ORIENTED_EDGE('',*,*,#159,.T.);
#151=CARTESIAN_POINT('',(-1.07156594925393E-015,-2.14313189850786E-015,17.4999999999999));
#152=DIRECTION('',(-6.12323399573676E-017,-1.22464679914735E-016,1.0));
#153=DIRECTION('',(-1.23259516440783E-032,1.0,1.22464679914735E-016));
#154=EDGE_CURVE('',#160,#160,#161,.T.);
#155=EDGE_CURVE('',#162,#162,#163,.T.);
#156=EDGE_CURVE('',#164,#164,#165,.T.);
#157=EDGE_CURVE('',#166,#166,#167,.T.);
#158=EDGE_CURVE('',#168,#168,#169,.T.);
#159=EDGE_CURVE('',#170,#170,#171,.T.);
#160=VERTEX_POINT('',#172);
#161=CIRCLE('',#173,9.00000000000099);
#162=VERTEX_POINT('',#174);
#163=CIRCLE('',#175,9.00000000000096);
#164=VERTEX_POINT('',#176);
#165=CIRCLE('',#177,9.150000000001);
#166=VERTEX_POINT('',#178);
#167=CIRCLE('',#179,7.99999999999996);
#168=VERTEX_POINT('',#180);
#169=CIRCLE('',#181,8.00000000000003);
#170=VERTEX_POINT('',#182);
#171=CIRCLE('',#183,9.150000000001);
#172=CARTESIAN_POINT('',(-4.46455293576556E-030,9.00000000000099,7.22021821192327E-014));
#173=AXIS2_PLACEMENT_3D('',#184,#185,#186);
#174=CARTESIAN_POINT('',(-9.36854801347719E-016,9.00000000000096,15.2999999999999));
#175=AXIS2_PLACEMENT_3D('',#187,#188,#189);
#176=CARTESIAN_POINT('',(-1.01033360929657E-015,9.150000000001,16.5));
#177=AXIS2_PLACEMENT_3D('',#190,#191,#192);
#178=CARTESIAN_POINT('',(-9.79717439317883E-015,7.99999999999994,160.0));
#179=AXIS2_PLACEMENT_3D('',#193,#194,#195);
#180=CARTESIAN_POINT('',(-1.13279828921131E-015,8.00000000000003,18.5000000000001));
#181=AXIS2_PLACEMENT_3D('',#196,#197,#198);
#182=CARTESIAN_POINT('',(-1.13279828921129E-015,9.150000000001,18.4999999999999));
#183=AXIS2_PLACEMENT_3D('',#199,#200,#201);
#184=CARTESIAN_POINT('',(-4.35358118564799E-030,-8.70716237129598E-030,7.10993763863854E-014));
#185=DIRECTION('',(6.12323399573677E-017,1.22464679914735E-016,-1.0));
#186=DIRECTION('',(-1.23259516440783E-032,1.0,1.22464679914735E-016));
#187=CARTESIAN_POINT('',(-9.36854801347719E-016,-1.87370960269544E-015,15.2999999999999));
#188=DIRECTION('',(6.12323399573677E-017,1.22464679914735E-016,-1.0));
#189=DIRECTION('',(-1.23259516440783E-032,1.0,1.22464679914735E-016));
#190=CARTESIAN_POINT('',(-1.01033360929657E-015,-2.02066721859313E-015,16.5));
#191=DIRECTION('',(6.12323399573676E-017,1.22464679914735E-016,-1.0));
#192=DIRECTION('',(-1.23259516440783E-032,1.0,1.22464679914735E-016));
#193=CARTESIAN_POINT('',(-9.79717439317883E-015,-1.95943487863577E-014,160.0));
#194=DIRECTION('',(6.12323399573676E-017,1.22464679914735E-016,-1.0));
#195=DIRECTION('',(-1.23259516440783E-032,1.0,1.22464679914735E-016));
#196=CARTESIAN_POINT('',(-1.13279828921131E-015,-2.26559657842261E-015,18.5000000000001));
#197=DIRECTION('',(6.12323399573677E-017,1.22464679914735E-016,-1.0));
#198=DIRECTION('',(-1.23259516440783E-032,1.0,1.22464679914735E-016));
#199=CARTESIAN_POINT('',(-1.13279828921129E-015,-2.26559657842259E-015,18.4999999999999));
#200=DIRECTION('',(6.12323399573676E-017,1.22464679914735E-016,-1.0));
#201=DIRECTION('',(-1.23259516440783E-032,1.0,1.22464679914735E-016));
ENDSEC;
END-ISO-10303-21;
