ISO-10303-21;
HEADER;
FILE_DESCRIPTION((''),'1');
FILE_NAME('W:/Translate/BIG-HP/\X2\30C030A630F330ED30FC30C930C730FC30BF\X0\/201309/\X2\5207524A5DE55177\X0\/\X2\FF74FF9DFF84FF9EFF90FF9952A05DE5\X0\/02_\X2\FF8CFF99FF76FF6FFF84FF90FF99\X0\FCR/03_\X2\FF7DFF84FF9AFF70FF84FF7CFF6CFF9DFF78578B\X0\/01_\X2\FF75FF70FF8AFF9EFF70FF7BFF72FF7DFF9E578B\X0\/ST16-FCR17082-120.stp','2013-09-25T09:26:58',(''),(''),'Spatial Interop R18','Kubotek KeyCreator V8.5.1 (14335)',' ');
FILE_SCHEMA(('CONFIG_CONTROL_DESIGN'));
ENDSEC;
DATA;
#1=DESIGN_CONTEXT('',#27,'design');
#2=APPLICATION_PROTOCOL_DEFINITION('INTERNATIONAL STANDARD','config_control_design',1994,#27);
#3=PRODUCT_CATEGORY_RELATIONSHIP('NONE','NONE',#28,#29);
#4=DATE_AND_TIME(#30,#31);
#5=DATE_TIME_ROLE('creation_date');
#6=DATE_TIME_ROLE('classification_date');
#7=PERSON_AND_ORGANIZATION_ROLE('creator');
#8=PERSON_AND_ORGANIZATION_ROLE('design_supplier');
#9=PERSON_AND_ORGANIZATION_ROLE('classification_officer');
#10=PERSON_AND_ORGANIZATION_ROLE('design_owner');
#11=APPROVAL_PERSON_ORGANIZATION(#32,#33,#34);
#12=APPROVAL_DATE_TIME(#4,#33);
#13=CC_DESIGN_APPROVAL(#33,(#35,#36,#37));
#14=CC_DESIGN_DATE_AND_TIME_ASSIGNMENT(#4,#5,(#37));
#15=CC_DESIGN_DATE_AND_TIME_ASSIGNMENT(#4,#6,(#35));
#16=CC_DESIGN_PERSON_AND_ORGANIZATION_ASSIGNMENT(#32,#10,(#38));
#17=CC_DESIGN_PERSON_AND_ORGANIZATION_ASSIGNMENT(#32,#7,(#37));
#18=CC_DESIGN_PERSON_AND_ORGANIZATION_ASSIGNMENT(#32,#7,(#36));
#19=CC_DESIGN_PERSON_AND_ORGANIZATION_ASSIGNMENT(#32,#8,(#36));
#20=CC_DESIGN_SECURITY_CLASSIFICATION(#35,(#36));
#21=CC_DESIGN_PERSON_AND_ORGANIZATION_ASSIGNMENT(#32,#9,(#35));
#22=SHAPE_DEFINITION_REPRESENTATION(#39,#40);
#23= (GEOMETRIC_REPRESENTATION_CONTEXT(3)GLOBAL_UNCERTAINTY_ASSIGNED_CONTEXT((#43))GLOBAL_UNIT_ASSIGNED_CONTEXT((#45,#46,#47))REPRESENTATION_CONTEXT('NONE','WORKSPACE'));
#27=APPLICATION_CONTEXT('CONFIGURATION CONTROLLED 3D DESIGNS OF MECHANICAL PARTS AND ASSEMBLIES');
#28=PRODUCT_CATEGORY('part','NONE');
#29=PRODUCT_RELATED_PRODUCT_CATEGORY('detail',' ',(#38));
#30=CALENDAR_DATE(2013,25,8);
#31=LOCAL_TIME(18,26,58.0,#49);
#32=PERSON_AND_ORGANIZATION(#50,#51);
#33=APPROVAL(#52,'SOLID MODEL');
#34=APPROVAL_ROLE('APPROVED');
#35=SECURITY_CLASSIFICATION('','',#53);
#36=PRODUCT_DEFINITION_FORMATION_WITH_SPECIFIED_SOURCE(' ','NONE',#38,.NOT_KNOWN.);
#37=PRODUCT_DEFINITION('NONE','NONE',#36,#1);
#38=PRODUCT('1','1','PART-1-DESC',(#54));
#39=PRODUCT_DEFINITION_SHAPE('NONE','NONE',#37);
#40=ADVANCED_BREP_SHAPE_REPRESENTATION('1',(#55,#56),#23);
#43=UNCERTAINTY_MEASURE_WITH_UNIT(LENGTH_MEASURE(1.0E-006),#45,'','');
#45= (CONVERSION_BASED_UNIT('MILLIMETRE',#59)LENGTH_UNIT()NAMED_UNIT(#62));
#46= (NAMED_UNIT(#64)PLANE_ANGLE_UNIT()SI_UNIT($,.RADIAN.));
#47= (NAMED_UNIT(#64)SOLID_ANGLE_UNIT()SI_UNIT($,.STERADIAN.));
#49=COORDINATED_UNIVERSAL_TIME_OFFSET(9,0,.AHEAD.);
#50=PERSON('','UNSPECIFIED',$,$,$,$);
#51=ORGANIZATION('UNSPECIFIED','UNSPECIFIED','UNSPECIFIED');
#52=APPROVAL_STATUS('approved');
#53=SECURITY_CLASSIFICATION_LEVEL('unclassified');
#54=MECHANICAL_CONTEXT('',#27,'mechanical');
#55=MANIFOLD_SOLID_BREP('1',#70);
#56=AXIS2_PLACEMENT_3D('',#71,#72,#73);
#59=LENGTH_MEASURE_WITH_UNIT(LENGTH_MEASURE(1.0),#74);
#62=DIMENSIONAL_EXPONENTS(1.0,0.0,0.0,0.0,0.0,0.0,0.0);
#64=DIMENSIONAL_EXPONENTS(0.0,0.0,0.0,0.0,0.0,0.0,0.0);
#70=CLOSED_SHELL('',(#75,#76,#77,#78,#79,#80,#81,#82));
#71=CARTESIAN_POINT('',(0.0,0.0,0.0));
#72=DIRECTION('',(0.0,0.0,1.0));
#73=DIRECTION('',(1.0,0.0,0.0));
#74= (NAMED_UNIT(#62)LENGTH_UNIT()SI_UNIT(.MILLI.,.METRE.));
#75=ADVANCED_FACE('',(#84),#85,.T.);
#76=ADVANCED_FACE('',(#86,#87),#88,.T.);
#77=ADVANCED_FACE('',(#89,#90),#91,.T.);
#78=ADVANCED_FACE('',(#92,#93),#94,.T.);
#79=ADVANCED_FACE('',(#95,#96),#97,.T.);
#80=ADVANCED_FACE('',(#98,#99),#100,.T.);
#81=ADVANCED_FACE('',(#101,#102),#103,.T.);
#82=ADVANCED_FACE('',(#104),#105,.T.);
#84=FACE_OUTER_BOUND('',#106,.T.);
#85=PLANE('',#107);
#86=FACE_BOUND('',#108,.T.);
#87=FACE_BOUND('',#109,.T.);
#88=CYLINDRICAL_SURFACE('',#110,8.50000000000002);
#89=FACE_BOUND('',#111,.T.);
#90=FACE_BOUND('',#112,.T.);
#91=CONICAL_SURFACE('',#113,8.23036351748958,1.16238928182812);
#92=FACE_BOUND('',#114,.T.);
#93=FACE_BOUND('',#115,.T.);
#94=CONICAL_SURFACE('',#116,7.8553635174895,0.261799387799122);
#95=FACE_BOUND('',#117,.T.);
#96=FACE_BOUND('',#118,.T.);
#97=CYLINDRICAL_SURFACE('',#119,7.74999999999973);
#98=FACE_BOUND('',#120,.T.);
#99=FACE_BOUND('',#121,.T.);
#100=CONICAL_SURFACE('',#122,7.87499999999974,0.523598775598126);
#101=FACE_BOUND('',#123,.T.);
#102=FACE_BOUND('',#124,.T.);
#103=CYLINDRICAL_SURFACE('',#125,7.99999999999999);
#104=FACE_OUTER_BOUND('',#126,.T.);
#105=PLANE('',#127);
#106=EDGE_LOOP('',(#128));
#107=AXIS2_PLACEMENT_3D('',#129,#130,#131);
#108=EDGE_LOOP('',(#132));
#109=EDGE_LOOP('',(#133));
#110=AXIS2_PLACEMENT_3D('',#134,#135,#136);
#111=EDGE_LOOP('',(#137));
#112=EDGE_LOOP('',(#138));
#113=AXIS2_PLACEMENT_3D('',#139,#140,#141);
#114=EDGE_LOOP('',(#142));
#115=EDGE_LOOP('',(#143));
#116=AXIS2_PLACEMENT_3D('',#144,#145,#146);
#117=EDGE_LOOP('',(#147));
#118=EDGE_LOOP('',(#148));
#119=AXIS2_PLACEMENT_3D('',#149,#150,#151);
#120=EDGE_LOOP('',(#152));
#121=EDGE_LOOP('',(#153));
#122=AXIS2_PLACEMENT_3D('',#154,#155,#156);
#123=EDGE_LOOP('',(#157));
#124=EDGE_LOOP('',(#158));
#125=AXIS2_PLACEMENT_3D('',#159,#160,#161);
#126=EDGE_LOOP('',(#162));
#127=AXIS2_PLACEMENT_3D('',#163,#164,#165);
#128=ORIENTED_EDGE('',*,*,#166,.F.);
#129=CARTESIAN_POINT('',(-5.23852944873325E-032,4.24999999999998,5.20474889637622E-016));
#130=DIRECTION('',(6.12323399573677E-017,1.22464679914735E-016,-1.0));
#131=DIRECTION('',(1.23259516440783E-032,-1.0,-1.22464679914735E-016));
#132=ORIENTED_EDGE('',*,*,#167,.F.);
#133=ORIENTED_EDGE('',*,*,#166,.T.);
#134=CARTESIAN_POINT('',(-3.06370103765542E-016,-7.85833234199683E-014,5.00340349525837));
#135=DIRECTION('',(6.12323399573676E-017,1.74562335663977E-014,-1.0));
#136=DIRECTION('',(-1.07371318084364E-030,1.0,1.74562335663977E-014));
#137=ORIENTED_EDGE('',*,*,#168,.F.);
#138=ORIENTED_EDGE('',*,*,#167,.T.);
#139=CARTESIAN_POINT('',(-6.19884927096983E-016,-1.67960733893125E-013,10.1234891158589));
#140=DIRECTION('',(6.12323399573677E-017,1.74562335663977E-014,-1.0));
#141=DIRECTION('',(-1.07371318084364E-030,1.0,1.74562335663977E-014));
#142=ORIENTED_EDGE('',*,*,#169,.F.);
#143=ORIENTED_EDGE('',*,*,#168,.T.);
#144=CARTESIAN_POINT('',(-6.5110754987836E-016,-1.76861739410907E-013,10.6333932417361));
#145=DIRECTION('',(6.12323399573676E-017,1.74562335663977E-014,-1.0));
#146=DIRECTION('',(-1.07371318084364E-030,1.0,1.74562335663977E-014));
#147=ORIENTED_EDGE('',*,*,#170,.F.);
#148=ORIENTED_EDGE('',*,*,#169,.T.);
#149=CARTESIAN_POINT('',(-1.08973978552995E-015,-3.01907863086995E-013,17.7968012701893));
#150=DIRECTION('',(6.12323399573677E-017,1.74562335663977E-014,-1.0));
#151=DIRECTION('',(-1.07371318084364E-030,1.0,1.74562335663977E-014));
#152=ORIENTED_EDGE('',*,*,#171,.F.);
#153=ORIENTED_EDGE('',*,*,#170,.T.);
#154=CARTESIAN_POINT('',(-1.51755130845013E-015,-4.23869197109026E-013,24.7834936490539));
#155=DIRECTION('',(-6.12323399573677E-017,-1.74562335663977E-014,1.0));
#156=DIRECTION('',(-1.07371318084364E-030,1.0,1.74562335663977E-014));
#157=ORIENTED_EDGE('',*,*,#172,.F.);
#158=ORIENTED_EDGE('',*,*,#171,.T.);
#159=CARTESIAN_POINT('',(-4.43934464690917E-015,-1.25681967694364E-012,72.5000000000003));
#160=DIRECTION('',(6.12323399573677E-017,1.74562335663977E-014,-1.0));
#161=DIRECTION('',(-1.07371318084364E-030,1.0,1.74562335663977E-014));
#162=ORIENTED_EDGE('',*,*,#172,.T.);
#163=CARTESIAN_POINT('',(-7.34788079488412E-015,3.99999999999792,120.0));
#164=DIRECTION('',(-6.12323399573677E-017,-1.6109676234517E-014,1.0));
#165=DIRECTION('',(-9.91260324525838E-031,1.0,1.6109676234517E-014));
#166=EDGE_CURVE('',#173,#173,#174,.T.);
#167=EDGE_CURVE('',#175,#175,#176,.T.);
#168=EDGE_CURVE('',#177,#177,#178,.T.);
#169=EDGE_CURVE('',#179,#179,#180,.T.);
#170=EDGE_CURVE('',#181,#181,#182,.T.);
#171=EDGE_CURVE('',#183,#183,#184,.T.);
#172=EDGE_CURVE('',#185,#185,#186,.T.);
#173=VERTEX_POINT('',#187);
#174=CIRCLE('',#188,8.49999999999993);
#175=VERTEX_POINT('',#189);
#176=CIRCLE('',#190,8.50000000000011);
#177=VERTEX_POINT('',#191);
#178=CIRCLE('',#192,7.96072703497904);
#179=VERTEX_POINT('',#193);
#180=CIRCLE('',#194,7.74999999999995);
#181=VERTEX_POINT('',#195);
#182=CIRCLE('',#196,7.74999999999951);
#183=VERTEX_POINT('',#197);
#184=CIRCLE('',#198,7.99999999999997);
#185=VERTEX_POINT('',#199);
#186=CIRCLE('',#200,8.00000000000002);
#187=CARTESIAN_POINT('',(-1.04770588974665E-031,8.49999999999994,1.04094977927524E-015));
#188=AXIS2_PLACEMENT_3D('',#201,#202,#203);
#189=CARTESIAN_POINT('',(-6.12740207531101E-016,8.49999999999994,10.006806990517));
#190=AXIS2_PLACEMENT_3D('',#204,#205,#206);
#191=CARTESIAN_POINT('',(-6.27029646662882E-016,7.96072703497887,10.240171241201));
#192=AXIS2_PLACEMENT_3D('',#207,#208,#209);
#193=CARTESIAN_POINT('',(-6.75185453093856E-016,7.74999999999977,11.0266152422714));
#194=AXIS2_PLACEMENT_3D('',#210,#211,#212);
#195=CARTESIAN_POINT('',(-1.50429411796605E-015,7.74999999999909,24.5669872981075));
#196=AXIS2_PLACEMENT_3D('',#213,#214,#215);
#197=CARTESIAN_POINT('',(-1.53080849893423E-015,7.99999999999954,25.0000000000007));
#198=AXIS2_PLACEMENT_3D('',#216,#217,#218);
#199=CARTESIAN_POINT('',(-7.34788079488413E-015,7.99999999999793,120.0));
#200=AXIS2_PLACEMENT_3D('',#219,#220,#221);
#201=CARTESIAN_POINT('',(8.7016388700601E-030,8.75725662019473E-015,-1.4210854715202E-013));
#202=DIRECTION('',(-6.12323399573677E-017,-1.74562335663977E-014,1.0));
#203=DIRECTION('',(-1.07371318084364E-030,1.0,1.74562335663977E-014));
#204=CARTESIAN_POINT('',(-6.12740207531093E-016,-1.65923903460131E-013,10.0068069905169));
#205=DIRECTION('',(-6.12323399573677E-017,-1.74562335663977E-014,1.0));
#206=DIRECTION('',(-1.07371318084364E-030,1.0,1.74562335663977E-014));
#207=CARTESIAN_POINT('',(-6.27029646662873E-016,-1.69997564326119E-013,10.2401712412009));
#208=DIRECTION('',(-6.12323399573677E-017,-1.74562335663977E-014,1.0));
#209=DIRECTION('',(-1.07371318084364E-030,1.0,1.74562335663977E-014));
#210=CARTESIAN_POINT('',(-6.75185453093848E-016,-1.83725914495696E-013,11.0266152422713));
#211=DIRECTION('',(-6.12323399573677E-017,-1.74562335663977E-014,1.0));
#212=DIRECTION('',(-1.07371318084364E-030,1.0,1.74562335663977E-014));
#213=CARTESIAN_POINT('',(-1.50429411796604E-015,-4.20089811678294E-013,24.5669872981074));
#214=DIRECTION('',(-6.12323399573676E-017,-1.74562335663977E-014,1.0));
#215=DIRECTION('',(-1.07371318084364E-030,1.0,1.74562335663977E-014));
#216=CARTESIAN_POINT('',(-1.53080849893422E-015,-4.27648582539759E-013,25.0000000000005));
#217=DIRECTION('',(-6.12323399573677E-017,-1.74562335663977E-014,1.0));
#218=DIRECTION('',(-1.07371318084364E-030,1.0,1.74562335663977E-014));
#219=CARTESIAN_POINT('',(-7.34788079488412E-015,-2.08599077134753E-012,120.0));
#220=DIRECTION('',(-6.12323399573677E-017,-1.74562335663977E-014,1.0));
#221=DIRECTION('',(-1.07371318084364E-030,1.0,1.74562335663977E-014));
ENDSEC;
END-ISO-10303-21;
