  0
SECTION
  2
HEADER
  9
$ACADVER
  1
AC1009
  9
$INSBASE
 10
0.0
 20
0.0
 30
0.0
  9
$EXTMIN
 10
-163.68571428571431
 20
-8.5000000000000622
 30
0.0
  9
$EXTMAX
 10
15.0
 20
53.999999999997939
 30
0.0
  9
$LIMMIN
 10
0.0
 20
0.0
  9
$LIMMAX
 10
297.0
 20
210.0
  9
$ORTHOMODE
 70
     1
  9
$REGENMODE
 70
     1
  9
$FILLMODE
 70
     1
  9
$QTEXTMODE
 70
     0
  9
$MIRRTEXT
 70
     1
  9
$DRAGMODE
 70
     2
  9
$LTSCALE
 40
10.0
  9
$OSMODE
 70
    39
  9
$ATTMODE
 70
     1
  9
$TEXTSIZE
 40
3.0
  9
$TRACEWID
 40
1.0
  9
$TEXTSTYLE
  7
YOKO
  9
$CLAYER
  8
240
  9
$CELTYPE
  6
BYLAYER
  9
$CECOLOR
 62
   256
  9
$DIMSCALE
 40
1.0
  9
$DIMASZ
 40
2.2299999999999991
  9
$DIMEXO
 40
0.5
  9
$DIMDLI
 40
7.0
  9
$DIMRND
 40
0.0
  9
$DIMDLE
 40
0.0
  9
$DIMEXE
 40
1.0
  9
$DIMTP
 40
0.0
  9
$DIMTM
 40
0.01
  9
$DIMTXT
 40
2.7999999999999989
  9
$DIMCEN
 40
0.0
  9
$DIMTSZ
 40
0.0
  9
$DIMTOL
 70
     0
  9
$DIMLIM
 70
     0
  9
$DIMTIH
 70
     0
  9
$DIMTOH
 70
     0
  9
$DIMSE1
 70
     0
  9
$DIMSE2
 70
     0
  9
$DIMTAD
 70
     3
  9
$DIMZIN
 70
     9
  9
$DIMBLK
  1
OPEN
  9
$DIMASO
 70
     1
  9
$DIMSHO
 70
     1
  9
$DIMPOST
  1

  9
$DIMAPOST
  1

  9
$DIMALT
 70
     0
  9
$DIMALTD
 70
     2
  9
$DIMALTF
 40
25.399999999999999
  9
$DIMLFAC
 40
1.0
  9
$DIMTOFL
 70
     1
  9
$DIMTVP
 40
0.0
  9
$DIMTIX
 70
     1
  9
$DIMSOXD
 70
     0
  9
$DIMSAH
 70
     0
  9
$DIMBLK1
  1

  9
$DIMBLK2
  1

  9
$DIMSTYLE
  2
BIGT
  9
$DIMCLRD
 70
   256
  9
$DIMCLRE
 70
   256
  9
$DIMCLRT
 70
    40
  9
$DIMTFAC
 40
1.0
  9
$DIMGAP
 40
1.0
  9
$LUNITS
 70
     2
  9
$LUPREC
 70
     3
  9
$SKETCHINC
 40
1.0
  9
$FILLETRAD
 40
0.0
  9
$AUNITS
 70
     0
  9
$AUPREC
 70
     3
  9
$MENU
  1
.
  9
$ELEVATION
 40
0.0
  9
$PELEVATION
 40
0.0
  9
$THICKNESS
 40
0.0
  9
$LIMCHECK
 70
     0
  9
$BLIPMODE
 70
     0
  9
$CHAMFERA
 40
0.25
  9
$CHAMFERB
 40
0.25
  9
$SKPOLY
 70
     0
  9
$TDCREATE
 40
2456114.6031682412
  9
$TDUPDATE
 40
2456115.3966476968
  9
$TDINDWG
 40
0.0389060069
  9
$TDUSRTIMER
 40
0.0389060069
  9
$USRTIMER
 70
     1
  9
$ANGBASE
 50
0.0
  9
$ANGDIR
 70
     0
  9
$PDMODE
 70
     1
  9
$PDSIZE
 40
0.0
  9
$PLINEWID
 40
0.0
  9
$COORDS
 70
     0
  9
$SPLFRAME
 70
     0
  9
$SPLINETYPE
 70
     6
  9
$SPLINESEGS
 70
     4
  9
$ATTDIA
 70
     1
  9
$ATTREQ
 70
     1
  9
$HANDLING
 70
     1
  9
$HANDSEED
  5
1CA5
  9
$SURFTAB1
 70
     6
  9
$SURFTAB2
 70
     6
  9
$SURFTYPE
 70
     6
  9
$SURFU
 70
     6
  9
$SURFV
 70
     6
  9
$UCSNAME
  2

  9
$UCSORG
 10
0.0
 20
0.0
 30
0.0
  9
$UCSXDIR
 10
1.0
 20
0.0
 30
0.0
  9
$UCSYDIR
 10
0.0
 20
1.0
 30
0.0
  9
$PUCSNAME
  2

  9
$PUCSORG
 10
0.0
 20
0.0
 30
0.0
  9
$PUCSXDIR
 10
1.0
 20
0.0
 30
0.0
  9
$PUCSYDIR
 10
0.0
 20
1.0
 30
0.0
  9
$USERI1
 70
     1
  9
$USERI2
 70
     0
  9
$USERI3
 70
     0
  9
$USERI4
 70
     0
  9
$USERI5
 70
     0
  9
$USERR1
 40
0.0
  9
$USERR2
 40
0.0
  9
$USERR3
 40
0.0
  9
$USERR4
 40
0.0
  9
$USERR5
 40
0.0
  9
$WORLDVIEW
 70
     1
  9
$SHADEDGE
 70
     3
  9
$SHADEDIF
 70
    70
  9
$TILEMODE
 70
     1
  9
$MAXACTVP
 70
    16
  9
$PLIMCHECK
 70
     0
  9
$PEXTMIN
 10
1.0000000000000000E+020
 20
1.0000000000000000E+020
 30
1.0000000000000000E+020
  9
$PEXTMAX
 10
-1.0000000000000000E+020
 20
-1.0000000000000000E+020
 30
-1.0000000000000000E+020
  9
$PLIMMIN
 10
0.0
 20
0.0
  9
$PLIMMAX
 10
420.0
 20
297.0
  9
$UNITMODE
 70
     0
  9
$VISRETAIN
 70
     1
  9
$PLINEGEN
 70
     0
  9
$PSLTSCALE
 70
     1
  0
ENDSEC
  0
SECTION
  2
TABLES
  0
TABLE
  2
VPORT
 70
     3
  0
VPORT
  2
*ACTIVE
 70
     0
 10
0.0
 20
0.0
 11
1.0
 21
1.0
 12
-74.340321957266951
 22
22.751893400507129
 13
0.0
 23
0.0
 14
7.0
 24
7.0
 15
7.0
 25
7.0
 16
0.0
 26
0.0
 36
1.0
 17
0.0
 27
0.0
 37
0.0
 40
116.1017298353056
 41
1.5459518599562361
 42
50.0
 43
0.0
 44
0.0
 50
0.0
 51
0.0
 71
     0
 72
  2000
 73
     1
 74
     0
 75
     0
 76
     0
 77
     0
 78
     0
  0
ENDTAB
  0
TABLE
  2
LTYPE
 70
    15
  0
LTYPE
  2
CONTINUOUS
 70
     0
  3
Solid line
 72
    65
 73
     0
 40
0.0
  0
LTYPE
  2
CENTER2
 70
     0
  3
___ _ ___ _ ___ _ ___ _ ___ _ ___ _ ___ _ ___ _
 72
    65
 73
     4
 40
1.125
 49
0.75
 49
-0.125
 49
0.125
 49
-0.125
  0
LTYPE
  2
HIDDEN2
 70
     0
  3
_ _ _ _ _ _ _ _ _ _ _ _ _ _ _ _ _ _ _ _ _ _ _ _
 72
    65
 73
     2
 40
0.1875
 49
0.125
 49
-0.0625
  0
LTYPE
  2
PHANTOM2
 70
     0
  3
___ _ _ ___ _ _ ___ _ _ ___ _ _ ___ _ _ ___ _ _
 72
    65
 73
     6
 40
1.25
 49
0.625
 49
-0.125
 49
0.125
 49
-0.125
 49
0.125
 49
-0.125
  0
LTYPE
  2
CENTER
 70
     0
  3
____ _ ____ _ ____ _ ____ _ ____ _ ____ _ ____ 
 72
    65
 73
     4
 40
2.0
 49
1.25
 49
-0.25
 49
0.25
 49
-0.25
  0
LTYPE
  2
AM_ISO02W050
 70
     0
  3
__ __ __ __ __ __ __ __ __ __ __ __ __ __ __
 72
    65
 73
     2
 40
7.5
 49
6.0
 49
-1.5
  0
LTYPE
  2
AMCONSTR
 70
     0
  3
_______________________
 72
    65
 73
     2
 40
9999.0
 49
9999.0
 49
0.0
  0
LTYPE
  2
ACISOWELD
 70
     0
  3
_ _ _ _ _
 72
    65
 73
     2
 40
2.0
 49
2.0
 49
-1.0
  0
LTYPE
  2
ACISOTGB
 70
     0
  3
__ . . __ . .
 72
    65
 73
     6
 40
9.0
 49
4.0
 49
-1.0
 49
1.0
 49
-1.0
 49
1.0
 49
-1.0
  0
LTYPE
  2
ACISOTGL
 70
     0
  3
_ _ _ _ _
 72
    65
 73
     2
 40
3.0
 49
2.0
 49
-1.0
  0
LTYPE
  2
ACJISTGB
 70
     0
  3
__ . . __ . .
 72
    65
 73
     6
 40
9.0
 49
4.0
 49
-1.0
 49
1.0
 49
-1.0
 49
1.0
 49
-1.0
  0
LTYPE
  2
ACJISTGL
 70
     0
  3
_ _ _ _ _
 72
    65
 73
     2
 40
3.0
 49
2.0
 49
-1.0
  0
LTYPE
  2
HIDDEN
 70
     0
  3
Hidden __ __ __ __ __ __ __ __ __ __ __ __ __ _
 72
    65
 73
     2
 40
9.5249999999999986
 49
6.3499999999999988
 49
-3.1749999999999989
  0
ENDTAB
  0
TABLE
  2
LAYER
 70
     7
  0
LAYER
  2
0
 70
     0
 62
     7
  6
CONTINUOUS
  0
LAYER
  2
DEFPOINTS
 70
     0
 62
     7
  6
CONTINUOUS
  0
LAYER
  2
245
 70
     0
 62
     2
  6
CENTER2
  0
LAYER
  2
240
 70
     0
 62
     4
  6
CONTINUOUS
  0
LAYER
  2
241
 70
     0
 62
   211
  6
CONTINUOUS
  0
LAYER
  2
242
 70
     0
 62
     3
  6
CONTINUOUS
  0
LAYER
  2
250
 70
     0
 62
     3
  6
CONTINUOUS
  0
ENDTAB
  0
TABLE
  2
STYLE
 70
     8
  0
STYLE
  2
STANDARD
 70
     0
 40
0.0
 41
1.0
 50
0.0
 71
     0
 42
3.0
  3
romans.shx
  4
extfont.shx
  0
STYLE
  2
ACISOTS
 70
     0
 40
1.0
 41
1.0
 50
0.0
 71
     0
 42
3.0
  3
amgdt.shx
  4
extfont.shx
  0
STYLE
  2
ACISOGDT
 70
     0
 40
0.0
 41
1.0
 50
0.0
 71
     0
 42
3.0
  3
amgdt.shx
  4
extfont.shx
  0
STYLE
  2
ACJISTS
 70
     0
 40
1.0
 41
1.0
 50
0.0
 71
     0
 42
3.0
  3
amgdt.shx
  4
extfont.shx
  0
STYLE
  2
ACJISGDT
 70
     0
 40
0.0
 41
1.0
 50
0.0
 71
     0
 42
3.0
  3
amgdt.shx
  4
extfont.shx
  0
STYLE
  2
YOKO
 70
     0
 40
0.0
 41
1.0
 50
0.0
 71
     0
 42
3.0
  3
romans.shx
  4
extfont.shx
  0
ENDTAB
  0
TABLE
  2
VIEW
 70
     0
  0
ENDTAB
  0
TABLE
  2
UCS
 70
     0
  0
ENDTAB
  0
TABLE
  2
APPID
 70
    28
  0
APPID
  2
ACAD
 70
     0
  0
APPID
  2
GLOBAL
 70
     0
  0
APPID
  2
DETAIL
 70
     0
  0
APPID
  2
GRPNAME
 70
     0
  0
APPID
  2
GPARA
 70
     0
  0
APPID
  2
MCAD_NO_VIS
 70
     0
  0
APPID
  2
ACAD_TEMP_GRAPHIC
 70
     0
  0
APPID
  2
ACATTRIBSERVICES
 70
     0
  0
APPID
  2
GENIUS_GENSCREG_15
 70
     0
  0
APPID
  2
GENIUS_GENODEF_13
 70
     0
  0
APPID
  2
GENIUS_GENOBJ-N-SDF_13
 70
     0
  0
APPID
  2
GENIUS_GENREC_14
 70
     0
  0
APPID
  2
GENIUS_GENOBJ-N-REC_13
 70
     0
  0
APPID
  2
GENIUS_GENDIMSH_14
 70
     0
  0
APPID
  2
GENIUS_GENOBJ-N-DIM_13
 70
     0
  0
APPID
  2
GENIUS_GENDIM_13
 70
     0
  0
APPID
  2
GENIUS_GENDTOL_13
 70
     0
  0
APPID
  2
GENIUS_GENOLIS_13
 70
     0
  0
APPID
  2
GENIUS_GENOENT_13
 70
     0
  0
APPID
  2
GENIUS_GENOBJ-F-FEM_13
 70
     0
  0
APPID
  2
GENIUS_GENOREF_13
 70
     0
  0
APPID
  2
GENIUS_GEFFEM_13
 70
     0
  0
APPID
  2
GENIUS_GEFFEMP_13
 70
     0
  0
APPID
  2
AD_DRAW
 70
     0
  0
APPID
  2
DESIGNERASSEMBLIES
 70
     0
  0
APPID
  2
ACADM_DIM_EDIT
 70
     0
  0
APPID
  2
AMDT_DM_ADJ
 70
     0
  0
APPID
  2
GENIUS_GENOBJ-N-FIL_13
 70
     0
  0
ENDTAB
  0
TABLE
  2
DIMSTYLE
 70
    29
  0
DIMSTYLE
  2
BIGT
 70
     0
  3

  4

  5
OPEN
  6

  7

 40
1.0
 41
2.2299999999999991
 42
0.5
 43
7.0
 44
1.0
 45
0.0
 46
0.0
 47
0.0
 48
0.01
140
2.7999999999999989
141
0.0
142
0.0
143
25.399999999999999
144
1.0
145
0.0
146
1.0
147
1.0
 71
     0
 72
     0
 73
     0
 74
     0
 75
     0
 76
     0
 77
     3
 78
     9
170
     0
171
     2
172
     1
173
     0
174
     1
175
     0
176
   256
177
   256
178
    40
  0
DIMSTYLE
  2
AM_ISO
 70
     0
  3

  4
"
  5

  6

  7

 40
1.0
 41
2.5
 42
1.0
 43
10.0
 44
1.0
 45
0.0
 46
0.0
 47
0.1
 48
0.1
140
3.5
141
0.0
142
0.0
143
0.0393701
144
1.0
145
0.0
146
0.71
147
1.5
 71
     0
 72
     0
 73
     0
 74
     0
 75
     0
 76
     0
 77
     1
 78
     8
170
     0
171
     2
172
     1
173
     0
174
     0
175
     0
176
   256
177
   256
178
     2
  0
DIMSTYLE
  2
AM_ISO$3
 70
     0
  3

  4
"
  5

  6

  7

 40
1.0
 41
2.5
 42
1.0
 43
10.0
 44
1.0
 45
0.0
 46
0.0
 47
0.1
 48
0.1
140
3.5
141
0.0
142
0.0
143
0.0393701
144
1.0
145
0.0
146
0.71
147
1.5
 71
     0
 72
     0
 73
     0
 74
     1
 75
     0
 76
     0
 77
     1
 78
     8
170
     0
171
     2
172
     0
173
     0
174
     0
175
     0
176
   256
177
   256
178
     2
  0
DIMSTYLE
  2
AM_ISO$4
 70
     0
  3

  4
"
  5

  6

  7

 40
1.0
 41
2.5
 42
1.0
 43
10.0
 44
1.0
 45
0.0
 46
0.0
 47
0.1
 48
0.1
140
3.5
141
0.0
142
0.0
143
0.0393701
144
1.0
145
0.0
146
0.71
147
1.5
 71
     0
 72
     0
 73
     0
 74
     1
 75
     0
 76
     0
 77
     1
 78
     8
170
     0
171
     2
172
     0
173
     0
174
     0
175
     0
176
   256
177
   256
178
     2
  0
DIMSTYLE
  2
AM_ISO$6
 70
     0
  3

  4
"
  5

  6

  7

 40
1.0
 41
2.5
 42
1.0
 43
10.0
 44
1.0
 45
0.0
 46
0.0
 47
0.1
 48
0.1
140
3.5
141
0.0
142
0.0
143
0.0393701
144
1.0
145
0.0
146
0.71
147
1.5
 71
     0
 72
     0
 73
     0
 74
     0
 75
     0
 76
     0
 77
     0
 78
     8
170
     0
171
     2
172
     1
173
     0
174
     0
175
     0
176
   256
177
   256
178
     2
  0
DIMSTYLE
  2
AM_ISO$7
 70
     0
  3

  4
"
  5

  6

  7

 40
1.0
 41
2.5
 42
1.0
 43
10.0
 44
1.0
 45
0.0
 46
0.0
 47
0.1
 48
0.1
140
5.0
141
0.0
142
0.0
143
0.0393701
144
1.0
145
0.0
146
0.71
147
1.5
 71
     0
 72
     0
 73
     0
 74
     0
 75
     0
 76
     0
 77
     1
 78
     8
170
     0
171
     2
172
     1
173
     0
174
     0
175
     0
176
   256
177
   256
178
     2
  0
DIMSTYLE
  2
AM_ISO$SF
 70
     0
  3

  4
"
  5

  6

  7

 40
1.0
 41
2.5
 42
1.0
 43
10.0
 44
1.0
 45
0.0
 46
0.0
 47
0.1
 48
0.1
140
3.5
141
0.0
142
0.0
143
0.0393701
144
1.0
145
0.0
146
0.71
147
1.5
 71
     0
 72
     0
 73
     0
 74
     0
 75
     1
 76
     1
 77
     1
 78
     8
170
     0
171
     2
172
     1
173
     0
174
     0
175
     0
176
   256
177
   256
178
     2
  0
DIMSTYLE
  2
AM_ISO$SH
 70
     0
  3

  4
"
  5

  6
GENAXEH
  7

 40
1.0
 41
2.5
 42
1.0
 43
10.0
 44
1.0
 45
0.0
 46
0.0
 47
0.1
 48
0.1
140
3.5
141
0.0
142
0.0
143
0.0393701
144
2.0
145
0.0
146
0.71
147
1.5
 71
     0
 72
     0
 73
     0
 74
     0
 75
     1
 76
     1
 77
     1
 78
     8
170
     0
171
     2
172
     1
173
     1
174
     0
175
     0
176
   256
177
   256
178
     2
  0
DIMSTYLE
  2
BIGT$2
 70
     0
  3

  4

  5
OPEN
  6

  7

 40
1.0
 41
2.2299999999999991
 42
0.5
 43
7.0
 44
1.0
 45
0.0
 46
0.0
 47
0.0
 48
0.01
140
2.7999999999999989
141
0.0
142
0.0
143
25.399999999999999
144
1.0
145
0.0
146
1.0
147
1.0
 71
     0
 72
     0
 73
     0
 74
     0
 75
     0
 76
     0
 77
     3
 78
     9
170
     0
171
     2
172
     1
173
     0
174
     0
175
     0
176
   256
177
   256
178
    40
  0
DIMSTYLE
  2
BIGT$3
 70
     0
  3

  4

  5
OPEN
  6

  7

 40
1.0
 41
2.2299999999999991
 42
0.5
 43
2.5
 44
1.0
 45
0.0
 46
0.0
 47
0.0
 48
0.01
140
2.7999999999999989
141
0.0
142
0.0
143
25.399999999999999
144
1.0
145
0.0
146
1.0
147
1.0
 71
     0
 72
     0
 73
     0
 74
     0
 75
     0
 76
     0
 77
     3
 78
     9
170
     0
171
     2
172
     1
173
     0
174
     0
175
     0
176
   256
177
   256
178
    40
  0
DIMSTYLE
  2
BIGT$7
 70
     0
  3

  4

  5
OPEN
  6

  7

 40
0.0
 41
2.2299999999999991
 42
0.5
 43
7.0
 44
1.0
 45
0.0
 46
0.0
 47
0.0
 48
0.01
140
2.7999999999999989
141
0.0
142
0.0
143
25.399999999999999
144
1.0
145
0.0
146
1.0
147
1.0
 71
     0
 72
     0
 73
     0
 74
     0
 75
     0
 76
     0
 77
     3
 78
     9
170
     0
171
     2
172
     0
173
     0
174
     0
175
     0
176
   256
177
   256
178
    40
  0
DIMSTYLE
  2
BIGT$6
 70
     0
  3

  4

  5
OPEN
  6

  7

 40
1.0
 41
2.2299999999999991
 42
0.5
 43
2.5
 44
1.0
 45
0.0
 46
0.0
 47
0.0
 48
0.01
140
2.7999999999999989
141
0.0
142
0.0
143
25.399999999999999
144
1.0
145
0.0
146
1.0
147
1.0
 71
     0
 72
     0
 73
     0
 74
     0
 75
     0
 76
     0
 77
     3
 78
     9
170
     0
171
     2
172
     1
173
     0
174
     0
175
     0
176
   256
177
   256
178
    40
  0
DIMSTYLE
  2
BIGT$0
 70
     0
  3

  4

  5
OPEN
  6

  7

 40
1.0
 41
2.2299999999999991
 42
0.5
 43
7.0
 44
1.0
 45
0.0
 46
0.0
 47
0.0
 48
0.01
140
2.7999999999999989
141
0.0
142
0.0
143
25.399999999999999
144
1.0
145
0.0
146
1.0
147
1.0
 71
     0
 72
     0
 73
     0
 74
     0
 75
     0
 76
     0
 77
     3
 78
     9
170
     0
171
     2
172
     1
173
     0
174
     0
175
     0
176
   256
177
   256
178
    40
  0
DIMSTYLE
  2
BIGT$4
 70
     0
  3

  4

  5
OPEN
  6

  7

 40
1.0
 41
2.2299999999999991
 42
0.5
 43
2.5
 44
1.0
 45
0.0
 46
0.0
 47
0.0
 48
0.01
140
2.7999999999999989
141
0.0
142
0.0
143
25.399999999999999
144
1.0
145
0.0
146
1.0
147
1.0
 71
     0
 72
     0
 73
     0
 74
     0
 75
     0
 76
     0
 77
     3
 78
     9
170
     0
171
     2
172
     1
173
     0
174
     0
175
     0
176
   256
177
   256
178
    40
  0
DIMSTYLE
  2
BIGT$SH
 70
     0
  3

  4

  5
OPEN
  6

  7

 40
1.0
 41
2.2299999999999991
 42
0.5
 43
7.0
 44
1.0
 45
0.0
 46
0.0
 47
0.0
 48
0.0
140
2.7999999999999989
141
0.0
142
0.0
143
25.399999999999999
144
1.0
145
0.0
146
1.0
147
1.0
 71
     0
 72
     0
 73
     0
 74
     0
 75
     0
 76
     0
 77
     3
 78
     9
170
     0
171
     2
172
     1
173
     0
174
     0
175
     0
176
   256
177
   256
178
    40
  0
DIMSTYLE
  2
BIGT$SF
 70
     0
  3

  4

  5
OPEN
  6

  7

 40
1.0
 41
2.2299999999999991
 42
0.5
 43
7.0
 44
1.0
 45
0.0
 46
0.0
 47
0.0
 48
0.0
140
2.7999999999999989
141
0.0
142
0.0
143
25.399999999999999
144
1.0
145
0.0
146
1.0
147
1.0
 71
     0
 72
     0
 73
     0
 74
     0
 75
     0
 76
     0
 77
     3
 78
     9
170
     0
171
     2
172
     1
173
     0
174
     0
175
     0
176
   256
177
   256
178
    40
  0
DIMSTYLE
  2
TECHNICAL_OSAKA
 70
     0
  3

  4
"
  5
OPEN30
  6

  7

 40
1.0
 41
2.5
 42
1.0
 43
10.0
 44
1.0
 45
0.0
 46
0.0
 47
0.1
 48
0.1
140
2.7999999999999989
141
0.0
142
0.0
143
0.0393701
144
1.0
145
0.0
146
0.71
147
1.5
 71
     0
 72
     0
 73
     0
 74
     0
 75
     0
 76
     0
 77
     3
 78
     8
170
     0
171
     2
172
     1
173
     0
174
     0
175
     0
176
   256
177
   256
178
    40
  0
DIMSTYLE
  2
TECHNICAL_OSAKA$3
 70
     0
  3

  4
"
  5
OPEN30
  6

  7

 40
1.0
 41
2.5
 42
1.0
 43
10.0
 44
1.0
 45
0.0
 46
0.0
 47
0.1
 48
0.1
140
2.7999999999999989
141
0.0
142
0.0
143
0.0393701
144
1.0
145
0.0
146
0.71
147
1.5
 71
     0
 72
     0
 73
     0
 74
     1
 75
     0
 76
     0
 77
     3
 78
     8
170
     0
171
     2
172
     0
173
     0
174
     0
175
     0
176
   256
177
   256
178
    40
  0
DIMSTYLE
  2
TECHNICAL_OSAKA$4
 70
     0
  3

  4
"
  5
OPEN30
  6

  7

 40
1.0
 41
2.5
 42
1.0
 43
10.0
 44
1.0
 45
0.0
 46
0.0
 47
0.1
 48
0.1
140
2.7999999999999989
141
0.0
142
0.0
143
0.0393701
144
1.0
145
0.0
146
0.71
147
1.5
 71
     0
 72
     0
 73
     0
 74
     1
 75
     0
 76
     0
 77
     3
 78
     8
170
     0
171
     2
172
     0
173
     0
174
     0
175
     0
176
   256
177
   256
178
    40
  0
DIMSTYLE
  2
TECHNICAL_OSAKA$6
 70
     0
  3

  4
"
  5
OPEN30
  6

  7

 40
1.0
 41
2.5
 42
1.0
 43
10.0
 44
1.0
 45
0.0
 46
0.0
 47
0.1
 48
0.1
140
2.7999999999999989
141
0.0
142
0.0
143
0.0393701
144
1.0
145
0.0
146
0.71
147
1.5
 71
     0
 72
     0
 73
     0
 74
     0
 75
     0
 76
     0
 77
     0
 78
     8
170
     0
171
     2
172
     1
173
     0
174
     0
175
     0
176
   256
177
   256
178
    40
  0
DIMSTYLE
  2
TECHNICAL_OSAKA$7
 70
     0
  3

  4
"
  5
OPEN30
  6

  7

 40
1.0
 41
2.5
 42
1.0
 43
10.0
 44
1.0
 45
0.0
 46
0.0
 47
0.1
 48
0.1
140
2.7999999999999989
141
0.0
142
0.0
143
0.0393701
144
1.0
145
0.0
146
0.71
147
1.5
 71
     0
 72
     0
 73
     0
 74
     0
 75
     0
 76
     0
 77
     3
 78
     8
170
     0
171
     2
172
     1
173
     0
174
     0
175
     0
176
   256
177
   256
178
    40
  0
DIMSTYLE
  2
TECHNICAL_OSAKA$SF
 70
     0
  3

  4
"
  5
OPEN30
  6
OPEN30
  7
OPEN30
 40
1.0
 41
2.5
 42
1.0
 43
10.0
 44
1.0
 45
0.0
 46
0.0
 47
0.1
 48
0.1
140
3.5
141
0.0
142
0.0
143
0.0393701
144
1.0
145
0.0
146
0.71
147
1.5
 71
     0
 72
     0
 73
     0
 74
     0
 75
     1
 76
     1
 77
     3
 78
     8
170
     0
171
     2
172
     1
173
     0
174
     0
175
     0
176
   256
177
   256
178
    40
  0
DIMSTYLE
  2
TECHNICAL_OSAKA$SH
 70
     0
  3

  4
"
  5
OPEN30
  6
GENAXEH
  7
OPEN30
 40
1.0
 41
2.5
 42
1.0
 43
10.0
 44
1.0
 45
0.0
 46
0.0
 47
0.1
 48
0.1
140
3.5
141
0.0
142
0.0
143
0.0393701
144
2.0
145
0.0
146
0.71
147
1.5
 71
     0
 72
     0
 73
     0
 74
     0
 75
     1
 76
     1
 77
     3
 78
     8
170
     0
171
     2
172
     1
173
     1
174
     0
175
     0
176
   256
177
   256
178
    40
  0
ENDTAB
  0
ENDSEC
  0
SECTION
  2
BLOCKS
  0
BLOCK
  8
0
  2
$MODEL_SPACE
 70
     0
 10
0.0
 20
0.0
 30
0.0
  3
$MODEL_SPACE
  1

  0
ENDBLK
  5
1C
  8
0
  0
BLOCK
 67
     1
  8
0
  2
$PAPER_SPACE
 70
     0
 10
0.0
 20
0.0
 30
0.0
  3
$PAPER_SPACE
  1

  0
ENDBLK
  5
19
 67
     1
  8
0
  0
BLOCK
  8
0
  2
_OPEN
 70
     0
 10
0.0
 20
0.0
 30
0.0
  3
_OPEN
  1

  0
LINE
  5
1C3B
  8
0
  6
BYBLOCK
 62
     0
 10
-1.0
 20
0.1666666666666666
 30
0.0
 11
0.0
 21
0.0
 31
0.0
  0
LINE
  5
1C3C
  8
0
  6
BYBLOCK
 62
     0
 10
-1.0
 20
-0.1666666666666666
 30
0.0
 11
0.0
 21
0.0
 31
0.0
  0
LINE
  5
1C3D
  8
0
  6
BYBLOCK
 62
     0
 10
0.0
 20
0.0
 30
0.0
 11
-1.0
 21
0.0
 31
0.0
  0
ENDBLK
  5
1C3E
  8
0
  0
BLOCK
  8
0
  2
GENAXEH
 70
     0
 10
0.0
 20
0.0
 30
0.0
  3
GENAXEH
  1

  0
LINE
  5
1C66
  8
0
 10
-1.0
 20
0.0
 30
0.0
 11
1.0
 21
0.0
 31
0.0
  0
ENDBLK
  5
1C67
  8
0
  0
BLOCK
  8
0
  2
_OPEN30
 70
     0
 10
0.0
 20
0.0
 30
0.0
  3
_OPEN30
  1

  0
LINE
  5
1C8B
  8
0
  6
BYBLOCK
 62
     0
 10
-1.0
 20
0.26794919
 30
0.0
 11
0.0
 21
0.0
 31
0.0
  0
LINE
  5
1C8C
  8
0
  6
BYBLOCK
 62
     0
 10
0.0
 20
0.0
 30
0.0
 11
-1.0
 21
-0.26794919
 31
0.0
  0
LINE
  5
1C8D
  8
0
  6
BYBLOCK
 62
     0
 10
0.0
 20
0.0
 30
0.0
 11
-1.0
 21
0.0
 31
0.0
  0
ENDBLK
  5
1C8E
  8
0
  0
ENDSEC
  0
SECTION
  2
ENTITIES
  0
LINE
  5
1479
  8
240
  6
CONTINUOUS
 10
-25.000000000000359
 20
-8.0000000000004814
 30
0.0
 11
-117.7320508075688
 21
-8.0000000000020162
 31
0.0
  0
LINE
  5
1480
  8
245
 10
1.133206719695294
 20
0.0000000000000284
 30
0.0
 11
-123.47904663072249
 21
-0.0000000000021316
 31
0.0
  0
LINE
  5
14BE
  8
241
 10
-23.000000000000568
 20
7.7499999999995453
 30
0.0
 11
-22.99999999999989
 21
-7.7317165220015616
 31
0.0
  0
LINE
  5
14BF
  8
241
  6
CONTINUOUS
 10
-25.000000000000171
 20
7.9999999999995453
 30
0.0
 11
-24.99999999999989
 21
-7.9817165220015047
 31
0.0
  0
LINE
  5
14C3
  8
240
 10
-24.30717967697268
 20
-7.600000000000505
 30
0.0
 11
-23.25980762113511
 21
-7.6000000000005343
 31
0.0
  0
LINE
  5
14C5
  8
240
 10
-23.25980762113511
 20
-7.6000000000005343
 30
0.0
 11
-23.00000000000005
 21
-7.7500000000004281
 31
0.0
  0
LINE
  5
14C6
  8
240
  6
CONTINUOUS
 10
-24.30717967697268
 20
-7.600000000000505
 30
0.0
 11
-25.000000000000359
 21
-8.0000000000004814
 31
0.0
  0
LINE
  5
14CF
  8
240
 10
-24.307179676972961
 20
7.5999999999996239
 30
0.0
 11
-23.259807621135341
 21
7.5999999999996533
 31
0.0
  0
LINE
  5
14D0
  8
240
 10
-23.259807621135341
 20
7.5999999999996533
 30
0.0
 11
-23.000000000000909
 21
7.7499999999995728
 31
0.0
  0
LINE
  5
14D1
  8
240
  6
CONTINUOUS
 10
-24.307179676972961
 20
7.5999999999996239
 30
0.0
 11
-25.000000000000679
 21
7.9999999999995453
 31
0.0
  0
LINE
  5
14D5
  8
241
  6
CONTINUOUS
 10
-117.9999999999999
 20
-7.7714257739846166
 30
0.0
 11
-118.0000000000001
 21
7.8261969055458556
 31
0.0
  0
LINE
  5
14D6
  8
240
  6
CONTINUOUS
 10
-119.9999999999999
 20
-6.5566243270280324
 30
0.0
 11
-120.0000000000001
 21
6.5566243270238536
 31
0.0
  0
LINE
  5
14D7
  8
240
  6
CONTINUOUS
 10
-118.2320508075688
 20
-7.8660254037864661
 30
0.0
 11
-119.7499999999999
 21
-6.9896370289202423
 31
0.0
  0
ARC
  5
14D8
  8
240
  6
CONTINUOUS
 10
-117.7320508075688
 20
-7.0000000000020171
 30
0.0
 40
1.0
 50
240.00000000000119
 51
270.00000000000091
  0
ARC
  5
14D9
  8
240
  6
CONTINUOUS
 10
-119.4999999999999
 20
-6.556624327028004
 30
0.0
 40
0.5000000000000041
 50
180.00000000000091
 51
240.00000000000119
  0
LINE
  5
14DA
  8
240
  6
CONTINUOUS
 10
-25.000000000000171
 20
7.9999999999995453
 30
0.0
 11
-117.732050807569
 21
7.9999999999979821
 31
0.0
  0
ARC
  5
14DB
  8
240
  6
CONTINUOUS
 10
-119.5000000000001
 20
6.556624327023882
 30
0.0
 40
0.5
 50
120.0000000000007
 51
180.00000000000091
  0
LINE
  5
14DC
  8
240
  6
CONTINUOUS
 10
-119.7500000000001
 20
6.9896370289160643
 30
0.0
 11
-118.232050807569
 21
7.8660254037824009
 31
0.0
  0
ARC
  5
14DD
  8
240
  6
CONTINUOUS
 10
-117.732050807569
 20
6.9999999999979821
 30
0.0
 40
1.0000000000000011
 50
90.000000000000952
 51
120.0000000000007
  0
ARC
  5
14EE
  8
240
 10
-16.750000000000231
 20
8.2499999999996021
 30
0.0
 40
0.8
 50
218.6821874534854
 51
321.31781254651332
  0
ARC
  5
14F0
  8
240
 10
-16.74999999999994
 20
-8.2500000000002842
 30
0.0
 40
0.8
 50
38.68218745348868
 51
141.31781254651781
  0
LINE
  5
14F1
  8
240
 10
-11.02661524227284
 20
-7.7500000000002274
 30
0.0
 11
-16.125500200160101
 21
-7.7500000000003118
 31
0.0
  0
LINE
  5
14F2
  8
240
 10
-17.374499799839889
 20
-7.7500000000003411
 30
0.0
 11
-23.00000000000005
 21
-7.7500000000004281
 31
0.0
  0
LINE
  5
14F3
  8
240
 10
-17.374499799840009
 20
7.7499999999996021
 30
0.0
 11
-23.000000000000909
 21
7.7499999999995728
 31
0.0
  0
LINE
  5
14F4
  8
240
 10
-11.02661524227142
 20
7.7499999999997717
 30
0.0
 11
-16.125500200160499
 21
7.7499999999995159
 31
0.0
  0
LINE
  5
14F5
  8
241
 10
-17.374499799839889
 20
-7.7500000000003411
 30
0.0
 11
-17.374499799840059
 21
4.481042082700383
 31
0.0
  0
LINE
  5
14F7
  8
241
 10
-16.125500200160101
 20
-7.7500000000003118
 30
0.0
 11
-16.125500200160271
 21
4.2200733340317242
 31
0.0
  0
LINE
  5
1572
  8
241
 10
-11.026615242272671
 20
-7.7543520352412818
 30
0.0
 11
-11.026615242272889
 21
3.218102120232714
 31
0.0
  0
LINE
  5
1573
  8
241
 10
-1.1169787284067061
 20
-3.6500724509313889
 30
0.0
 11
-0.7500000000002274
 21
-4.8999999999992658
 31
0.0
  0
LINE
  5
1574
  8
241
 10
-1.339439203514984
 20
-7.8603892708536298
 30
0.0
 11
-9.9070000000000942
 21
-8.0500000000004093
 31
0.0
  0
LINE
  5
1575
  8
241
 10
-0.8166600456752348
 20
-6.5387261228422338
 30
0.0
 11
-9.9070000000002665
 21
-6.5387261228424052
 31
0.0
  0
LINE
  5
1576
  8
241
 10
-0.8509152752665727
 20
-7.3808338502969093
 30
0.0
 11
-0.7500000000002274
 21
-4.8999999999935246
 31
0.0
  0
ARC
  5
1577
  8
241
 10
-1.3505021137072499
 20
-7.3605116738180243
 30
0.0
 40
0.5
 50
271.26781958456638
 51
357.67060846910221
  0
LINE
  5
1578
  8
241
 10
-9.9070000000002096
 20
-8.0448818514102243
 30
0.0
 11
-9.9070000000002665
 21
-6.538726122842462
 31
0.0
  0
LINE
  5
157B
  8
240
 10
-11.02661524227284
 20
-7.7500000000002274
 30
0.0
 11
-10.24017124120075
 21
-7.9607270349795272
 31
0.0
  0
LINE
  5
157C
  8
241
 10
-9.9070000000002665
 20
-6.5387261228424052
 30
0.0
 11
-11.026615242272721
 21
-5.769260171937816
 31
0.0
  0
LINE
  5
1582
  8
240
 10
-1.4840000000000371
 20
1.899999999999948
 30
0.0
 11
-1.48399999999998
 21
0.768680324749937
 31
0.0
  0
ARC
  5
1583
  8
241
 10
-2.8142929686106291
 20
0.0756286544790896
 30
0.0
 40
1.5
 50
28.813224757891561
 51
78.882582779426244
  0
LINE
  5
1584
  8
240
 10
-1.316348666478802
 20
0.1541325888435665
 30
0.0
 11
-1.178471942887142
 21
-2.4767120200625641
 31
0.0
  0
ARC
  5
1585
  8
240
 10
-2.8142929686106291
 20
0.0756286544790896
 30
0.0
 40
1.5
 50
3.0000000000016742
 51
28.813224757891561
  0
LINE
  5
158B
  8
245
 10
-5.7700000000002092
 20
3.2843761584088611
 30
0.0
 11
-5.7700000000002092
 21
7.1200612072528884
 31
0.0
  0
LINE
  5
158E
  8
240
 10
-11.02661524227142
 20
7.7499999999997717
 30
0.0
 11
-10.24017124120104
 21
7.9607270349788726
 31
0.0
  0
LINE
  5
1591
  8
241
 10
-2.5250625806074818
 20
1.547479795952142
 30
0.0
 11
-17.13564051733783
 21
4.4185738940696799
 31
0.0
  0
ARC
  5
1592
  8
241
 10
-16.750000000000341
 20
6.3810420827004171
 30
0.0
 40
2.0
 50
180.00000000000091
 51
258.88258277942549
  0
LINE
  5
1599
  8
241
 10
-18.750000000000341
 20
6.3810420827003886
 30
0.0
 11
-18.750000000000341
 21
7.7499999999996296
 31
0.0
  0
LINE
  5
18B9
  8
245
 10
-5.7699999999999241
 20
2.8733219901180571
 30
0.0
 11
-5.7699999999999241
 21
7.4282668199204229
 31
0.0
  0
LINE
  5
18BA
  8
245
 10
-3.229688866730839
 20
5.0784999999999343
 30
0.0
 11
-8.6611790733284124
 21
5.0784999999999343
 31
0.0
  0
LINE
  5
18BB
  8
240
 10
-10.00680699051702
 20
8.4999999999999432
 30
0.0
 11
-0.0000000000001137
 21
8.4999999999999432
 31
0.0
  0
LINE
  5
18BC
  8
241
 10
-4.3164419122409177
 20
1.899999999999948
 30
0.0
 11
-1.4839999999999229
 21
1.899999999999948
 31
0.0
  0
LINE
  5
18BD
  8
240
 10
0.0
 20
5.1999999999999309
 30
0.0
 11
0.0
 21
8.4999999999999432
 31
0.0
  0
LINE
  5
18BE
  8
240
 10
-1.4280375194167041
 20
1.899999999999948
 30
0.0
 11
0.0
 21
5.1999999999999309
 31
0.0
  0
LINE
  5
18BF
  8
242
 10
-9.264038849917938
 20
8.4045007150917286
 30
0.0
 11
-1.731214825040694
 21
7.020875764641402
 31
0.0
  0
LINE
  5
18C0
  8
242
 10
-0.9198018928655073
 20
5.9116441715582653
 30
0.0
 11
-1.361597476379188
 21
2.4244296099782039
 31
0.0
  0
LINE
  5
18C1
  8
242
 10
-1.9479611500806859
 20
1.995499284908191
 30
0.0
 11
-9.4807851749578731
 21
3.3791242353585171
 31
0.0
  0
LINE
  5
18C2
  8
242
 10
-10.29219810713311
 20
4.4883558284416551
 30
0.0
 11
-9.8504025236193211
 21
7.9755703900217148
 31
0.0
  0
LINE
  5
18C3
  8
240
 10
-10.00680699051702
 20
-8.5000000000000568
 30
0.0
 11
-0.0000000000001137
 21
-8.5000000000000568
 31
0.0
  0
LINE
  5
18C4
  8
240
 10
0.0
 20
-5.2000000000000446
 30
0.0
 11
0.0
 21
-8.5000000000000568
 31
0.0
  0
LINE
  5
18C5
  8
240
 10
-1.178471942887142
 20
-2.4767120200625641
 30
0.0
 11
0.0
 21
-5.2000000000000446
 31
0.0
  0
LINE
  5
18C6
  8
241
 10
-11.53999999999979
 20
4.9569999999999359
 30
0.0
 11
-11.53999999999979
 21
3.3194862847304871
 31
0.0
  0
LINE
  5
18C7
  8
241
 10
-10.240171241200979
 20
7.960727034978901
 30
0.0
 11
-11.53999999999979
 21
4.9569999999999359
 31
0.0
  0
LINE
  5
18C8
  8
240
 10
-10.00680699051702
 20
-8.5000000000000568
 30
0.0
 11
-10.24017124120075
 21
-7.9607270349795272
 31
0.0
  0
CIRCLE
  5
18C9
  8
241
 10
-5.7699999999999241
 20
5.0784999999999343
 30
0.0
 40
1.8999999999999999
  0
LINE
  5
18CA
  8
240
 10
-1.4840000000000371
 20
1.899999999999948
 30
0.0
 11
-1.4280375194167041
 21
1.899999999999948
 31
0.0
  0
LINE
  5
18CB
  8
240
 10
-10.24017124120104
 20
7.9607270349788726
 30
0.0
 11
-10.00680699051702
 21
8.4999999999999432
 31
0.0
  0
ARC
  5
18CC
  8
242
 10
-9.3001279673441104
 20
4.3626703569700851
 30
0.0
 40
1.0
 50
172.7796573939678
 51
259.59195737891969
1001
GENIUS_GENOBJ-N-FIL_13
1002
{
1000
OWNER
1000
GEN
1002
}
1001
GENIUS_GENODEF_13
1002
{
1000
HIER
1070
     0
1002
}
1002
{
1000
MANEDIT
1070
     0
1002
}
1002
{
1000
NOSEL
1070
     0
1002
}
1002
{
1000
BEHIND
1070
     0
1002
}
1002
{
1000
OTHER
1070
     0
1002
}
1002
{
1000
REACTOR
1002
}
  0
ARC
  5
18CD
  8
242
 10
-1.911872032654514
 20
6.0373296430298353
 30
0.0
 40
1.0
 50
352.7796573939678
 51
79.591957378919787
1001
GENIUS_GENODEF_13
1002
{
1000
HIER
1070
     0
1002
}
1002
{
1000
MANEDIT
1070
     0
1002
}
1002
{
1000
NOSEL
1070
     0
1002
}
1002
{
1000
BEHIND
1070
     0
1002
}
1002
{
1000
OTHER
1070
     0
1002
}
1002
{
1000
REACTOR
1002
}
1001
GENIUS_GENOBJ-N-FIL_13
1002
{
1000
OWNER
1000
GEN
1002
}
  0
ARC
  5
18CE
  8
242
 10
-9.3543674537248762
 20
7.9127276542859297
 30
0.0
 40
0.5
 50
79.591957378919787
 51
172.7796573939678
1001
GENIUS_GENOBJ-N-FIL_13
1002
{
1000
OWNER
1000
GEN
1002
}
1001
GENIUS_GENODEF_13
1002
{
1000
HIER
1070
     0
1002
}
1002
{
1000
MANEDIT
1070
     0
1002
}
1002
{
1000
NOSEL
1070
     0
1002
}
1002
{
1000
BEHIND
1070
     0
1002
}
1002
{
1000
OTHER
1070
     0
1002
}
1002
{
1000
REACTOR
1002
}
  0
ARC
  5
18CF
  8
242
 10
-1.8576325462738621
 20
2.4872723457139609
 30
0.0
 40
0.5
 50
259.59195737891969
 51
352.7796573939678
1001
GENIUS_GENODEF_13
1002
{
1000
HIER
1070
     0
1002
}
1002
{
1000
MANEDIT
1070
     0
1002
}
1002
{
1000
NOSEL
1070
     0
1002
}
1002
{
1000
BEHIND
1070
     0
1002
}
1002
{
1000
OTHER
1070
     0
1002
}
1002
{
1000
REACTOR
1002
}
1001
GENIUS_GENOBJ-N-FIL_13
1002
{
1000
OWNER
1000
GEN
1002
}
  0
LINE
  5
18D6
  8
241
 10
-9.9070000000000942
 20
-8.0500000000004093
 30
0.0
 11
-10.24017124120075
 21
-7.9607270349795272
 31
0.0
  0
LINE
  5
18D7
  8
241
 10
-1.178471942887142
 20
-2.4767120200625641
 30
0.0
 11
-1.1169787284067061
 21
-3.6500724509313889
 31
0.0
  0
TEXT
  5
1A73
  8
241
 10
-164.40000000000001
 20
48.999999999997918
 30
0.0
 40
5.0
  1
ST16-FCR17082-120
  7
YOKO
 11
-164.40000000000001
 21
48.999999999997918
 31
0.0
 73
     1
  0
LINE
  5
1A79
  8
250
 10
-118.232050807569
 20
7.9999999999979821
 30
0.0
 11
-130.7320508075689
 21
7.9999999999979856
 31
0.0
  0
LINE
  5
1A7A
  8
250
 10
-118.2320508075688
 20
-8.0000000000020162
 30
0.0
 11
-130.7320508075689
 21
-8.0000000000020162
 31
0.0
  0
LINE
  5
1A7B
  8
250
 10
-129.7320508075689
 20
5.7699999999979852
 30
0.0
 11
-129.7320508075689
 21
-5.7700000000020149
 31
0.0
  0
LINE
  5
1A7F
  8
250
 10
0.0
 20
8.9999999999999432
 30
0.0
 11
0.0000000000000008
 21
22.0
 31
0.0
  0
LINE
  5
1A80
  8
250
 10
-7.9999999999999991
 20
8.9999999999999432
 30
0.0
 11
-7.9999999999999982
 21
22.0
 31
0.0
  0
LINE
  5
1A81
  8
250
 10
-2.2299999999999991
 20
21.0
 30
0.0
 11
-5.7699999999999969
 21
21.0
 31
0.0
  0
LINE
  5
1A85
  8
250
 10
0.5
 20
-8.5000000000000568
 30
0.0
 11
15.0
 21
-8.5000000000000622
 31
0.0
  0
LINE
  5
1A86
  8
250
 10
0.4999999999998864
 20
8.4999999999999432
 30
0.0
 11
15.0
 21
8.4999999999999378
 31
0.0
  0
LINE
  5
1A87
  8
250
 10
13.999999999999989
 20
-6.2700000000000591
 30
0.0
 11
14.0
 21
6.2699999999999401
 31
0.0
  0
LINE
  5
1A8B
  8
250
 10
-25.000000000000679
 20
8.4999999999995453
 30
0.0
 11
-25.000000000000679
 21
28.99999999999838
 31
0.0
  0
LINE
  5
1A8C
  8
250
 10
-120.0000000000001
 20
7.0566243270238536
 30
0.0
 11
-120.0000000000001
 21
28.99999999999838
 31
0.0
  0
LINE
  5
1A8D
  8
250
 10
-27.230000000000679
 20
27.99999999999838
 30
0.0
 11
-117.7700000000001
 21
27.99999999999838
 31
0.0
  0
LINE
  5
1A91
  8
250
 10
-0.0000000000001137
 20
8.9999999999999432
 30
0.0
 11
-0.0000000000001124
 21
29.0
 31
0.0
  0
LINE
  5
1A92
  8
250
 10
-25.000000000000679
 20
8.4999999999995453
 30
0.0
 11
-25.000000000000679
 21
29.0
 31
0.0
  0
LINE
  5
1A93
  8
250
 10
-2.2300000000001119
 20
28.0
 30
0.0
 11
-22.770000000000682
 21
28.0
 31
0.0
  0
LINE
  5
1A97
  8
250
 10
-120.0000000000001
 20
7.0566243270238536
 30
0.0
 11
-120.0000000000001
 21
36.0
 31
0.0
  0
LINE
  5
1A98
  8
250
 10
0.0
 20
8.9999999999999432
 30
0.0
 11
0.0000000000000017
 21
36.0
 31
0.0
  0
LINE
  5
1A99
  8
250
 10
-117.7700000000001
 20
35.0
 30
0.0
 11
-2.2299999999999982
 21
35.0
 31
0.0
  0
TEXT
  5
1A9D
  8
250
 10
-130.7320508075689
 20
-3.8000000000020342
 30
0.0
 40
2.7999999999999989
  1
\U+220516
 50
90.0
  0
LINE
  5
1A9E
  8
250
 10
-129.3603841409022
 20
-5.7700000000020149
 30
0.0
 11
-129.7320508075689
 21
-8.0000000000020162
 31
0.0
  0
LINE
  5
1A9F
  8
250
 10
-130.10371747423559
 20
-5.7700000000020149
 30
0.0
 11
-129.7320508075689
 21
-8.0000000000020162
 31
0.0
  0
LINE
  5
1AA0
  8
250
 10
-129.7320508075689
 20
-8.0000000000020162
 30
0.0
 11
-129.7320508075689
 21
-5.7700000000020149
 31
0.0
  0
LINE
  5
1AA1
  8
250
 10
-130.10371747423559
 20
5.7699999999979852
 30
0.0
 11
-129.7320508075689
 21
7.9999999999979847
 31
0.0
  0
LINE
  5
1AA2
  8
250
 10
-129.3603841409022
 20
5.7699999999979852
 30
0.0
 11
-129.7320508075689
 21
7.9999999999979847
 31
0.0
  0
LINE
  5
1AA3
  8
250
 10
-129.7320508075689
 20
7.9999999999979847
 30
0.0
 11
-129.7320508075689
 21
5.7699999999979852
 31
0.0
  0
TEXT
  5
1AA4
  8
250
 10
-5.3333333333333313
 20
22.0
 30
0.0
 40
2.7999999999999989
  1
8
  0
LINE
  5
1AA5
  8
250
 10
-5.7699999999999969
 20
20.62833333333333
 30
0.0
 11
-7.9999999999999982
 21
21.0
 31
0.0
  0
LINE
  5
1AA6
  8
250
 10
-5.7699999999999969
 20
21.37166666666667
 30
0.0
 11
-7.9999999999999982
 21
21.0
 31
0.0
  0
LINE
  5
1AA7
  8
250
 10
-7.9999999999999982
 20
21.0
 30
0.0
 11
-5.7699999999999969
 21
21.0
 31
0.0
  0
LINE
  5
1AA8
  8
250
 10
-2.2299999999999991
 20
21.37166666666667
 30
0.0
 11
0.0000000000000008
 21
21.0
 31
0.0
  0
LINE
  5
1AA9
  8
250
 10
-2.2299999999999991
 20
20.62833333333333
 30
0.0
 11
0.0000000000000008
 21
21.0
 31
0.0
  0
LINE
  5
1AAA
  8
250
 10
0.0000000000000008
 20
21.0
 30
0.0
 11
-2.2299999999999991
 21
21.0
 31
0.0
  0
TEXT
  5
1AAB
  8
250
 10
13.0
 20
-3.8000000000000562
 30
0.0
 40
2.7999999999999989
  1
\U+220517
 50
90.0
  0
LINE
  5
1AAC
  8
250
 10
13.62833333333333
 20
6.2699999999999392
 30
0.0
 11
14.0
 21
8.4999999999999396
 31
0.0
  0
LINE
  5
1AAD
  8
250
 10
14.371666666666661
 20
6.2699999999999392
 30
0.0
 11
14.0
 21
8.4999999999999396
 31
0.0
  0
LINE
  5
1AAE
  8
250
 10
14.0
 20
8.4999999999999396
 30
0.0
 11
14.0
 21
6.2699999999999392
 31
0.0
  0
LINE
  5
1AAF
  8
250
 10
14.371666666666661
 20
-6.2700000000000591
 30
0.0
 11
13.999999999999989
 21
-8.5000000000000604
 31
0.0
  0
LINE
  5
1AB0
  8
250
 10
13.62833333333333
 20
-6.2700000000000591
 30
0.0
 11
13.999999999999989
 21
-8.5000000000000604
 31
0.0
  0
LINE
  5
1AB1
  8
250
 10
13.999999999999989
 20
-8.5000000000000604
 30
0.0
 11
13.999999999999989
 21
-6.2700000000000591
 31
0.0
  0
TEXT
  5
1AB2
  8
250
 10
-75.166666666667069
 20
28.99999999999838
 30
0.0
 40
2.7999999999999989
  1
95
  0
LINE
  5
1AB3
  8
250
 10
-117.7700000000001
 20
27.62833333333171
 30
0.0
 11
-120.0000000000001
 21
27.99999999999838
 31
0.0
  0
LINE
  5
1AB4
  8
250
 10
-117.7700000000001
 20
28.37166666666505
 30
0.0
 11
-120.0000000000001
 21
27.99999999999838
 31
0.0
  0
LINE
  5
1AB5
  8
250
 10
-120.0000000000001
 20
27.99999999999838
 30
0.0
 11
-117.7700000000001
 21
27.99999999999838
 31
0.0
  0
LINE
  5
1AB6
  8
250
 10
-27.230000000000679
 20
28.37166666666505
 30
0.0
 11
-25.000000000000679
 21
27.99999999999838
 31
0.0
  0
LINE
  5
1AB7
  8
250
 10
-27.230000000000679
 20
27.62833333333171
 30
0.0
 11
-25.000000000000679
 21
27.99999999999838
 31
0.0
  0
LINE
  5
1AB8
  8
250
 10
-25.000000000000679
 20
27.99999999999838
 30
0.0
 11
-27.230000000000679
 21
27.99999999999838
 31
0.0
  0
TEXT
  5
1AB9
  8
250
 10
-15.16666666666706
 20
29.0
 30
0.0
 40
2.7999999999999989
  1
25
  0
LINE
  5
1ABA
  8
250
 10
-22.770000000000682
 20
27.62833333333333
 30
0.0
 11
-25.000000000000679
 21
28.0
 31
0.0
  0
LINE
  5
1ABB
  8
250
 10
-22.770000000000682
 20
28.371666666666659
 30
0.0
 11
-25.000000000000679
 21
28.0
 31
0.0
  0
LINE
  5
1ABC
  8
250
 10
-25.000000000000679
 20
28.0
 30
0.0
 11
-22.770000000000682
 21
28.0
 31
0.0
  0
LINE
  5
1ABD
  8
250
 10
-2.2300000000001119
 20
28.371666666666659
 30
0.0
 11
-0.0000000000001125
 21
28.0
 31
0.0
  0
LINE
  5
1ABE
  8
250
 10
-2.2300000000001119
 20
27.62833333333333
 30
0.0
 11
-0.0000000000001125
 21
28.0
 31
0.0
  0
LINE
  5
1ABF
  8
250
 10
-0.0000000000001125
 20
28.0
 30
0.0
 11
-2.2300000000001119
 21
28.0
 31
0.0
  0
TEXT
  5
1AC0
  8
250
 10
-64.20000000000006
 20
36.0
 30
0.0
 40
2.7999999999999989
  1
120
  0
LINE
  5
1AC1
  8
250
 10
-2.2299999999999982
 20
35.37166666666667
 30
0.0
 11
0.0000000000000016
 21
35.0
 31
0.0
  0
LINE
  5
1AC2
  8
250
 10
-2.2299999999999982
 20
34.62833333333333
 30
0.0
 11
0.0000000000000016
 21
35.0
 31
0.0
  0
LINE
  5
1AC3
  8
250
 10
0.0000000000000016
 20
35.0
 30
0.0
 11
-2.2299999999999982
 21
35.0
 31
0.0
  0
LINE
  5
1AC4
  8
250
 10
-117.7700000000001
 20
34.62833333333333
 30
0.0
 11
-120.0000000000001
 21
35.0
 31
0.0
  0
LINE
  5
1AC5
  8
250
 10
-117.7700000000001
 20
35.37166666666667
 30
0.0
 11
-120.0000000000001
 21
35.0
 31
0.0
  0
LINE
  5
1AC6
  8
250
 10
-120.0000000000001
 20
35.0
 30
0.0
 11
-117.7700000000001
 21
35.0
 31
0.0
  0
VIEWPORT
  5
22
 67
     1
  8
0
 10
261.51769911504419
 20
148.5
 30
0.0
 40
523.0353982300885
 41
297.0
 68
     1
 69
     1
1001
ACAD
1000
MVIEW
1002
{
1070
    16
1010
0.0
1020
0.0
1030
0.0
1010
0.0
1020
0.0
1030
1.0
1040
0.0
1040
297.0
1040
261.51769911504419
1040
148.5
1040
50.0
1040
0.0
1040
0.0
1070
     0
1070
   100
1070
     1
1070
     1
1070
     0
1070
     0
1070
     0
1070
     0
1040
0.0
1040
0.0
1040
0.0
1040
1.0
1040
1.0
1040
10.0
1040
10.0
1070
     0
1002
{
1002
}
1002
}
1001
GENIUS_GENODEF_13
1002
{
1000
HIER
1070
     0
1002
}
1002
{
1000
MANEDIT
1070
     0
1002
}
1002
{
1000
NOSEL
1070
     0
1002
}
1002
{
1000
BEHIND
1070
     0
1002
}
1002
{
1000
OTHER
1070
     0
1002
}
1002
{
1000
REACTOR
1002
}
1001
GENIUS_GENOBJ-N-SDF_13
1002
{
1000
OWNER
1000
GEN
1002
}
1001
GENIUS_GENSCREG_15
1000
PF
1040
1.0
1000
DF
1040
1.0
1000
MIN
1011
0.0
1021
0.0
1031
-5.2678367319685784E+219
1021
0.0
1031
0.0
1000
MAX
1011
523.0353982300885
1021
0.0
1031
-5.2678367319685784E+219
1021
297.0
1031
0.0
1000
FLAGS
1070
     2
  0
ENDSEC
  0
EOF
