  0
SECTION
  2
HEADER
  9
$ACADVER
  1
AC1009
  9
$INSBASE
 10
0.0
 20
0.0
 30
0.0
  9
$EXTMIN
 10
-14.300000000000001
 20
-18.017036690000001
 30
0.0
  9
$EXTMAX
 10
102.4999999999999
 20
50.500000000000028
 30
0.0
  9
$LIMMIN
 10
0.0
 20
0.0
  9
$LIMMAX
 10
420.0
 20
297.0
  9
$ORTHOMODE
 70
     1
  9
$REGENMODE
 70
     1
  9
$FILLMODE
 70
     1
  9
$QTEXTMODE
 70
     0
  9
$MIRRTEXT
 70
     1
  9
$DRAGMODE
 70
     2
  9
$LTSCALE
 40
10.0
  9
$OSMODE
 70
    45
  9
$ATTMODE
 70
     1
  9
$TEXTSIZE
 40
3.0
  9
$TRACEWID
 40
1.0
  9
$TEXTSTYLE
  7
YOKO
  9
$CLAYER
  8
240
  9
$CELTYPE
  6
BYLAYER
  9
$CECOLOR
 62
   256
  9
$DIMSCALE
 40
1.0
  9
$DIMASZ
 40
2.0
  9
$DIMEXO
 40
2.0
  9
$DIMDLI
 40
2.5
  9
$DIMRND
 40
0.0
  9
$DIMDLE
 40
0.0
  9
$DIMEXE
 40
2.0
  9
$DIMTP
 40
0.0
  9
$DIMTM
 40
0.0
  9
$DIMTXT
 40
4.0
  9
$DIMCEN
 40
0.0
  9
$DIMTSZ
 40
0.0
  9
$DIMTOL
 70
     0
  9
$DIMLIM
 70
     0
  9
$DIMTIH
 70
     0
  9
$DIMTOH
 70
     0
  9
$DIMSE1
 70
     0
  9
$DIMSE2
 70
     0
  9
$DIMTAD
 70
     3
  9
$DIMZIN
 70
     8
  9
$DIMBLK
  1

  9
$DIMASO
 70
     1
  9
$DIMSHO
 70
     1
  9
$DIMPOST
  1

  9
$DIMAPOST
  1

  9
$DIMALT
 70
     0
  9
$DIMALTD
 70
     2
  9
$DIMALTF
 40
25.399999999999999
  9
$DIMLFAC
 40
1.0
  9
$DIMTOFL
 70
     1
  9
$DIMTVP
 40
0.0
  9
$DIMTIX
 70
     1
  9
$DIMSOXD
 70
     0
  9
$DIMSAH
 70
     1
  9
$DIMBLK1
  1
OPEN
  9
$DIMBLK2
  1
OPEN
  9
$DIMSTYLE
  2
BIGT
  9
$DIMCLRD
 70
   256
  9
$DIMCLRE
 70
   256
  9
$DIMCLRT
 70
    40
  9
$DIMTFAC
 40
1.0
  9
$DIMGAP
 40
1.0
  9
$LUNITS
 70
     2
  9
$LUPREC
 70
     3
  9
$SKETCHINC
 40
1.0
  9
$FILLETRAD
 40
0.0
  9
$AUNITS
 70
     0
  9
$AUPREC
 70
     3
  9
$MENU
  1
.
  9
$ELEVATION
 40
0.0
  9
$PELEVATION
 40
0.0
  9
$THICKNESS
 40
0.0
  9
$LIMCHECK
 70
     0
  9
$BLIPMODE
 70
     0
  9
$CHAMFERA
 40
10.0
  9
$CHAMFERB
 40
10.0
  9
$SKPOLY
 70
     0
  9
$TDCREATE
 40
2454999.490501482
  9
$TDUPDATE
 40
2457858.395514919
  9
$TDINDWG
 40
0.0341009259
  9
$TDUSRTIMER
 40
0.0341008681
  9
$USRTIMER
 70
     1
  9
$ANGBASE
 50
0.0
  9
$ANGDIR
 70
     0
  9
$PDMODE
 70
     1
  9
$PDSIZE
 40
-5.0
  9
$PLINEWID
 40
0.0
  9
$COORDS
 70
     1
  9
$SPLFRAME
 70
     0
  9
$SPLINETYPE
 70
     6
  9
$SPLINESEGS
 70
     8
  9
$ATTDIA
 70
     1
  9
$ATTREQ
 70
     1
  9
$HANDLING
 70
     1
  9
$HANDSEED
  5
1D2A
  9
$SURFTAB1
 70
     6
  9
$SURFTAB2
 70
     6
  9
$SURFTYPE
 70
     6
  9
$SURFU
 70
     6
  9
$SURFV
 70
     6
  9
$UCSNAME
  2

  9
$UCSORG
 10
0.0
 20
0.0
 30
0.0
  9
$UCSXDIR
 10
1.0
 20
0.0
 30
0.0
  9
$UCSYDIR
 10
0.0
 20
1.0
 30
0.0
  9
$PUCSNAME
  2

  9
$PUCSORG
 10
0.0
 20
0.0
 30
0.0
  9
$PUCSXDIR
 10
1.0
 20
0.0
 30
0.0
  9
$PUCSYDIR
 10
0.0
 20
1.0
 30
0.0
  9
$USERI1
 70
     1
  9
$USERI2
 70
     0
  9
$USERI3
 70
     0
  9
$USERI4
 70
     0
  9
$USERI5
 70
     0
  9
$USERR1
 40
0.0
  9
$USERR2
 40
0.0
  9
$USERR3
 40
0.0
  9
$USERR4
 40
0.0
  9
$USERR5
 40
0.0
  9
$WORLDVIEW
 70
     1
  9
$SHADEDGE
 70
     3
  9
$SHADEDIF
 70
    70
  9
$TILEMODE
 70
     1
  9
$MAXACTVP
 70
    16
  9
$PLIMCHECK
 70
     0
  9
$PEXTMIN
 10
1.0000000000000000E+020
 20
1.0000000000000000E+020
 30
1.0000000000000000E+020
  9
$PEXTMAX
 10
-1.0000000000000000E+020
 20
-1.0000000000000000E+020
 30
-1.0000000000000000E+020
  9
$PLIMMIN
 10
0.0
 20
0.0
  9
$PLIMMAX
 10
420.0
 20
297.0
  9
$UNITMODE
 70
     0
  9
$VISRETAIN
 70
     0
  9
$PLINEGEN
 70
     0
  9
$PSLTSCALE
 70
     1
  0
ENDSEC
  0
SECTION
  2
TABLES
  0
TABLE
  2
VPORT
 70
     1
  0
VPORT
  2
*ACTIVE
 70
     0
 10
0.0
 20
0.0
 11
1.0
 21
1.0
 12
44.816337401956979
 22
14.07363410171366
 13
0.0
 23
0.0
 14
7.0
 24
7.0
 15
7.0
 25
7.0
 16
0.0
 26
0.0
 36
1.0
 17
0.0
 27
0.0
 37
0.0
 40
84.718157819446731
 41
1.5393013100436681
 42
50.0
 43
0.0
 44
0.0
 50
0.0
 51
0.0
 71
     0
 72
  2000
 73
     1
 74
     0
 75
     0
 76
     0
 77
     0
 78
     0
  0
ENDTAB
  0
TABLE
  2
LTYPE
 70
    18
  0
LTYPE
  2
CONTINUOUS
 70
     0
  3
Solid line
 72
    65
 73
     0
 40
0.0
  0
LTYPE
  2
CENTER2
 70
     0
  3
___ _ ___ _ ___ _ ___ _ ___ _ ___ _ ___ _ ___ _
 72
    65
 73
     4
 40
1.125
 49
0.75
 49
-0.125
 49
0.125
 49
-0.125
  0
LTYPE
  2
PHANTOM2
 70
     0
  3
___ _ _ ___ _ _ ___ _ _ ___ _ _ ___ _ _ ___ _ _
 72
    65
 73
     6
 40
1.25
 49
0.625
 49
-0.125
 49
0.125
 49
-0.125
 49
0.125
 49
-0.125
  0
LTYPE
  2
HIDDEN2
 70
     0
  3
_ _ _ _ _ _ _ _ _ _ _ _ _ _ _ _ _ _ _ _ _ _ _ _
 72
    65
 73
     2
 40
0.1875
 49
0.125
 49
-0.0625
  0
LTYPE
  2
AMCONSTR
 70
     0
  3
_______________________
 72
    65
 73
     2
 40
9999.0
 49
9999.0
 49
0.0
  0
LTYPE
  2
HIDDEN
 70
     0
  3
Hidden __ __ __ __ __ __ __ __ __ __ __ __ __ _
 72
    65
 73
     2
 40
9.5249999999999986
 49
6.349999999999997
 49
-3.174999999999998
  0
LTYPE
  2
CENTER
 70
     0
  3
____ _ ____ _ ____ _ ____ _ ____ _ ____ _ ____ 
 72
    65
 73
     4
 40
2.0
 49
1.25
 49
-0.25
 49
0.25
 49
-0.25
  0
LTYPE
  2
ACANSTGB
 70
     0
  3
__ . . __ . .
 72
    65
 73
     6
 40
0.35433070866
 49
0.15748031496
 49
-0.03937007874
 49
0.03937007874
 49
-0.03937007874
 49
0.03937007874
 49
-0.03937007874
  0
LTYPE
  2
ACANSTGL
 70
     0
  3
_ _ _ _ _
 72
    65
 73
     2
 40
0.11811023622
 49
0.07874015748
 49
-0.03937007874
  0
LTYPE
  2
AMZIGZAG2
 70
     0
  3
/\/-/\/-/\/-/\/-/\/-/\/
 72
    65
 73
     2
 40
0.4401
 49
0.0001
 49
-0.4400000000000003
  0
ENDTAB
  0
TABLE
  2
LAYER
 70
     7
  0
LAYER
  2
0
 70
     0
 62
     7
  6
CONTINUOUS
  0
LAYER
  2
240
 70
     0
 62
     4
  6
CONTINUOUS
  0
LAYER
  2
241
 70
     0
 62
   211
  6
CONTINUOUS
  0
LAYER
  2
245
 70
     0
 62
     2
  6
CENTER2
  0
LAYER
  2
250
 70
     0
 62
     3
  6
CONTINUOUS
  0
LAYER
  2
DEFPOINTS
 70
     0
 62
     7
  6
CONTINUOUS
  0
LAYER
  2
247
 70
     0
 62
    60
  6
CONTINUOUS
  0
ENDTAB
  0
TABLE
  2
STYLE
 70
     8
  0
STYLE
  2
STANDARD
 70
     0
 40
0.0
 41
1.0
 50
0.0
 71
     0
 42
3.0
  3
romans.shx
  4
BIGFONT.SHX
  0
STYLE
  2
YOKO
 70
     0
 40
0.0
 41
1.0
 50
0.0
 71
     0
 42
3.0
  3
romans.shx
  4
extfont.shx
  0
STYLE
  2
ACANSGDT
 70
     0
 40
0.0
 41
1.0
 50
0.0
 71
     0
 42
3.0
  3
amgdt.shx
  4

  0
ENDTAB
  0
TABLE
  2
VIEW
 70
     1
  0
VIEW
  2
OLE1
 70
     0
 40
80.676262960000003
 10
44.113001320000002
 20
16.245681149999989
 41
117.46129478
 11
0.0
 21
0.0
 31
1.0
 12
0.0
 22
0.0
 32
0.0
 42
50.0
 43
0.0
 44
0.0
 50
0.0
 71
     0
  0
ENDTAB
  0
TABLE
  2
UCS
 70
     0
  0
ENDTAB
  0
TABLE
  2
APPID
 70
    40
  0
APPID
  2
ACAD
 70
     0
  0
APPID
  2
ACADANNOTATIVE
 70
     0
  0
APPID
  2
GLOBAL
 70
     0
  0
APPID
  2
DETAIL
 70
     0
  0
APPID
  2
GRPNAME
 70
     0
  0
APPID
  2
GPARA
 70
     0
  0
APPID
  2
DCO15
 70
     0
  0
APPID
  2
ITEMNAME
 70
     0
  0
APPID
  2
GRADE_0
 70
     0
  0
APPID
  2
HATCH_TYPE
 70
     0
  0
APPID
  2
HATCH_DISPLAY
 70
     0
  0
APPID
  2
HATCH_DISTANCE
 70
     0
  0
APPID
  2
CONTENTBLOCKICON
 70
     0
  0
APPID
  2
MCAD_NO_VIS
 70
     0
  0
APPID
  2
ACAD_TEMP_GRAPHIC
 70
     0
  0
APPID
  2
ACATTRIBSERVICES
 70
     0
  0
APPID
  2
GENIUS_GENSCREG_15
 70
     0
  0
APPID
  2
GENIUS_GENODEF_13
 70
     0
  0
APPID
  2
GENIUS_GENOBJ-N-SDF_13
 70
     0
  0
APPID
  2
GENIUS_GENREC_14
 70
     0
  0
APPID
  2
GENIUS_GENOBJ-N-REC_13
 70
     0
  0
APPID
  2
GENIUS_GENDIMSH_14
 70
     0
  0
APPID
  2
GENIUS_GENOBJ-N-DIM_13
 70
     0
  0
APPID
  2
GENIUS_GENDIM_13
 70
     0
  0
APPID
  2
GENIUS_GENDTOL_13
 70
     0
  0
APPID
  2
GENIUS_GENOLIS_13
 70
     0
  0
APPID
  2
GENIUS_GENOENT_13
 70
     0
  0
APPID
  2
GENIUS_GENOBJ-F-FEM_13
 70
     0
  0
APPID
  2
GENIUS_GENOREF_13
 70
     0
  0
APPID
  2
GENIUS_GEFFEM_13
 70
     0
  0
APPID
  2
GENIUS_GEFFEMP_13
 70
     0
  0
APPID
  2
AD_DRAW
 70
     0
  0
APPID
  2
DESIGNERASSEMBLIES
 70
     0
  0
APPID
  2
ACADM_DIM_EDIT
 70
     0
  0
APPID
  2
AMDT_DM_ADJ
 70
     0
  0
APPID
  2
ACAD_DSTYLE_DIMBREAK
 70
     0
  0
APPID
  2
ACAD_DSTYLE_DIMJAG
 70
     0
  0
APPID
  2
ACAD_NAV_VCDISPLAY
 70
     0
  0
APPID
  2
GENIUS_GENOBJ-N-FIL_13
 70
     0
  0
APPID
  2
ACAD_MLEADERVER
 70
     0
  0
ENDTAB
  0
TABLE
  2
DIMSTYLE
 70
    17
  0
DIMSTYLE
  2
STANDARD
 70
     0
  3

  4

  5

  6

  7

 40
1.0
 41
0.18
 42
0.0625
 43
0.38
 44
0.18
 45
0.0
 46
0.0
 47
0.0
 48
0.0
140
0.18
141
0.09
142
0.0
143
25.399999999999999
144
1.0
145
0.0
146
1.0
147
0.09
 71
     0
 72
     0
 73
     1
 74
     1
 75
     0
 76
     0
 77
     0
 78
     0
170
     0
171
     2
172
     0
173
     0
174
     0
175
     0
176
     0
177
     0
178
     0
  0
DIMSTYLE
  2
BIGT
 70
     0
  3

  4

  5

  6

  7

 40
1.0
 41
2.2299999999999991
 42
0.5
 43
7.0
 44
1.0
 45
0.0
 46
0.0
 47
0.0
 48
0.01
140
2.799999999999998
141
0.0
142
0.0
143
25.399999999999999
144
1.0
145
0.0
146
1.0
147
1.0
 71
     0
 72
     0
 73
     0
 74
     0
 75
     0
 76
     0
 77
     3
 78
     9
170
     0
171
     2
172
     1
173
     0
174
     1
175
     0
176
   256
177
   256
178
    40
  0
DIMSTYLE
  2
AM_ANSI
 70
     0
  3

  4
mm
  5

  6

  7

 40
1.0
 41
0.1
 42
0.05
 43
0.5
 44
0.1
 45
0.0
 46
0.0
 47
0.1
 48
0.1
140
0.12
141
0.0
142
0.0
143
25.399999999999999
144
1.0
145
0.0
146
0.71
147
0.06
 71
     0
 72
     0
 73
     1
 74
     1
 75
     0
 76
     0
 77
     0
 78
     7
170
     0
171
     2
172
     0
173
     0
174
     0
175
     0
176
   256
177
   256
178
     2
  0
DIMSTYLE
  2
AM_ANSI$3
 70
     0
  3

  4
mm
  5

  6

  7

 40
1.0
 41
0.1
 42
0.05
 43
0.5
 44
0.1
 45
0.0
 46
0.0
 47
0.1
 48
0.1
140
0.12
141
0.0
142
0.0
143
25.399999999999999
144
1.0
145
0.0
146
0.71
147
0.06
 71
     0
 72
     0
 73
     1
 74
     1
 75
     0
 76
     0
 77
     0
 78
     7
170
     0
171
     2
172
     0
173
     0
174
     0
175
     0
176
   256
177
   256
178
     2
  0
DIMSTYLE
  2
AM_ANSI$4
 70
     0
  3

  4
mm
  5

  6

  7

 40
1.0
 41
0.1
 42
0.05
 43
0.5
 44
0.1
 45
0.0
 46
0.0
 47
0.1
 48
0.1
140
0.12
141
0.0
142
0.0
143
25.399999999999999
144
1.0
145
0.0
146
0.71
147
0.06
 71
     0
 72
     0
 73
     1
 74
     1
 75
     0
 76
     0
 77
     0
 78
     7
170
     0
171
     2
172
     0
173
     0
174
     0
175
     0
176
   256
177
   256
178
     2
  0
DIMSTYLE
  2
AM_ANSI$7
 70
     0
  3

  4
mm
  5

  6

  7

 40
1.0
 41
0.1
 42
0.05
 43
0.5
 44
0.1
 45
0.0
 46
0.0
 47
0.1
 48
0.1
140
0.24
141
0.0
142
0.0
143
25.399999999999999
144
1.0
145
0.0
146
0.71
147
0.06
 71
     0
 72
     0
 73
     1
 74
     1
 75
     0
 76
     0
 77
     0
 78
     7
170
     0
171
     2
172
     0
173
     0
174
     0
175
     0
176
   256
177
   256
178
     2
  0
DIMSTYLE
  2
AM_ANSI$SF
 70
     0
  3

  4
mm
  5

  6

  7

 40
1.0
 41
0.1
 42
0.05
 43
0.5
 44
0.1
 45
0.0
 46
0.0
 47
0.1
 48
0.1
140
0.12
141
0.0
142
0.0
143
25.399999999999999
144
1.0
145
0.0
146
0.71
147
0.06
 71
     0
 72
     0
 73
     1
 74
     1
 75
     1
 76
     1
 77
     0
 78
     7
170
     0
171
     2
172
     0
173
     0
174
     0
175
     0
176
   256
177
   256
178
     2
  0
DIMSTYLE
  2
AM_ANSI$SH
 70
     0
  3

  4
mm
  5

  6

  7

 40
1.0
 41
0.1
 42
0.05
 43
0.5
 44
0.1
 45
0.0
 46
0.0
 47
0.1
 48
0.1
140
0.12
141
0.0
142
0.0
143
25.399999999999999
144
1.0
145
0.0
146
0.71
147
0.06
 71
     0
 72
     0
 73
     1
 74
     1
 75
     1
 76
     1
 77
     0
 78
     7
170
     0
171
     2
172
     0
173
     1
174
     0
175
     0
176
   256
177
   256
178
     2
  0
ENDTAB
  0
ENDSEC
  0
SECTION
  2
BLOCKS
  0
BLOCK
  8
0
  2
$MODEL_SPACE
 70
     0
 10
0.0
 20
0.0
 30
0.0
  3
$MODEL_SPACE
  1

  0
ENDBLK
  5
1C05
  8
0
  0
BLOCK
 67
     1
  8
0
  2
$PAPER_SPACE
 70
     0
 10
0.0
 20
0.0
 30
0.0
  3
$PAPER_SPACE
  1

  0
ENDBLK
  5
1C01
 67
     1
  8
0
  0
BLOCK
  8
0
  2
_OPEN
 70
     0
 10
0.0
 20
0.0
 30
0.0
  3
_OPEN
  1

  0
LINE
  5
1499
  8
0
  6
BYBLOCK
 62
     0
 10
-1.0
 20
0.1666666666666666
 30
0.0
 11
0.0
 21
0.0
 31
0.0
  0
LINE
  5
149A
  8
0
  6
BYBLOCK
 62
     0
 10
-1.0
 20
-0.1666666666666666
 30
0.0
 11
0.0
 21
0.0
 31
0.0
  0
LINE
  5
149B
  8
0
  6
BYBLOCK
 62
     0
 10
0.0
 20
0.0
 30
0.0
 11
-1.0
 21
0.0
 31
0.0
  0
ENDBLK
  5
149C
  8
0
  0
BLOCK
  8
0
  2
矢印なし
 70
     0
 10
0.0
 20
0.0
 30
0.0
  3
矢印なし
  1

  0
ENDBLK
  5
6E5
  8
0
  0
BLOCK
  8
0
  2
_ACMFILLEDHALF
 70
     0
 10
0.0
 20
0.0
 30
0.0
  3
_ACMFILLEDHALF
  1

  0
TRACE
  5
1AB6
  8
240
 62
     0
 10
-0.8
 20
0.0
 30
0.0
 11
-1.0
 21
0.166666666
 31
0.0
 12
0.0
 22
0.0
 32
0.0
 13
0.0
 23
0.0
 33
0.0
  0
LINE
  5
1AB7
  8
240
 62
     0
 10
-1.0
 20
0.0
 30
0.0
 11
-0.8
 21
0.0
 31
0.0
  0
ENDBLK
  5
1AB5
  8
0
  0
ENDSEC
  0
SECTION
  2
ENTITIES
  0
INSERT
  5
6E6
  8
245
  2
矢印なし
 10
175.62382697000001
 20
90.551235719999994
 30
0.0
  0
LINE
  5
BAF
  8
250
  6
CONTINUOUS
 10
7.5787339400000002
 20
-18.017036690000001
 30
0.0
 11
-7.3545993999999979
 21
-18.017036690000001
 31
0.0
1001
ITEMNAME
1000
LNSP2
  0
TEXT
  5
C76
  8
241
  6
CONTINUOUS
 10
0.0
 20
45.499999999999993
 30
0.0
 40
5.0
  1
ST16-FCM12091-90
  7
YOKO
 11
0.0
 21
45.499999999999993
 31
0.0
 73
     1
  0
LINE
  5
14FF
  8
240
  6
CONTINUOUS
 10
69.999999990000006
 20
8.0
 30
0.0
 11
0.0
 21
8.0
 31
0.0
  0
LINE
  5
1500
  8
240
  6
CONTINUOUS
 10
70.0
 20
-8.0
 30
0.0
 11
0.0
 21
-8.0
 31
0.0
  0
LINE
  5
1501
  8
245
  6
CENTER2
 10
-0.7785403500000001
 20
0.0
 30
0.0
 11
91.0
 21
0.0
 31
0.0
  0
LINE
  5
1502
  8
240
  6
CONTINUOUS
 10
0.0
 20
8.0
 30
0.0
 11
0.0
 21
-8.0
 31
0.0
  0
ARC
  5
1511
  8
240
  6
CONTINUOUS
 10
77.397728619999981
 20
-15.108290139999999
 30
0.0
 40
10.0
 50
112.01701993
 51
129.7748845399999
  0
LINE
  5
1513
  8
241
  6
CONTINUOUS
 10
71.0
 20
-7.4204792399999979
 30
0.0
 11
71.0
 21
7.4204792399999979
 31
0.0
  0
LINE
  5
1514
  8
241
  6
CONTINUOUS
 10
70.0
 20
-8.0
 30
0.0
 11
70.0
 21
8.0
 31
0.0
  0
LINE
  5
1515
  8
240
  6
CONTINUOUS
 10
70.99999999000002
 20
-7.4226497399999971
 30
0.0
 11
69.999999990000006
 21
-8.0
 31
0.0
  0
ARC
  5
151B
  8
240
  6
CONTINUOUS
 10
77.397728619999981
 20
15.108290139999999
 30
0.0
 40
10.0
 50
230.22509786000001
 51
247.98298007
  0
LINE
  5
151C
  8
240
  6
CONTINUOUS
 10
70.99999999000002
 20
7.4226497399999971
 30
0.0
 11
69.999999990000006
 21
8.0
 31
0.0
  0
ARC
  5
16D3
  8
241
  6
CONTINUOUS
 10
76.59999999999998
 20
2.5124627545353522
 30
0.0
 40
3.5
 50
180.0
 51
267.91892405964808
  0
LINE
  5
16D4
  8
240
  6
CONTINUOUS
 10
89.09999999999998
 20
-0.4999999999999745
 30
0.0
 11
89.099999999999966
 21
-5.399999999999971
 31
0.0
1001
GRPNAME
1000
PASTMD04
  0
LINE
  5
16D5
  8
241
  6
CONTINUOUS
 10
89.09999999999998
 20
-1.444067323023859
 30
0.0
 11
76.472902255141904
 21
-0.9852287932218085
 31
0.0
  0
LINE
  5
16D6
  8
240
  6
CONTINUOUS
 10
89.099999999999966
 20
-5.399999999999971
 30
0.0
 11
79.599999999999923
 21
-5.499999999999976
 31
0.0
1001
GRPNAME
1000
PASTMD04
  0
ARC
  5
16D8
  8
240
  6
CONTINUOUS
 10
75.898200617390913
 20
-11.39999999999999
 30
0.0
 40
6.0
 50
89.99999999228281
 51
112.0170199175796
1001
GRPNAME
1000
PASTMD04
  0
LINE
  5
16D9
  8
240
  6
CONTINUOUS
 10
79.032871818038174
 20
-5.3999999999999764
 30
0.0
 11
75.898200617390941
 21
-5.3999999999999764
 31
0.0
1001
GRPNAME
1000
PASTMD04
  0
LINE
  5
16DB
  8
240
  6
CONTINUOUS
 10
79.032871818038174
 20
-5.3999999999999764
 30
0.0
 11
79.599999999999923
 21
-5.499999999999976
 31
0.0
1001
GRPNAME
1000
PASTMD04
  0
LINE
  5
16DD
  8
241
  6
CONTINUOUS
 10
74.999999999999972
 20
-0.6004137287193041
 30
0.0
 11
74.999999999999972
 21
-5.131788952408896
 31
0.0
1001
GRPNAME
1000
PASTMD04
  0
LINE
  5
16E0
  8
241
  6
CONTINUOUS
 10
73.09999999999998
 20
6.0789198023947471
 30
0.0
 11
73.099999999999966
 21
2.512462754535389
 31
0.0
  0
LINE
  5
16E1
  8
240
  6
CONTINUOUS
 10
79.032871818038174
 20
5.4000000000000332
 30
0.0
 11
75.898200617390941
 21
5.4000000000000332
 31
0.0
1001
GRPNAME
1000
PASTMD04
  0
LINE
  5
16E3
  8
240
  6
CONTINUOUS
 10
79.032871818038174
 20
5.4000000000000332
 30
0.0
 11
79.137052724203215
 21
5.4183699046315859
 31
0.0
1001
GRPNAME
1000
PASTMD04
  0
ARC
  5
16E5
  8
240
  6
CONTINUOUS
 10
75.898200617390984
 20
11.40000000000002
 30
0.0
 40
6.0000000000000062
 50
247.98297958309109
 51
269.99999999742698
1001
GRPNAME
1000
PASTMD04
  0
LINE
  5
1730
  8
240
  6
CONTINUOUS
 10
79.137052724203215
 20
6.0000000000000142
 30
0.0
 11
89.999999999999915
 21
6.0
 31
0.0
  0
LINE
  5
1731
  8
241
  6
CONTINUOUS
 10
79.137052724203215
 20
5.4183699046315859
 30
0.0
 11
79.137052724203201
 21
1.242984838072364
 31
0.0
  0
LINE
  5
1732
  8
241
  6
CONTINUOUS
 10
78.788000000001503
 20
-0.4999999999999968
 30
0.0
 11
89.09999999999998
 21
-0.4999999999999745
 31
0.0
  0
LINE
  5
1733
  8
240
  6
CONTINUOUS
 10
89.650947275798117
 20
-0.499999999999992
 30
0.0
 11
89.650947275798146
 21
3.7940151619277032
 31
0.0
  0
LINE
  5
1734
  8
240
  6
CONTINUOUS
 10
89.650947275798146
 20
3.7940151619277032
 30
0.0
 11
89.999999999999986
 21
4.2100000000000071
 31
0.0
  0
LINE
  5
1735
  8
240
  6
CONTINUOUS
 10
89.999999999999986
 20
4.2100000000000071
 30
0.0
 11
90.0
 21
6.0000000000000142
 31
0.0
  0
LINE
  5
1736
  8
240
  6
CONTINUOUS
 10
89.09999999999998
 20
-0.4999999999999745
 30
0.0
 11
89.650947275798117
 21
-0.499999999999992
 31
0.0
  0
LINE
  5
1737
  8
240
  6
CONTINUOUS
 10
79.137052724203215
 20
5.4183699046315859
 30
0.0
 11
79.137052724203215
 21
5.999999999999857
 31
0.0
  0
LINE
  5
1738
  8
241
  6
CONTINUOUS
 10
89.650947275798146
 20
3.2632419385803351
 30
0.0
 11
85.47077512300136
 21
4.2038947117773269
 31
0.0
  0
LINE
  5
1739
  8
241
  6
CONTINUOUS
 10
84.142980366511935
 20
4.5026847554104723
 30
0.0
 11
79.137052724203215
 21
5.6291550410925204
 31
0.0
  0
CIRCLE
  5
173A
  8
241
  6
CONTINUOUS
 10
84.394000000000673
 20
2.5185000000000302
 30
0.0
 40
2.0
  0
LINE
  5
173B
  8
241
  6
CONTINUOUS
 10
89.650947275798117
 20
-0.499999999999992
 30
0.0
 11
84.869731644533744
 21
0.5759039528533692
 31
0.0
  0
LINE
  5
173C
  8
241
  6
CONTINUOUS
 10
83.131988713174266
 20
0.9669435195834482
 30
0.0
 11
79.137052724203201
 21
1.8659131025121889
 31
0.0
  0
LINE
  5
173D
  8
241
  6
CONTINUOUS
 10
79.137052724203201
 20
1.242984838072364
 30
0.0
 11
78.788000000001503
 21
0.8270000000002017
 31
0.0
  0
LINE
  5
17CC
  8
241
  6
CONTINUOUS
 10
78.788000000001503
 20
0.8270000000002017
 30
0.0
 11
78.788000000001503
 21
-0.4999999999999968
 31
0.0
  0
LINE
  5
17D7
  8
250
  6
CONTINUOUS
 10
75.0
 20
5.9676112999999971
 30
0.0
 11
75.0
 21
25.5
 31
0.0
  0
LINE
  5
17D8
  8
250
  6
CONTINUOUS
 10
90.0
 20
6.5
 30
0.0
 11
90.0
 21
25.5
 31
0.0
  0
LINE
  5
17D9
  8
250
  6
CONTINUOUS
 10
77.230000000000004
 20
24.5
 30
0.0
 11
87.769999999999996
 21
24.5
 31
0.0
  0
LINE
  5
17DD
  8
250
  6
CONTINUOUS
 10
81.0
 20
6.5
 30
0.0
 11
81.0
 21
18.5
 31
0.0
  0
LINE
  5
17DE
  8
250
  6
CONTINUOUS
 10
90.0
 20
6.5
 30
0.0
 11
90.0
 21
18.5
 31
0.0
  0
LINE
  5
17DF
  8
250
  6
CONTINUOUS
 10
83.230000000000004
 20
17.5
 30
0.0
 11
87.769999999999996
 21
17.5
 31
0.0
  0
LINE
  5
17E4
  8
250
  6
CONTINUOUS
 10
90.5
 20
6.0
 30
0.0
 11
102.4999999999999
 21
6.0
 31
0.0
  0
LINE
  5
17E5
  8
250
  6
CONTINUOUS
 10
101.5
 20
-3.77
 30
0.0
 11
101.5
 21
3.77
 31
0.0
  0
LINE
  5
17E9
  8
250
  6
CONTINUOUS
 10
0.0
 20
8.5
 30
0.0
 11
0.0
 21
32.5
 31
0.0
  0
LINE
  5
17EA
  8
250
  6
CONTINUOUS
 10
90.0
 20
6.5
 30
0.0
 11
90.0
 21
32.5
 31
0.0
  0
LINE
  5
17EB
  8
250
  6
CONTINUOUS
 10
2.2299999999999991
 20
31.5
 30
0.0
 11
87.769999999999996
 21
31.5
 31
0.0
  0
TEXT
  5
17EF
  8
250
  6
CONTINUOUS
 10
-4.9545994000000002
 20
-17.017036690000001
 30
0.0
 40
2.799999999999998
  1
ST16
  7
YOKO
1001
ITEMNAME
1000
LNSP3
1001
ACAD
1000
MTEXTBEGIN
1070
    73
1070
     1
1070
    44
1040
1.0
1070
    74
1070
     0
1000
MTEXTEND
1000
MTEXTBEGIN
1070
    73
1070
     1
1070
    44
1040
1.0
1070
    74
1070
     0
1000
MTEXTEND
1000
MTEXTBEGIN
1070
    73
1070
     1
1070
    44
1040
1.0
1070
    74
1070
     0
1000
MTEXTEND
1000
MTEXTBEGIN
1070
    73
1070
     1
1070
    44
1040
1.0
1070
    74
1070
     0
1000
MTEXTEND
1000
MTEXTBEGIN
1070
    73
1070
     1
1070
    44
1040
1.0
1070
    74
1070
     0
1000
MTEXTEND
  0
TEXT
  5
17F8
  8
250
  6
CONTINUOUS
 10
79.63333333333334
 20
25.499999999999989
 30
0.0
 40
2.799999999999998
  1
15
1001
ACAD
1000
MTEXTBEGIN
1070
    73
1070
     1
1070
    44
1040
1.0
1070
    74
1070
     0
1000
MTEXTEND
1000
MTEXTBEGIN
1070
    73
1070
     1
1070
    44
1040
1.0
1070
    74
1070
     0
1000
MTEXTEND
  0
LINE
  5
17F9
  8
250
  6
CONTINUOUS
 10
87.769999999999996
 20
24.87166666666667
 30
0.0
 11
90.0
 21
24.5
 31
0.0
  0
LINE
  5
17FA
  8
250
  6
CONTINUOUS
 10
87.769999999999996
 20
24.12833333333333
 30
0.0
 11
90.0
 21
24.5
 31
0.0
  0
LINE
  5
17FB
  8
250
  6
CONTINUOUS
 10
90.0
 20
24.5
 30
0.0
 11
87.769999999999996
 21
24.5
 31
0.0
  0
LINE
  5
17FC
  8
250
  6
CONTINUOUS
 10
77.230000000000004
 20
24.12833333333333
 30
0.0
 11
75.0
 21
24.5
 31
0.0
  0
LINE
  5
17FD
  8
250
  6
CONTINUOUS
 10
77.230000000000004
 20
24.87166666666667
 30
0.0
 11
75.0
 21
24.5
 31
0.0
  0
LINE
  5
17FE
  8
250
  6
CONTINUOUS
 10
75.0
 20
24.5
 30
0.0
 11
77.230000000000004
 21
24.5
 31
0.0
  0
TEXT
  5
17FF
  8
250
  6
CONTINUOUS
 10
84.233333333333334
 20
18.5
 30
0.0
 40
2.799999999999998
  1
9
1001
ACAD
1000
MTEXTBEGIN
1070
    73
1070
     1
1070
    44
1040
1.0
1070
    74
1070
     0
1000
MTEXTEND
1000
MTEXTBEGIN
1070
    73
1070
     1
1070
    44
1040
1.0
1070
    74
1070
     0
1000
MTEXTEND
  0
LINE
  5
1800
  8
250
  6
CONTINUOUS
 10
87.769999999999996
 20
17.871666666666659
 30
0.0
 11
90.0
 21
17.5
 31
0.0
  0
LINE
  5
1801
  8
250
  6
CONTINUOUS
 10
87.769999999999996
 20
17.12833333333333
 30
0.0
 11
90.0
 21
17.5
 31
0.0
  0
LINE
  5
1802
  8
250
  6
CONTINUOUS
 10
90.0
 20
17.5
 30
0.0
 11
87.769999999999996
 21
17.5
 31
0.0
  0
LINE
  5
1803
  8
250
  6
CONTINUOUS
 10
83.230000000000004
 20
17.12833333333333
 30
0.0
 11
81.0
 21
17.5
 31
0.0
  0
LINE
  5
1804
  8
250
  6
CONTINUOUS
 10
83.230000000000004
 20
17.871666666666659
 30
0.0
 11
81.0
 21
17.5
 31
0.0
  0
LINE
  5
1805
  8
250
  6
CONTINUOUS
 10
81.0
 20
17.5
 30
0.0
 11
83.230000000000004
 21
17.5
 31
0.0
  0
TEXT
  5
1806
  8
250
  6
CONTINUOUS
 10
100.5
 20
-3.799999999999998
 30
0.0
 40
2.799999999999998
  1
\U+2205
 50
90.0
1001
ACAD
1000
MTEXTBEGIN
1070
    73
1070
     1
1070
    44
1040
1.0
1070
    74
1070
     0
1000
MTEXTEND
1000
MTEXTBEGIN
1070
    73
1070
     1
1070
    44
1040
1.0
1070
    74
1070
     0
1000
MTEXTEND
  0
TEXT
  5
1807
  8
250
  6
CONTINUOUS
 10
100.5
 20
-1.2666666666666651
 30
0.0
 40
2.799999999999998
  1
12
 50
90.0
1001
ACAD
1000
MTEXTBEGIN
1070
    73
1070
     1
1070
    44
1040
1.0
1070
    74
1070
     0
1000
MTEXTEND
1000
MTEXTBEGIN
1070
    73
1070
     1
1070
    44
1040
1.0
1070
    74
1070
     0
1000
MTEXTEND
  0
LINE
  5
1808
  8
250
  6
CONTINUOUS
 10
101.1283333333333
 20
3.77
 30
0.0
 11
101.5
 21
6.0
 31
0.0
  0
LINE
  5
1809
  8
250
  6
CONTINUOUS
 10
101.8716666666666
 20
3.77
 30
0.0
 11
101.5
 21
6.0
 31
0.0
  0
LINE
  5
180A
  8
250
  6
CONTINUOUS
 10
101.5
 20
6.0
 30
0.0
 11
101.5
 21
3.77
 31
0.0
  0
TEXT
  5
180E
  8
250
  6
CONTINUOUS
 10
42.333333333333329
 20
32.5
 30
0.0
 40
2.799999999999998
  1
90
1001
ACAD
1000
MTEXTBEGIN
1070
    73
1070
     1
1070
    44
1040
1.0
1070
    74
1070
     0
1000
MTEXTEND
1000
MTEXTBEGIN
1070
    73
1070
     1
1070
    44
1040
1.0
1070
    74
1070
     0
1000
MTEXTEND
  0
LINE
  5
180F
  8
250
  6
CONTINUOUS
 10
87.769999999999996
 20
31.87166666666667
 30
0.0
 11
90.0
 21
31.5
 31
0.0
  0
LINE
  5
1810
  8
250
  6
CONTINUOUS
 10
87.769999999999996
 20
31.128333333333341
 30
0.0
 11
90.0
 21
31.5
 31
0.0
  0
LINE
  5
1811
  8
250
  6
CONTINUOUS
 10
90.0
 20
31.5
 30
0.0
 11
87.769999999999996
 21
31.5
 31
0.0
  0
LINE
  5
1812
  8
250
  6
CONTINUOUS
 10
2.2299999999999991
 20
31.128333333333341
 30
0.0
 11
0.0
 21
31.5
 31
0.0
  0
LINE
  5
1813
  8
250
  6
CONTINUOUS
 10
2.2299999999999991
 20
31.87166666666667
 30
0.0
 11
0.0
 21
31.5
 31
0.0
  0
LINE
  5
1814
  8
250
  6
CONTINUOUS
 10
0.0
 20
31.5
 30
0.0
 11
2.2299999999999991
 21
31.5
 31
0.0
  0
LINE
  5
1815
  8
250
  6
CONTINUOUS
 10
12.24707276992102
 20
-9.9312366503937035
 30
0.0
 11
7.5787339400000002
 21
-18.017036690000001
 31
0.0
1001
ACAD
1000
DSTYLE
1002
{
1070
     6
1000
OPEN
1070
   343
1005
594
1002
}
  0
LINE
  5
1816
  8
250
  6
CONTINUOUS
 10
11.925199994855401
 20
-9.7454033170472076
 30
0.0
 11
13.36207276999999
 21
-8.0
 31
0.0
  0
LINE
  5
1817
  8
250
  6
CONTINUOUS
 10
12.56894554498664
 20
-10.117069983740199
 30
0.0
 11
13.36207276999999
 21
-8.0
 31
0.0
  0
LINE
  5
1818
  8
250
  6
CONTINUOUS
 10
13.36207276999999
 20
-8.0
 30
0.0
 11
12.24707276992102
 21
-9.9312366503937035
 31
0.0
  0
LINE
  5
1B24
  8
247
  6
CONTINUOUS
 10
6.749999999929968
 20
-5.5
 30
0.0
 11
13.442307691969971
 21
-5.5
 31
0.0
  0
ARC
  5
1B25
  8
247
  6
CONTINUOUS
 10
6.749999999929968
 20
-3.7500000000700311
 30
0.0
 40
1.7499999999299991
 50
90.0
 51
270.0
  0
ARC
  5
1B26
  8
247
  6
CONTINUOUS
 10
13.442307691969971
 20
-3.7500000000700311
 30
0.0
 40
1.7499999999299991
 50
270.0
 51
90.0
  0
LINE
  5
1B27
  8
247
  6
CONTINUOUS
 10
7.6153846152799911
 20
-2.0000000001400622
 30
0.0
 11
6.7551484580379793
 21
-5.0000000000200071
 31
0.0
  0
LINE
  5
1B28
  8
247
  6
CONTINUOUS
 10
8.5150161816641798
 20
-3.4230769231598961
 30
0.0
 11
7.2073238740241532
 21
-3.4230769231598961
 31
0.0
  0
ARC
  5
1B29
  8
247
  6
CONTINUOUS
 10
8.8548561839102131
 20
-2.549598667702865
 30
0.0
 40
0.5538165441895349
 50
342.9978896752952
 51
82.924166218513577
  0
ARC
  5
1B2A
  8
247
  6
CONTINUOUS
 10
8.4331216769712114
 20
-2.4360330444658289
 30
0.0
 40
0.9904354236226808
 50
274.74293685219902
 51
343.84922627326682
1001
GENIUS_GENOBJ-N-FIL_13
1002
{
1000
OWNER
1000
GEN
1002
}
1001
GENIUS_GENODEF_13
1002
{
1000
HIER
1070
     0
1002
}
1002
{
1000
MANEDIT
1070
     0
1002
}
1002
{
1000
NOSEL
1070
     0
1002
}
1002
{
1000
BEHIND
1070
     0
1002
}
1002
{
1000
OTHER
1070
     0
1002
}
1002
{
1000
REACTOR
1002
}
  0
LINE
  5
1B2B
  8
247
  6
CONTINUOUS
 10
8.0628407656780023
 20
-5.0000000000200071
 30
0.0
 11
6.7551484580379793
 21
-5.0000000000200071
 31
0.0
  0
LINE
  5
1B2C
  8
247
  6
CONTINUOUS
 10
7.6153846152799911
 20
-2.0000000001400622
 30
0.0
 11
8.9230769229200195
 21
-2.0000000001400622
 31
0.0
  0
ARC
  5
1B2D
  8
247
  6
CONTINUOUS
 10
8.4390803634530585
 20
-3.9820242326654789
 30
0.0
 40
0.5640818586791229
 50
335.99094165252171
 51
82.263443459069123
  0
ARC
  5
1B2E
  8
247
  6
CONTINUOUS
 10
7.9617373146529626
 20
-3.987429039186507
 30
0.0
 40
1.0176059446230981
 50
275.70198516425648
 51
347.27733843682199
1001
GENIUS_GENOBJ-N-FIL_13
1002
{
1000
OWNER
1000
GEN
1002
}
1001
GENIUS_GENODEF_13
1002
{
1000
HIER
1070
     0
1002
}
1002
{
1000
MANEDIT
1070
     0
1002
}
1002
{
1000
NOSEL
1070
     0
1002
}
1002
{
1000
BEHIND
1070
     0
1002
}
1002
{
1000
OTHER
1070
     0
1002
}
1002
{
1000
REACTOR
1002
}
  0
LINE
  5
1B2F
  8
247
  6
CONTINUOUS
 10
9.7166869194579704
 20
-5.0000000000200071
 30
0.0
 11
10.57692307669998
 21
-2.0000000001400622
 31
0.0
  0
LINE
  5
1B30
  8
247
  6
CONTINUOUS
 10
12.99999999967997
 20
-2.0000000001400622
 30
0.0
 11
12.434263380543371
 21
-2.0000000001400622
 31
0.0
  0
LINE
  5
1B31
  8
247
  6
CONTINUOUS
 10
11.538461538200011
 20
-5.0000000000200071
 30
0.0
 11
12.15384615355998
 21
-5.0000000000200071
 31
0.0
  0
ARC
  5
1B32
  8
247
  6
CONTINUOUS
 10
13.29120879087713
 20
-4.0832851359733677
 30
0.0
 40
2.2526500823422122
 50
112.3594881415295
 51
164.9932485428464
  0
ARC
  5
1B33
  8
247
  6
CONTINUOUS
 10
12.62593052078677
 20
-2.8083126551946389
 30
0.0
 40
0.8906723995727782
 50
4.9945893190753123
 51
65.166328957300649
1001
GENIUS_GENOBJ-N-FIL_13
1002
{
1000
OWNER
1000
GEN
1002
}
1001
GENIUS_GENODEF_13
1002
{
1000
HIER
1070
     0
1002
}
1002
{
1000
MANEDIT
1070
     0
1002
}
1002
{
1000
NOSEL
1070
     0
1002
}
1002
{
1000
BEHIND
1070
     0
1002
}
1002
{
1000
OTHER
1070
     0
1002
}
1002
{
1000
REACTOR
1002
}
  0
ARC
  5
1B34
  8
247
  6
CONTINUOUS
 10
11.77354111378742
 20
-3.6601458886677829
 30
0.0
 40
1.392781735586712
 50
285.84609655578078
 51
352.3251370041624
  0
ARC
  5
1B35
  8
247
  6
CONTINUOUS
 10
12.35778727415965
 20
-3.9592434315272831
 30
0.0
 40
1.324563662670287
 50
159.71360167049011
 51
231.78874565641459
1001
GENIUS_GENOBJ-N-FIL_13
1002
{
1000
OWNER
1000
GEN
1002
}
1001
GENIUS_GENODEF_13
1002
{
1000
HIER
1070
     0
1002
}
1002
{
1000
MANEDIT
1070
     0
1002
}
1002
{
1000
NOSEL
1070
     0
1002
}
1002
{
1000
BEHIND
1070
     0
1002
}
1002
{
1000
OTHER
1070
     0
1002
}
1002
{
1000
REACTOR
1002
}
  0
LINE
  5
1B36
  8
247
  6
CONTINUOUS
 10
12.46153846124002
 20
-3.846153846219976
 30
0.0
 11
13.15384615352002
 21
-3.846153846219976
 31
0.0
  0
LINE
  5
1B37
  8
247
  6
CONTINUOUS
 10
6.749999999929968
 20
-2.0000000001400622
 30
0.0
 11
7.4230769229799289
 21
-2.0000000001400622
 31
0.0
  0
VIEWPORT
  5
22
 67
     1
  8
0
 10
261.51769911999992
 20
148.5
 30
0.0
 40
523.03539823000006
 41
297.0
 68
     1
 69
     1
1001
ACAD
1000
MVIEW
1002
{
1070
    16
1010
0.0
1020
0.0
1030
0.0
1010
0.0
1020
0.0
1030
1.0
1040
0.0
1040
297.0
1040
261.51769911999992
1040
148.5
1040
50.0
1040
0.0
1040
0.0
1070
     0
1070
   100
1070
     1
1070
     1
1070
     0
1070
     0
1070
     0
1070
     0
1040
0.0
1040
0.0
1040
0.0
1040
1.0
1040
1.0
1040
10.0
1040
10.0
1070
     0
1002
{
1002
}
1002
}
1001
GENIUS_GENOBJ-N-SDF_13
1002
{
1000
OWNER
1000
GEN
1002
}
1001
GENIUS_GENODEF_13
1002
{
1000
HIER
1070
     0
1002
}
1002
{
1000
MANEDIT
1070
     0
1002
}
1002
{
1000
NOSEL
1070
     0
1002
}
1002
{
1000
BEHIND
1070
     0
1002
}
1002
{
1000
OTHER
1070
     0
1002
}
1002
{
1000
REACTOR
1002
}
1001
GENIUS_GENSCREG_15
1000
PF
1040
1.0
1000
DF
1040
1.0
1000
MIN
1011
0.0000000049999471
1021
0.0
1031
0.0
1021
0.0
1031
0.0
1000
MAX
1011
523.035398235
1021
0.0
1031
0.0
1021
297.0
1031
0.0
1000
FLAGS
1070
     4
  0
ENDSEC
  0
EOF
