  0
SECTION
  2
HEADER
  9
$ACADVER
  1
AC1009
  9
$INSBASE
 10
0.0
 20
0.0
 30
0.0
  9
$EXTMIN
 10
-125.38297980113759
 20
-30.86425735948637
 30
-0.0015258207003583
  9
$EXTMAX
 10
18.480926880940039
 20
24.314575468090599
 30
0.0000000349246037
  9
$LIMMIN
 10
0.0
 20
0.0
  9
$LIMMAX
 10
297.0
 20
210.0
  9
$ORTHOMODE
 70
     1
  9
$REGENMODE
 70
     1
  9
$FILLMODE
 70
     1
  9
$QTEXTMODE
 70
     0
  9
$MIRRTEXT
 70
     1
  9
$DRAGMODE
 70
     2
  9
$LTSCALE
 40
10.0
  9
$OSMODE
 70
  2597
  9
$ATTMODE
 70
     1
  9
$TEXTSIZE
 40
3.0
  9
$TRACEWID
 40
1.0
  9
$TEXTSTYLE
  7
YOKO
  9
$CLAYER
  8
240
  9
$CELTYPE
  6
BYLAYER
  9
$CECOLOR
 62
   256
  9
$DIMSCALE
 40
1.0
  9
$DIMASZ
 40
2.2299999999999991
  9
$DIMEXO
 40
0.5
  9
$DIMDLI
 40
7.0
  9
$DIMRND
 40
0.0
  9
$DIMDLE
 40
0.0
  9
$DIMEXE
 40
1.0
  9
$DIMTP
 40
0.0
  9
$DIMTM
 40
0.01
  9
$DIMTXT
 40
2.7999999999999989
  9
$DIMCEN
 40
0.0
  9
$DIMTSZ
 40
0.0
  9
$DIMTOL
 70
     0
  9
$DIMLIM
 70
     0
  9
$DIMTIH
 70
     0
  9
$DIMTOH
 70
     0
  9
$DIMSE1
 70
     0
  9
$DIMSE2
 70
     0
  9
$DIMTAD
 70
     3
  9
$DIMZIN
 70
     9
  9
$DIMBLK
  1
OPEN
  9
$DIMASO
 70
     1
  9
$DIMSHO
 70
     1
  9
$DIMPOST
  1

  9
$DIMAPOST
  1

  9
$DIMALT
 70
     0
  9
$DIMALTD
 70
     2
  9
$DIMALTF
 40
25.399999999999999
  9
$DIMLFAC
 40
1.0
  9
$DIMTOFL
 70
     1
  9
$DIMTVP
 40
0.0
  9
$DIMTIX
 70
     1
  9
$DIMSOXD
 70
     0
  9
$DIMSAH
 70
     0
  9
$DIMBLK1
  1

  9
$DIMBLK2
  1

  9
$DIMSTYLE
  2
BIGT
  9
$DIMCLRD
 70
   256
  9
$DIMCLRE
 70
   256
  9
$DIMCLRT
 70
    40
  9
$DIMTFAC
 40
1.0
  9
$DIMGAP
 40
1.0
  9
$LUNITS
 70
     2
  9
$LUPREC
 70
     3
  9
$SKETCHINC
 40
1.0
  9
$FILLETRAD
 40
0.2
  9
$AUNITS
 70
     0
  9
$AUPREC
 70
     3
  9
$MENU
  1
.
  9
$ELEVATION
 40
0.0
  9
$PELEVATION
 40
0.0
  9
$THICKNESS
 40
0.0
  9
$LIMCHECK
 70
     0
  9
$BLIPMODE
 70
     0
  9
$CHAMFERA
 40
0.25
  9
$CHAMFERB
 40
0.25
  9
$SKPOLY
 70
     0
  9
$TDCREATE
 40
2454678.7178190169
  9
$TDUPDATE
 40
2454678.7322314461
  9
$TDINDWG
 40
0.0144155093
  9
$TDUSRTIMER
 40
0.0144155093
  9
$USRTIMER
 70
     1
  9
$ANGBASE
 50
0.0
  9
$ANGDIR
 70
     0
  9
$PDMODE
 70
     1
  9
$PDSIZE
 40
0.0
  9
$PLINEWID
 40
0.0
  9
$COORDS
 70
     2
  9
$SPLFRAME
 70
     0
  9
$SPLINETYPE
 70
     6
  9
$SPLINESEGS
 70
     4
  9
$ATTDIA
 70
     1
  9
$ATTREQ
 70
     1
  9
$HANDLING
 70
     1
  9
$HANDSEED
  5
1806
  9
$SURFTAB1
 70
     6
  9
$SURFTAB2
 70
     6
  9
$SURFTYPE
 70
     6
  9
$SURFU
 70
     6
  9
$SURFV
 70
     6
  9
$UCSNAME
  2

  9
$UCSORG
 10
0.0
 20
0.0
 30
0.0
  9
$UCSXDIR
 10
1.0
 20
0.0
 30
0.0
  9
$UCSYDIR
 10
0.0
 20
1.0
 30
0.0
  9
$PUCSNAME
  2

  9
$PUCSORG
 10
0.0
 20
0.0
 30
0.0
  9
$PUCSXDIR
 10
1.0
 20
0.0
 30
0.0
  9
$PUCSYDIR
 10
0.0
 20
1.0
 30
0.0
  9
$USERI1
 70
     1
  9
$USERI2
 70
     0
  9
$USERI3
 70
     0
  9
$USERI4
 70
     0
  9
$USERI5
 70
     0
  9
$USERR1
 40
0.0
  9
$USERR2
 40
0.0
  9
$USERR3
 40
0.0
  9
$USERR4
 40
0.0
  9
$USERR5
 40
0.0
  9
$WORLDVIEW
 70
     1
  9
$SHADEDGE
 70
     3
  9
$SHADEDIF
 70
    70
  9
$TILEMODE
 70
     1
  9
$MAXACTVP
 70
    16
  9
$PLIMCHECK
 70
     0
  9
$PEXTMIN
 10
1.0000000000000000E+020
 20
1.0000000000000000E+020
 30
1.0000000000000000E+020
  9
$PEXTMAX
 10
-1.0000000000000000E+020
 20
-1.0000000000000000E+020
 30
-1.0000000000000000E+020
  9
$PLIMMIN
 10
0.0
 20
0.0
  9
$PLIMMAX
 10
420.0
 20
297.0
  9
$UNITMODE
 70
     0
  9
$VISRETAIN
 70
     1
  9
$PLINEGEN
 70
     0
  9
$PSLTSCALE
 70
     1
  0
ENDSEC
  0
SECTION
  2
TABLES
  0
TABLE
  2
VPORT
 70
    40
  0
VPORT
  2
*ACTIVE
 70
     0
 10
0.0
 20
0.0
 11
1.0
 21
1.0
 12
-53.451026460098802
 22
-3.2748409456978891
 13
0.0
 23
0.0
 14
7.0
 24
7.0
 15
7.0
 25
7.0
 16
0.0
 26
0.0
 36
1.0
 17
0.0
 27
0.0
 37
0.0
 40
97.263859156466225
 41
1.4864532019704431
 42
50.0
 43
0.0
 44
0.0
 50
0.0
 51
0.0
 71
     0
 72
  2000
 73
     1
 74
     0
 75
     0
 76
     1
 77
     0
 78
     0
  0
ENDTAB
  0
TABLE
  2
LTYPE
 70
    13
  0
LTYPE
  2
CONTINUOUS
 70
     0
  3
Solid line
 72
    65
 73
     0
 40
0.0
  0
LTYPE
  2
CENTER2
 70
     0
  3
___ _ ___ _ ___ _ ___ _ ___ _ ___ _ ___ _ ___ _
 72
    65
 73
     4
 40
1.125
 49
0.75
 49
-0.125
 49
0.125
 49
-0.125
  0
LTYPE
  2
HIDDEN2
 70
     0
  3
_ _ _ _ _ _ _ _ _ _ _ _ _ _ _ _ _ _ _ _ _ _ _ _
 72
    65
 73
     2
 40
0.1875
 49
0.125
 49
-0.0625
  0
LTYPE
  2
PHANTOM2
 70
     0
  3
___ _ _ ___ _ _ ___ _ _ ___ _ _ ___ _ _ ___ _ _
 72
    65
 73
     6
 40
1.25
 49
0.625
 49
-0.125
 49
0.125
 49
-0.125
 49
0.125
 49
-0.125
  0
LTYPE
  2
CENTER
 70
     0
  3
____ _ ____ _ ____ _ ____ _ ____ _ ____ _ ____ 
 72
    65
 73
     4
 40
2.0
 49
1.25
 49
-0.25
 49
0.25
 49
-0.25
  0
LTYPE
  2
AM_ISO02W050
 70
     0
  3
__ __ __ __ __ __ __ __ __ __ __ __ __ __ __
 72
    65
 73
     2
 40
7.5
 49
6.0
 49
-1.5
  0
LTYPE
  2
AMCONSTR
 70
     0
  3
_______________________
 72
    65
 73
     2
 40
9999.0
 49
9999.0
 49
0.0
  0
LTYPE
  2
ACISOWELD
 70
     0
  3
_ _ _ _ _
 72
    65
 73
     2
 40
2.0
 49
2.0
 49
-1.0
  0
LTYPE
  2
ACISOTGB
 70
     0
  3
__ . . __ . .
 72
    65
 73
     6
 40
9.0
 49
4.0
 49
-1.0
 49
1.0
 49
-1.0
 49
1.0
 49
-1.0
  0
LTYPE
  2
ACISOTGL
 70
     0
  3
_ _ _ _ _
 72
    65
 73
     2
 40
3.0
 49
2.0
 49
-1.0
  0
LTYPE
  2
ACJISTGB
 70
     0
  3
__ . . __ . .
 72
    65
 73
     6
 40
9.0
 49
4.0
 49
-1.0
 49
1.0
 49
-1.0
 49
1.0
 49
-1.0
  0
LTYPE
  2
ACJISTGL
 70
     0
  3
_ _ _ _ _
 72
    65
 73
     2
 40
3.0
 49
2.0
 49
-1.0
  0
LTYPE
  2
HIDDEN
 70
     0
  3
Hidden __ __ __ __ __ __ __ __ __ __ __ __ __ _
 72
    65
 73
     2
 40
9.5249999999999986
 49
6.3499999999999988
 49
-3.1749999999999989
  0
ENDTAB
  0
TABLE
  2
LAYER
 70
    14
  0
LAYER
  2
0
 70
     0
 62
     7
  6
CONTINUOUS
  0
LAYER
  2
DEFPOINTS
 70
     0
 62
     7
  6
CONTINUOUS
  0
LAYER
  2
245
 70
     0
 62
     2
  6
CENTER2
  0
LAYER
  2
240
 70
     0
 62
     4
  6
CONTINUOUS
  0
LAYER
  2
241
 70
     0
 62
   211
  6
CONTINUOUS
  0
LAYER
  2
246
 70
     0
 62
     3
  6
PHANTOM2
  0
LAYER
  2
247
 70
     0
 62
    60
  6
CONTINUOUS
  0
LAYER
  2
250
 70
     0
 62
     3
  6
CONTINUOUS
  0
ENDTAB
  0
TABLE
  2
STYLE
 70
     6
  0
STYLE
  2
STANDARD
 70
     0
 40
0.0
 41
1.0
 50
0.0
 71
     0
 42
3.0
  3
romans.shx
  4
extfont.shx
  0
STYLE
  2
ACISOTS
 70
     0
 40
1.0
 41
1.0
 50
0.0
 71
     0
 42
3.0
  3
amgdt.shx
  4
extfont.shx
  0
STYLE
  2
ACISOGDT
 70
     0
 40
0.0
 41
1.0
 50
0.0
 71
     0
 42
3.0
  3
amgdt.shx
  4
extfont.shx
  0
STYLE
  2
ACJISTS
 70
     0
 40
1.0
 41
1.0
 50
0.0
 71
     0
 42
3.0
  3
amgdt.shx
  4
extfont.shx
  0
STYLE
  2
ACJISGDT
 70
     0
 40
0.0
 41
1.0
 50
0.0
 71
     0
 42
3.0
  3
amgdt.shx
  4
extfont.shx
  0
STYLE
  2
YOKO
 70
     0
 40
0.0
 41
1.0
 50
0.0
 71
     0
 42
3.0
  3
romans.shx
  4
extfont.shx
  0
ENDTAB
  0
TABLE
  2
VIEW
 70
     0
  0
ENDTAB
  0
TABLE
  2
UCS
 70
     0
  0
ENDTAB
  0
TABLE
  2
APPID
 70
    31
  0
APPID
  2
ACAD
 70
     0
  0
APPID
  2
GLOBAL
 70
     0
  0
APPID
  2
DETAIL
 70
     0
  0
APPID
  2
GRPNAME
 70
     0
  0
APPID
  2
GPARA
 70
     0
  0
APPID
  2
MCAD_NO_VIS
 70
     0
  0
APPID
  2
ACAD_TEMP_GRAPHIC
 70
     0
  0
APPID
  2
ACATTRIBSERVICES
 70
     0
  0
APPID
  2
GENIUS_GENSCREG_15
 70
     0
  0
APPID
  2
GENIUS_GENODEF_13
 70
     0
  0
APPID
  2
GENIUS_GENOBJ-N-SDF_13
 70
     0
  0
APPID
  2
GENIUS_GENREC_14
 70
     0
  0
APPID
  2
GENIUS_GENOBJ-N-REC_13
 70
     0
  0
APPID
  2
GENIUS_GENDIMSH_14
 70
     0
  0
APPID
  2
GENIUS_GENOBJ-N-DIM_13
 70
     0
  0
APPID
  2
GENIUS_GENDIM_13
 70
     0
  0
APPID
  2
GENIUS_GENDTOL_13
 70
     0
  0
APPID
  2
GENIUS_GENOLIS_13
 70
     0
  0
APPID
  2
GENIUS_GENOENT_13
 70
     0
  0
APPID
  2
GENIUS_GENOBJ-F-FEM_13
 70
     0
  0
APPID
  2
GENIUS_GENOREF_13
 70
     0
  0
APPID
  2
GENIUS_GEFFEM_13
 70
     0
  0
APPID
  2
GENIUS_GEFFEMP_13
 70
     0
  0
APPID
  2
AD_DRAW
 70
     0
  0
APPID
  2
DESIGNERASSEMBLIES
 70
     0
  0
APPID
  2
ACADM_DIM_EDIT
 70
     0
  0
APPID
  2
AMDT_DM_ADJ
 70
     0
  0
APPID
  2
GENIUS_GENOBJ-N-FIL_13
 70
     0
  0
APPID
  2
HATCH_TYPE
 70
     0
  0
APPID
  2
HATCH_DISPLAY
 70
     0
  0
APPID
  2
HATCH_DISTANCE
 70
     0
  0
ENDTAB
  0
TABLE
  2
DIMSTYLE
 70
    25
  0
DIMSTYLE
  2
BIGT
 70
     0
  3

  4

  5
OPEN
  6

  7

 40
1.0
 41
2.2299999999999991
 42
0.5
 43
7.0
 44
1.0
 45
0.0
 46
0.0
 47
0.0
 48
0.01
140
2.7999999999999989
141
0.0
142
0.0
143
25.399999999999999
144
1.0
145
0.0
146
1.0
147
1.0
 71
     0
 72
     0
 73
     0
 74
     0
 75
     0
 76
     0
 77
     3
 78
     9
170
     0
171
     2
172
     1
173
     0
174
     1
175
     0
176
   256
177
   256
178
    40
  0
DIMSTYLE
  2
AM_ISO
 70
     0
  3

  4
"
  5

  6

  7

 40
1.0
 41
2.5
 42
1.0
 43
10.0
 44
1.0
 45
0.0
 46
0.0
 47
0.1
 48
0.1
140
3.5
141
0.0
142
0.0
143
0.0393701
144
1.0
145
0.0
146
0.71
147
1.5
 71
     0
 72
     0
 73
     0
 74
     0
 75
     0
 76
     0
 77
     1
 78
     8
170
     0
171
     2
172
     1
173
     0
174
     0
175
     0
176
   256
177
   256
178
     2
  0
DIMSTYLE
  2
AM_ISO$3
 70
     0
  3

  4
"
  5

  6

  7

 40
1.0
 41
2.5
 42
1.0
 43
10.0
 44
1.0
 45
0.0
 46
0.0
 47
0.1
 48
0.1
140
3.5
141
0.0
142
0.0
143
0.0393701
144
1.0
145
0.0
146
0.71
147
1.5
 71
     0
 72
     0
 73
     0
 74
     1
 75
     0
 76
     0
 77
     1
 78
     8
170
     0
171
     2
172
     0
173
     0
174
     0
175
     0
176
   256
177
   256
178
     2
  0
DIMSTYLE
  2
AM_ISO$4
 70
     0
  3

  4
"
  5

  6

  7

 40
1.0
 41
2.5
 42
1.0
 43
10.0
 44
1.0
 45
0.0
 46
0.0
 47
0.1
 48
0.1
140
3.5
141
0.0
142
0.0
143
0.0393701
144
1.0
145
0.0
146
0.71
147
1.5
 71
     0
 72
     0
 73
     0
 74
     1
 75
     0
 76
     0
 77
     1
 78
     8
170
     0
171
     2
172
     0
173
     0
174
     0
175
     0
176
   256
177
   256
178
     2
  0
DIMSTYLE
  2
AM_ISO$6
 70
     0
  3

  4
"
  5

  6

  7

 40
1.0
 41
2.5
 42
1.0
 43
10.0
 44
1.0
 45
0.0
 46
0.0
 47
0.1
 48
0.1
140
3.5
141
0.0
142
0.0
143
0.0393701
144
1.0
145
0.0
146
0.71
147
1.5
 71
     0
 72
     0
 73
     0
 74
     0
 75
     0
 76
     0
 77
     0
 78
     8
170
     0
171
     2
172
     1
173
     0
174
     0
175
     0
176
   256
177
   256
178
     2
  0
DIMSTYLE
  2
AM_ISO$7
 70
     0
  3

  4
"
  5

  6

  7

 40
1.0
 41
2.5
 42
1.0
 43
10.0
 44
1.0
 45
0.0
 46
0.0
 47
0.1
 48
0.1
140
5.0
141
0.0
142
0.0
143
0.0393701
144
1.0
145
0.0
146
0.71
147
1.5
 71
     0
 72
     0
 73
     0
 74
     0
 75
     0
 76
     0
 77
     1
 78
     8
170
     0
171
     2
172
     1
173
     0
174
     0
175
     0
176
   256
177
   256
178
     2
  0
DIMSTYLE
  2
AM_ISO$SF
 70
     0
  3

  4
"
  5

  6

  7

 40
1.0
 41
2.5
 42
1.0
 43
10.0
 44
1.0
 45
0.0
 46
0.0
 47
0.1
 48
0.1
140
3.5
141
0.0
142
0.0
143
0.0393701
144
1.0
145
0.0
146
0.71
147
1.5
 71
     0
 72
     0
 73
     0
 74
     0
 75
     1
 76
     1
 77
     1
 78
     8
170
     0
171
     2
172
     1
173
     0
174
     0
175
     0
176
   256
177
   256
178
     2
  0
DIMSTYLE
  2
AM_ISO$SH
 70
     0
  3

  4
"
  5

  6
GENAXEH
  7

 40
1.0
 41
2.5
 42
1.0
 43
10.0
 44
1.0
 45
0.0
 46
0.0
 47
0.1
 48
0.1
140
3.5
141
0.0
142
0.0
143
0.0393701
144
2.0
145
0.0
146
0.71
147
1.5
 71
     0
 72
     0
 73
     0
 74
     0
 75
     1
 76
     1
 77
     1
 78
     8
170
     0
171
     2
172
     1
173
     1
174
     0
175
     0
176
   256
177
   256
178
     2
  0
DIMSTYLE
  2
BIGT$2
 70
     0
  3

  4

  5
OPEN
  6

  7

 40
1.0
 41
2.2299999999999991
 42
0.5
 43
7.0
 44
1.0
 45
0.0
 46
0.0
 47
0.0
 48
0.01
140
2.7999999999999989
141
0.0
142
0.0
143
25.399999999999999
144
1.0
145
0.0
146
1.0
147
1.0
 71
     0
 72
     0
 73
     0
 74
     0
 75
     0
 76
     0
 77
     3
 78
     9
170
     0
171
     2
172
     1
173
     0
174
     0
175
     0
176
   256
177
   256
178
    40
  0
DIMSTYLE
  2
BIGT$3
 70
     0
  3

  4

  5
OPEN
  6

  7

 40
1.0
 41
2.2299999999999991
 42
0.5
 43
2.5
 44
1.0
 45
0.0
 46
0.0
 47
0.0
 48
0.01
140
2.7999999999999989
141
0.0
142
0.0
143
25.399999999999999
144
1.0
145
0.0
146
1.0
147
1.0
 71
     0
 72
     0
 73
     0
 74
     0
 75
     0
 76
     0
 77
     3
 78
     9
170
     0
171
     2
172
     1
173
     0
174
     0
175
     0
176
   256
177
   256
178
    40
  0
DIMSTYLE
  2
BIGT$7
 70
     0
  3

  4

  5
OPEN
  6

  7

 40
0.0
 41
2.2299999999999991
 42
0.5
 43
7.0
 44
1.0
 45
0.0
 46
0.0
 47
0.0
 48
0.01
140
2.7999999999999989
141
0.0
142
0.0
143
25.399999999999999
144
1.0
145
0.0
146
1.0
147
1.0
 71
     0
 72
     0
 73
     0
 74
     0
 75
     0
 76
     0
 77
     3
 78
     9
170
     0
171
     2
172
     0
173
     0
174
     0
175
     0
176
   256
177
   256
178
    40
  0
DIMSTYLE
  2
BIGT$6
 70
     0
  3

  4

  5
OPEN
  6

  7

 40
1.0
 41
2.2299999999999991
 42
0.5
 43
2.5
 44
1.0
 45
0.0
 46
0.0
 47
0.0
 48
0.01
140
2.7999999999999989
141
0.0
142
0.0
143
25.399999999999999
144
1.0
145
0.0
146
1.0
147
1.0
 71
     0
 72
     0
 73
     0
 74
     0
 75
     0
 76
     0
 77
     3
 78
     9
170
     0
171
     2
172
     1
173
     0
174
     0
175
     0
176
   256
177
   256
178
    40
  0
DIMSTYLE
  2
BIGT$0
 70
     0
  3

  4

  5
OPEN
  6

  7

 40
1.0
 41
2.2299999999999991
 42
0.5
 43
7.0
 44
1.0
 45
0.0
 46
0.0
 47
0.0
 48
0.01
140
2.7999999999999989
141
0.0
142
0.0
143
25.399999999999999
144
1.0
145
0.0
146
1.0
147
1.0
 71
     0
 72
     0
 73
     0
 74
     0
 75
     0
 76
     0
 77
     3
 78
     9
170
     0
171
     2
172
     1
173
     0
174
     0
175
     0
176
   256
177
   256
178
    40
  0
DIMSTYLE
  2
BIGT$4
 70
     0
  3

  4

  5
OPEN
  6

  7

 40
1.0
 41
2.2299999999999991
 42
0.5
 43
2.5
 44
1.0
 45
0.0
 46
0.0
 47
0.0
 48
0.01
140
2.7999999999999989
141
0.0
142
0.0
143
25.399999999999999
144
1.0
145
0.0
146
1.0
147
1.0
 71
     0
 72
     0
 73
     0
 74
     0
 75
     0
 76
     0
 77
     3
 78
     9
170
     0
171
     2
172
     1
173
     0
174
     0
175
     0
176
   256
177
   256
178
    40
  0
DIMSTYLE
  2
BIGT$SH
 70
     0
  3

  4

  5
OPEN
  6

  7

 40
1.0
 41
2.2299999999999991
 42
0.5
 43
7.0
 44
1.0
 45
0.0
 46
0.0
 47
0.0
 48
0.0
140
2.7999999999999989
141
0.0
142
0.0
143
25.399999999999999
144
1.0
145
0.0
146
1.0
147
1.0
 71
     0
 72
     0
 73
     0
 74
     0
 75
     0
 76
     0
 77
     3
 78
     9
170
     0
171
     2
172
     1
173
     0
174
     0
175
     0
176
   256
177
   256
178
    40
  0
DIMSTYLE
  2
BIGT$SF
 70
     0
  3

  4

  5
OPEN
  6

  7

 40
1.0
 41
2.2299999999999991
 42
0.5
 43
7.0
 44
1.0
 45
0.0
 46
0.0
 47
0.0
 48
0.0
140
2.7999999999999989
141
0.0
142
0.0
143
25.399999999999999
144
1.0
145
0.0
146
1.0
147
1.0
 71
     0
 72
     0
 73
     0
 74
     0
 75
     0
 76
     0
 77
     3
 78
     9
170
     0
171
     2
172
     1
173
     0
174
     0
175
     0
176
   256
177
   256
178
    40
  0
DIMSTYLE
  2
TECHNICAL_OSAKA
 70
     0
  3

  4
"
  5
OPEN30
  6

  7

 40
1.0
 41
2.5
 42
1.0
 43
10.0
 44
1.0
 45
0.0
 46
0.0
 47
0.1
 48
0.1
140
2.7999999999999989
141
0.0
142
0.0
143
0.0393701
144
1.0
145
0.0
146
0.71
147
1.5
 71
     0
 72
     0
 73
     0
 74
     0
 75
     0
 76
     0
 77
     3
 78
     8
170
     0
171
     2
172
     1
173
     0
174
     0
175
     0
176
   256
177
   256
178
    40
  0
DIMSTYLE
  2
TECHNICAL_OSAKA$3
 70
     0
  3

  4
"
  5
OPEN30
  6

  7

 40
1.0
 41
2.5
 42
1.0
 43
10.0
 44
1.0
 45
0.0
 46
0.0
 47
0.1
 48
0.1
140
2.7999999999999989
141
0.0
142
0.0
143
0.0393701
144
1.0
145
0.0
146
0.71
147
1.5
 71
     0
 72
     0
 73
     0
 74
     1
 75
     0
 76
     0
 77
     3
 78
     8
170
     0
171
     2
172
     0
173
     0
174
     0
175
     0
176
   256
177
   256
178
    40
  0
DIMSTYLE
  2
TECHNICAL_OSAKA$4
 70
     0
  3

  4
"
  5
OPEN30
  6

  7

 40
1.0
 41
2.5
 42
1.0
 43
10.0
 44
1.0
 45
0.0
 46
0.0
 47
0.1
 48
0.1
140
2.7999999999999989
141
0.0
142
0.0
143
0.0393701
144
1.0
145
0.0
146
0.71
147
1.5
 71
     0
 72
     0
 73
     0
 74
     1
 75
     0
 76
     0
 77
     3
 78
     8
170
     0
171
     2
172
     0
173
     0
174
     0
175
     0
176
   256
177
   256
178
    40
  0
DIMSTYLE
  2
TECHNICAL_OSAKA$6
 70
     0
  3

  4
"
  5
OPEN30
  6

  7

 40
1.0
 41
2.5
 42
1.0
 43
10.0
 44
1.0
 45
0.0
 46
0.0
 47
0.1
 48
0.1
140
2.7999999999999989
141
0.0
142
0.0
143
0.0393701
144
1.0
145
0.0
146
0.71
147
1.5
 71
     0
 72
     0
 73
     0
 74
     0
 75
     0
 76
     0
 77
     0
 78
     8
170
     0
171
     2
172
     1
173
     0
174
     0
175
     0
176
   256
177
   256
178
    40
  0
DIMSTYLE
  2
TECHNICAL_OSAKA$7
 70
     0
  3

  4
"
  5
OPEN30
  6

  7

 40
1.0
 41
2.5
 42
1.0
 43
10.0
 44
1.0
 45
0.0
 46
0.0
 47
0.1
 48
0.1
140
2.7999999999999989
141
0.0
142
0.0
143
0.0393701
144
1.0
145
0.0
146
0.71
147
1.5
 71
     0
 72
     0
 73
     0
 74
     0
 75
     0
 76
     0
 77
     3
 78
     8
170
     0
171
     2
172
     1
173
     0
174
     0
175
     0
176
   256
177
   256
178
    40
  0
DIMSTYLE
  2
TECHNICAL_OSAKA$SF
 70
     0
  3

  4
"
  5
OPEN30
  6
OPEN30
  7
OPEN30
 40
1.0
 41
2.5
 42
1.0
 43
10.0
 44
1.0
 45
0.0
 46
0.0
 47
0.1
 48
0.1
140
3.5
141
0.0
142
0.0
143
0.0393701
144
1.0
145
0.0
146
0.71
147
1.5
 71
     0
 72
     0
 73
     0
 74
     0
 75
     1
 76
     1
 77
     3
 78
     8
170
     0
171
     2
172
     1
173
     0
174
     0
175
     0
176
   256
177
   256
178
    40
  0
DIMSTYLE
  2
TECHNICAL_OSAKA$SH
 70
     0
  3

  4
"
  5
OPEN30
  6
GENAXEH
  7
OPEN30
 40
1.0
 41
2.5
 42
1.0
 43
10.0
 44
1.0
 45
0.0
 46
0.0
 47
0.1
 48
0.1
140
3.5
141
0.0
142
0.0
143
0.0393701
144
2.0
145
0.0
146
0.71
147
1.5
 71
     0
 72
     0
 73
     0
 74
     0
 75
     1
 76
     1
 77
     3
 78
     8
170
     0
171
     2
172
     1
173
     1
174
     0
175
     0
176
   256
177
   256
178
    40
  0
ENDTAB
  0
ENDSEC
  0
SECTION
  2
BLOCKS
  0
BLOCK
  8
0
  2
$MODEL_SPACE
 70
     0
 10
0.0
 20
0.0
 30
0.0
  3
$MODEL_SPACE
  1

  0
ENDBLK
  5
1C
  8
0
  0
BLOCK
 67
     1
  8
0
  2
$PAPER_SPACE
 70
     0
 10
0.0
 20
0.0
 30
0.0
  3
$PAPER_SPACE
  1

  0
ENDBLK
  5
19
 67
     1
  8
0
  0
BLOCK
  8
0
  2
_OPEN
 70
     0
 10
0.0
 20
0.0
 30
0.0
  3
_OPEN
  1

  0
LINE
  5
595
  8
0
  6
BYBLOCK
 62
     0
 10
-1.0
 20
0.1666666666666666
 30
0.0
 11
0.0
 21
0.0
 31
0.0
  0
LINE
  5
596
  8
0
  6
BYBLOCK
 62
     0
 10
-1.0
 20
-0.1666666666666666
 30
0.0
 11
0.0
 21
0.0
 31
0.0
  0
LINE
  5
597
  8
0
  6
BYBLOCK
 62
     0
 10
0.0
 20
0.0
 30
0.0
 11
-1.0
 21
0.0
 31
0.0
  0
ENDBLK
  5
599
  8
0
  0
BLOCK
  8
0
  2
GENAXEH
 70
     0
 10
0.0
 20
0.0
 30
0.0
  3
GENAXEH
  1

  0
LINE
  5
6E8
  8
0
 10
-1.0
 20
0.0
 30
0.0
 11
1.0
 21
0.0
 31
0.0
  0
ENDBLK
  5
6EA
  8
0
  0
BLOCK
  8
0
  2
_OPEN30
 70
     0
 10
0.0
 20
0.0
 30
0.0
  3
_OPEN30
  1

  0
LINE
  5
E8F
  8
0
  6
BYBLOCK
 62
     0
 10
-1.0
 20
0.26794919
 30
0.0
 11
0.0
 21
0.0
 31
0.0
  0
LINE
  5
E90
  8
0
  6
BYBLOCK
 62
     0
 10
0.0
 20
0.0
 30
0.0
 11
-1.0
 21
-0.26794919
 31
0.0
  0
LINE
  5
E91
  8
0
  6
BYBLOCK
 62
     0
 10
0.0
 20
0.0
 30
0.0
 11
-1.0
 21
0.0
 31
0.0
  0
ENDBLK
  5
E93
  8
0
  0
BLOCK
  8
0
  2
*X27
 70
     1
 10
0.0
 20
0.0
 30
0.0
  3
*X27
  1

  0
LINE
  5
16C5
  8
0
 62
     0
 10
4.2731626460786938
 20
-5.8571670211471281
 30
0.0
 11
3.510115154589633
 21
-5.094119529658065
 31
0.0
  0
LINE
  5
16C6
  8
0
 62
     0
 10
3.4940719416106631
 20
-5.3367076929658772
 30
0.0
 11
3.1883917659253989
 21
-5.03102751728062
 31
0.0
  0
LINE
  5
16C7
  8
0
 62
     0
 10
4.3362546584561459
 20
-6.1788904098113671
 30
0.0
 11
4.030574482770878
 21
-5.8732102341260983
 31
0.0
  0
LINE
  5
16C8
  8
0
 62
     0
 10
3.161466872339401
 20
-5.2627339999814282
 30
0.0
 11
2.940339387738502
 21
-5.0416065153805283
 31
0.0
  0
LINE
  5
16C9
  8
0
 62
     0
 10
4.3383903626899851
 20
-6.4396574903320083
 30
0.0
 11
4.1045481757553324
 21
-6.2058153033973573
 31
0.0
  0
LINE
  5
16CA
  8
0
 62
     0
 10
2.9211994892945912
 20
-5.281097993223403
 30
0.0
 11
2.7312050109658852
 21
-5.091103514894697
 31
0.0
  0
LINE
  5
16CB
  8
0
 62
     0
 10
4.338390362689978
 20
-6.6982888666187872
 30
0.0
 11
4.105585681181485
 21
-6.4654841851102951
 31
0.0
  0
LINE
  5
16CC
  8
0
 62
     0
 10
2.7241461983551192
 20
-5.342676078570725
 30
0.0
 11
2.549611000613679
 21
-5.1681408808292844
 31
0.0
  0
LINE
  5
16CD
  8
0
 62
     0
 10
4.338390362689978
 20
-6.9569202429055821
 30
0.0
 11
4.105585681181485
 21
-6.7241155613970891
 31
0.0
  0
LINE
  5
16CE
  8
0
 62
     0
 10
2.5574155323842751
 20
-5.4345767888866652
 30
0.0
 11
2.3904879894348241
 21
-5.2676492459372142
 31
0.0
  0
LINE
  5
16CF
  8
0
 62
     0
 10
4.3383903626899851
 20
-7.2155516191923734
 30
0.0
 11
4.105585681181485
 21
-6.9827469376838751
 31
0.0
  0
LINE
  5
16D0
  8
0
 62
     0
 10
2.4161255819181502
 20
-5.5519182147073352
 30
0.0
 11
2.251507783582793
 21
-5.3873004163719713
 31
0.0
  0
LINE
  5
16D1
  8
0
 62
     0
 10
4.3383903626899851
 20
-7.4741829954791603
 30
0.0
 11
4.105585681181493
 21
-7.2413783139706691
 31
0.0
  0
LINE
  5
16D2
  8
0
 62
     0
 10
2.2989457159389901
 20
-5.6933697250149731
 30
0.0
 11
2.1319866093836382
 21
-5.526410618459618
 31
0.0
  0
LINE
  5
16D3
  8
0
 62
     0
 10
4.3383903626899851
 20
-7.7328143717659659
 30
0.0
 11
4.105585681181477
 21
-7.5000096902574631
 31
0.0
  0
LINE
  5
16D4
  8
0
 62
     0
 10
2.2072252078153949
 20
-5.8602805931781683
 30
0.0
 11
2.03261766024983
 21
-5.6856730456126012
 31
0.0
  0
LINE
  5
16D5
  8
0
 62
     0
 10
4.338390362689978
 20
-7.9914457480527474
 30
0.0
 11
4.105585681181485
 21
-7.7586410665442571
 31
0.0
  0
LINE
  5
16D6
  8
0
 62
     0
 10
2.1458777492053511
 20
-6.0575645108549061
 30
0.0
 11
1.955742399326019
 21
-5.8674291609755747
 31
0.0
  0
LINE
  5
16D7
  8
0
 62
     0
 10
4.338390362689978
 20
-8.2500771243395317
 30
0.0
 11
4.105585681181485
 21
-8.0172724428310431
 31
0.0
  0
LINE
  5
16D8
  8
0
 62
     0
 10
2.127884606905837
 20
-6.298202744842186
 30
0.0
 11
1.906455657393491
 21
-6.0767737953298466
 31
0.0
  0
LINE
  5
16D9
  8
0
 62
     0
 10
4.3383903626899851
 20
-8.5087085006263319
 30
0.0
 11
4.105585681181485
 21
-8.2759038191178362
 31
0.0
  0
LINE
  5
16DA
  8
0
 62
     0
 10
2.0859571237484991
 20
-6.514906637971646
 30
0.0
 11
1.896203437136684
 21
-6.325152951359831
 31
0.0
  0
LINE
  5
16DB
  8
0
 62
     0
 10
4.338390362689978
 20
-8.7673398769131232
 30
0.0
 11
4.105585681181485
 21
-8.5345351954046365
 31
0.0
  0
LINE
  5
16DC
  8
0
 62
     0
 10
4.338390362689978
 20
-9.0259712531999199
 30
0.0
 11
4.105585681181485
 21
-8.7931665716914225
 31
0.0
  0
LINE
  5
16DD
  8
0
 62
     0
 10
4.338390362689978
 20
-9.2846026294867023
 30
0.0
 11
4.105585681181485
 21
-9.0517979479782156
 31
0.0
  0
LINE
  5
16DE
  8
0
 62
     0
 10
4.338390362689978
 20
-9.5432340057735008
 30
0.0
 11
4.105585681181485
 21
-9.3104293242649998
 31
0.0
  0
LINE
  5
16DF
  8
0
 62
     0
 10
4.3383903626899851
 20
-9.8018653820602886
 30
0.0
 11
4.105585681181485
 21
-9.5690607005517911
 31
0.0
  0
LINE
  5
16E0
  8
0
 62
     0
 10
4.3383903626899851
 20
-10.06049675834708
 30
0.0
 11
4.105585681181493
 21
-9.8276920768385878
 31
0.0
  0
LINE
  5
16E1
  8
0
 62
     0
 10
4.338390362689978
 20
-10.31912813463388
 30
0.0
 11
4.105585681181485
 21
-10.086323453125379
 31
0.0
  0
LINE
  5
16E2
  8
0
 62
     0
 10
4.338390362689978
 20
-10.577759510920661
 30
0.0
 11
4.105585681181485
 21
-10.34495482941217
 31
0.0
  0
LINE
  5
16E3
  8
0
 62
     0
 10
4.338390362689978
 20
-10.836390887207459
 30
0.0
 11
4.105585681181485
 21
-10.60358620569896
 31
0.0
  0
LINE
  5
16E4
  8
0
 62
     0
 10
4.3331743680063184
 20
-11.08980626881058
 30
0.0
 11
4.105585681181485
 21
-10.862217581985741
 31
0.0
  0
LINE
  5
16E5
  8
0
 62
     0
 10
4.2927234683474307
 20
-11.30798674543848
 30
0.0
 11
4.0963826280125382
 21
-11.11164590510359
 31
0.0
  0
LINE
  5
16E6
  8
0
 62
     0
 10
4.2225300722551111
 20
-11.496424725632959
 30
0.0
 11
4.0447379717610348
 21
-11.31863262513888
 31
0.0
  0
LINE
  5
16E7
  8
0
 62
     0
 10
4.1288343457024572
 20
-11.661360375367099
 30
0.0
 11
3.960418835935497
 21
-11.492944865600141
 31
0.0
  0
LINE
  5
16E8
  8
0
 62
     0
 10
4.0145495478446014
 20
-11.80570695379603
 30
0.0
 11
3.849766277175481
 21
-11.640923683126911
 31
0.0
  0
LINE
  5
16E9
  8
0
 62
     0
 10
3.8807570971702989
 20
-11.93054587940852
 30
0.0
 11
3.7149104705198961
 21
-11.76469925275811
 31
0.0
  0
LINE
  5
16EA
  8
0
 62
     0
 10
3.7271431977453031
 20
-12.03556335627032
 30
0.0
 11
3.555244829520197
 21
-11.86366498804521
 31
0.0
  0
LINE
  5
16EB
  8
0
 62
     0
 10
2.1267631408982761
 20
-10.69381467571009
 30
0.0
 11
1.9433546960822801
 21
-10.51040623089408
 31
0.0
  0
LINE
  5
16EC
  8
0
 62
     0
 10
3.551878254361716
 20
-12.11892978917353
 30
0.0
 11
3.367040741413724
 21
-11.93409227622552
 31
0.0
  0
LINE
  5
16ED
  8
0
 62
     0
 10
2.1267631408982761
 20
-10.95244605199688
 30
0.0
 11
1.8939584533982809
 21
-10.719641364496891
 31
0.0
  0
LINE
  5
16EE
  8
0
 62
     0
 10
3.3508120748548631
 20
-12.17649498595347
 30
0.0
 11
3.140443698089034
 21
-11.96612660918764
 31
0.0
  0
LINE
  5
16EF
  8
0
 62
     0
 10
2.1649602340683498
 20
-11.24927452145374
 30
0.0
 11
1.893959103096269
 21
-10.978273390481659
 31
0.0
  0
LINE
  5
16F0
  8
0
 62
     0
 10
3.1149140586925621
 20
-12.19922834607795
 30
0.0
 11
2.8439129277204782
 21
-11.928227215105871
 31
0.0
  0
LINE
  5
16F1
  8
0
 62
     0
 10
2.8198068968923571
 20
-12.162752560564529
 30
0.0
 11
1.930434888609696
 21
-11.27338055228187
 31
0.0
  0
ENDBLK
  5
16F2
  8
0
  0
BLOCK
  8
0
  2
*X28
 70
     1
 10
0.0
 20
0.0
 30
0.0
  3
*X28
  1

  0
LINE
  5
16F5
  8
0
 62
     0
 10
3.9891833374314549
 20
-8.6767642279413888
 30
0.0
 11
3.9699999022341181
 21
-8.6575807927440565
 31
0.0
  0
LINE
  5
16F6
  8
0
 62
     0
 10
3.9891833374314549
 20
-8.9353956042281784
 30
0.0
 11
3.6073930521298831
 21
-8.5536053189266141
 31
0.0
  0
LINE
  5
16F7
  8
0
 62
     0
 10
3.9748178468112911
 20
-9.179661489894805
 30
0.0
 11
3.2447862020256362
 21
-8.4496298451091505
 31
0.0
  0
LINE
  5
16F8
  8
0
 62
     0
 10
3.6122095777595682
 20
-9.0756845971298823
 30
0.0
 11
2.8821793519213932
 21
-8.3456543712917011
 31
0.0
  0
LINE
  5
16F9
  8
0
 62
     0
 10
3.249601308707851
 20
-8.9717077043649454
 30
0.0
 11
2.5195725018171511
 21
-8.2416788974742428
 31
0.0
  0
LINE
  5
16FA
  8
0
 62
     0
 10
2.8869930396561161
 20
-8.8677308116000084
 30
0.0
 11
2.1569656517128988
 21
-8.1377034236567951
 31
0.0
  0
LINE
  5
16FB
  8
0
 62
     0
 10
2.52438477060439
 20
-8.7637539188350768
 30
0.0
 11
1.8939584533982809
 21
-8.1333276016289702
 31
0.0
  0
LINE
  5
16FC
  8
0
 62
     0
 10
2.1617765015526582
 20
-8.659777026070131
 30
0.0
 11
1.8939584533982901
 21
-8.3919589779157633
 31
0.0
  0
LINE
  5
16FD
  8
0
 62
     0
 10
1.918015068738405
 20
-8.674646969542664
 30
0.0
 11
1.8939584533982809
 21
-8.6505903542025422
 31
0.0
  0
ENDBLK
  5
16FE
  8
0
  0
BLOCK
  8
0
  2
*X29
 70
     1
 10
0.0
 20
0.0
 30
0.0
  3
*X29
  1

  0
LINE
  5
1701
  8
0
 62
     0
 10
3.868211204180473
 20
-7.0040038369696571
 30
0.0
 11
3.649960323505288
 21
-6.7857529562944654
 31
0.0
  0
LINE
  5
1702
  8
0
 62
     0
 10
3.985652949158299
 20
-7.380076958234282
 30
0.0
 11
3.2873524678243831
 21
-6.6817764769003674
 31
0.0
  0
LINE
  5
1703
  8
0
 62
     0
 10
3.617185728354428
 20
-7.2702411137172023
 30
0.0
 11
2.924744612143483
 21
-6.5777999975062533
 31
0.0
  0
LINE
  5
1704
  8
0
 62
     0
 10
3.9698966386926511
 20
-7.6229520240554223
 30
0.0
 11
3.6965801245195551
 21
-7.3496355098823223
 31
0.0
  0
LINE
  5
1705
  8
0
 62
     0
 10
3.2412377906756031
 20
-7.1529245523251603
 30
0.0
 11
2.8018861877732841
 21
-6.7135729494228391
 31
0.0
  0
LINE
  5
1706
  8
0
 62
     0
 10
3.8992580266775039
 20
-7.8109447883270624
 30
0.0
 11
3.6959786603753511
 21
-7.6076654220249154
 31
0.0
  0
LINE
  5
1707
  8
0
 62
     0
 10
3.034690875273276
 20
-7.2050090132096241
 30
0.0
 11
2.8018861877732761
 21
-6.9722043257096251
 31
0.0
  0
LINE
  5
1708
  8
0
 62
     0
 10
3.792131315773708
 20
-7.9624494537100619
 30
0.0
 11
3.5455738235496872
 21
-7.7158919614860322
 31
0.0
  0
LINE
  5
1709
  8
0
 62
     0
 10
2.202988506504409
 20
-6.6319380207275582
 30
0.0
 11
2.1787499076577741
 21
-6.6076994218809224
 31
0.0
  0
LINE
  5
170A
  8
0
 62
     0
 10
3.6531656331833751
 20
-8.082115147406526
 30
0.0
 11
3.2290805876554312
 21
-7.6580301018785768
 31
0.0
  0
LINE
  5
170B
  8
0
 62
     0
 10
2.2677871082174681
 20
-6.9553679987274011
 30
0.0
 11
1.982121972154764
 21
-6.669702862664697
 31
0.0
  0
LINE
  5
170C
  8
0
 62
     0
 10
3.4804499382598562
 20
-8.168030828769794
 30
0.0
 11
2.8664723785437469
 21
-7.5540532690536821
 31
0.0
  0
LINE
  5
170D
  8
0
 62
     0
 10
2.1576583608831101
 20
-7.1038706276798393
 30
0.0
 11
1.983335797400418
 21
-6.9295480641971459
 31
0.0
  0
LINE
  5
170E
  8
0
 62
     0
 10
3.262962952369413
 20
-8.2091752191661413
 30
0.0
 11
2.503864169432068
 21
-7.4500764362287972
 31
0.0
  0
LINE
  5
170F
  8
0
 62
     0
 10
2.9676848492862362
 20
-8.1725284923697501
 30
0.0
 11
1.91295532882317
 21
-7.1177989719066872
 31
0.0
  0
LINE
  5
1710
  8
0
 62
     0
 10
2.623189712588176
 20
-8.0866647319584857
 30
0.0
 11
1.897669979788303
 21
-7.3611449991586113
 31
0.0
  0
ENDBLK
  5
1711
  8
0
  0
BLOCK
  8
0
  2
A$C4C2E4BDB
 70
     0
 10
0.0
 20
0.0
 30
0.0
  3
A$C4C2E4BDB
  1

  0
TEXT
  5
1713
  8
247
 10
-98.90782338835615
 20
-5.275357941314696
 30
0.0
 40
2.0
  1
ST16-CM16-45B-37
 41
0.7
  7
YOKO
 11
-98.90782338835615
 21
-5.275357941314696
 31
0.0
 73
     1
  0
INSERT
  5
1714
  8
247
  6
CONTINUOUS
  2
*X27
 10
-94.907823388355979
 20
-1.2337563025489571
 30
0.0
 50
270.0
1001
ACAD
1000
HATCH
1002
{
1070
    19
1000
ANSI31
1040
0.0576
1040
6.2831853071795836
1002
}
  0
INSERT
  5
1715
  8
247
  6
CONTINUOUS
  2
*X28
 10
-94.907823388355979
 20
-1.2337563025489571
 30
0.0
 50
270.0
1001
ACAD
1000
HATCH
1002
{
1070
    19
1000
ANSI31
1040
0.0576
1040
6.2831853071795836
1002
}
  0
INSERT
  5
1716
  8
247
  6
CONTINUOUS
  2
*X29
 10
-94.907823388355979
 20
-1.2337563025489571
 30
0.0
 50
270.0
1001
ACAD
1000
HATCH
1002
{
1070
    19
1000
ANSI31
1040
0.0576
1040
6.2831853071795836
1002
}
  0
LINE
  5
1717
  8
247
 10
-103.5755719153819
 20
-3.12771475594724
 30
0.0
 11
-102.9701109778819
 21
-3.12771475594724
 31
0.0
  0
POLYLINE
  5
1718
  8
247
 66
     1
 10
0.0
 20
0.0
 30
0.0
 70
     1
1001
HATCH_DISTANCE
1040
1.0
1001
HATCH_DISPLAY
1070
     0
1001
HATCH_TYPE
1070
     7
  0
VERTEX
  5
1719
  8
247
 10
-103.5755719153819
 20
-3.12771475594724
 30
0.0
  0
VERTEX
  5
171A
  8
247
 10
-103.64900453256941
 20
-3.3837928809472282
 30
0.0
  0
VERTEX
  5
171B
  8
247
 10
-103.5642340247569
 20
-3.3837928809472282
 30
0.0
  0
VERTEX
  5
171C
  8
247
 10
-104.0916041419444
 20
-5.2229396399804111
 30
0.0
  0
VERTEX
  5
171D
  8
247
 10
-103.57090492319441
 20
-5.2229396399804111
 30
0.0
  0
VERTEX
  5
171E
  8
247
 10
-102.9701109778819
 20
-3.12771475594724
 30
0.0
  0
SEQEND
  5
171F
  8
247
  0
POLYLINE
  5
1720
  8
247
 66
     1
 10
0.0
 20
0.0
 30
0.0
 70
     1
  0
VERTEX
  5
1721
  8
247
 10
-103.5755719153819
 20
-3.12771475594724
 30
0.0
  0
VERTEX
  5
1722
  8
247
 10
-103.64900453256941
 20
-3.3837928809472282
 30
0.0
  0
VERTEX
  5
1723
  8
247
 10
-103.5642340247569
 20
-3.3837928809472282
 30
0.0
  0
VERTEX
  5
1724
  8
247
 10
-104.0916041419444
 20
-5.2229396399804111
 30
0.0
  0
VERTEX
  5
1725
  8
247
 10
-103.57090492319441
 20
-5.2229396399804111
 30
0.0
  0
VERTEX
  5
1726
  8
247
 10
-102.9701109778819
 20
-3.12771475594724
 30
0.0
  0
SEQEND
  5
1727
  8
247
  0
LINE
  5
1728
  8
247
 10
-103.57090492319441
 20
-5.2229396399804111
 30
0.0
 11
-102.9701109778819
 21
-3.12771475594724
 31
0.0
  0
LINE
  5
1729
  8
247
 10
-105.88483656381941
 20
-5.5721466652389351
 30
0.0
 11
-101.1589312903819
 21
-5.5721466652389351
 31
0.0
  0
LINE
  5
172A
  8
247
 10
-105.88483656381941
 20
-5.3393419837304359
 30
0.0
 11
-101.1589312903819
 21
-5.3393419837304359
 31
0.0
  0
ARC
  5
172B
  8
247
 10
-102.3609937903819
 20
-4.4663329200097364
 30
0.0
 40
0.756615234375
 50
163.99975070172931
 51
304.96387329163002
  0
ARC
  5
172C
  8
247
 10
-105.88483656381941
 20
-4.34993057625974
 30
0.0
 40
0.9894111328124999
 50
90.0
 51
270.0
  0
ARC
  5
172D
  8
247
 10
-105.88483656381941
 20
-4.34993057625974
 30
0.0
 40
1.2222158203124971
 50
90.0
 51
270.0
  0
LINE
  5
172E
  8
247
 10
-104.0916041419444
 20
-5.2229396399804111
 30
0.0
 11
-103.57090492319441
 21
-5.2229396399804111
 31
0.0
  0
LINE
  5
172F
  8
247
 10
-104.57547723727519
 20
-5.1793037558110786
 30
0.0
 11
-104.2582163139556
 21
-4.8620428324915128
 31
0.0
  0
LINE
  5
1730
  8
247
 10
-105.6536386265916
 20
-5.2229396399804111
 30
0.0
 11
-104.9915977382586
 21
-4.5608987516474446
 31
0.0
  0
LINE
  5
1731
  8
247
 10
-105.3950072503049
 20
-5.2229396399804111
 30
0.0
 11
-105.0955685382114
 21
-4.9235009278870061
 31
0.0
  0
LINE
  5
1732
  8
247
 10
-104.8777444977313
 20
-5.2229396399804413
 30
0.0
 11
-104.21958484279961
 21
-4.564779985048717
 31
0.0
  0
LINE
  5
1733
  8
247
 10
-104.91615940106659
 20
-4.2978046401262038
 30
0.0
 11
-105.10694336385571
 21
-4.9631710711854016
 31
0.0
  0
ARC
  5
1734
  8
247
 10
-105.05630922006939
 20
-4.6176542090722164
 30
0.0
 40
0.3492072715759277
 50
261.66285421114719
 51
66.338192159113646
  0
LINE
  5
1735
  8
247
 10
-105.1363758740181
 20
-5.2229396399804111
 30
0.0
 11
-104.2821625442074
 21
-4.3687263101697642
 31
0.0
  0
LINE
  5
1736
  8
247
 10
-105.76267738413191
 20
-5.2229396399804111
 30
0.0
 11
-104.79658363413191
 21
-5.2229396399804111
 31
0.0
  0
LINE
  5
1737
  8
247
 10
-105.702537481916
 20
-5.0132071190179781
 30
0.0
 11
-104.7175164478636
 21
-4.0281860849655411
 31
0.0
  0
LINE
  5
1738
  8
247
 10
-105.59856132446799
 20
-4.6505995852832891
 30
0.0
 11
-104.7836448155965
 21
-3.8356830764116712
 31
0.0
  0
ARC
  5
1739
  8
247
 10
-104.79658363413191
 20
-4.6409364356347593
 30
0.0
 40
0.5820029296875
 50
270.0
 51
40.329840654167079
  0
LINE
  5
173A
  8
247
 10
-104.7151558345813
 20
-4.5430882242568513
 30
0.0
 11
-103.9517794434659
 21
-3.7797118331415072
 31
0.0
  0
LINE
  5
173B
  8
247
 10
-103.64900453256941
 20
-3.3837928809472282
 30
0.0
 11
-103.5755719153819
 21
-3.12771475594724
 31
0.0
  0
LINE
  5
173C
  8
247
 10
-103.64900453256941
 20
-3.3837928809472282
 30
0.0
 11
-103.5642340247569
 21
-3.3837928809472282
 31
0.0
  0
LINE
  5
173D
  8
247
 10
-104.5997537903372
 20
-3.393160674865614
 30
0.0
 11
-104.359655885978
 21
-3.1530627705064389
 31
0.0
  0
LINE
  5
173E
  8
247
 10
-105.34300668777919
 20
-3.36051944344729
 30
0.0
 11
-105.1102020002792
 21
-3.127714755947296
 31
0.0
  0
LINE
  5
173F
  8
247
 10
-105.4040660560069
 20
-3.12771475594724
 30
0.0
 11
-105.47081898569429
 21
-3.3605194434472332
 31
0.0
  0
LINE
  5
1740
  8
247
 10
-105.2829791419442
 20
-3.12771475594724
 30
0.0
 11
-105.3497320716322
 21
-3.3605194434472332
 31
0.0
  0
LINE
  5
1741
  8
247
 10
-105.2829791419442
 20
-3.12771475594724
 30
0.0
 11
-104.5319620202665
 21
-3.1277147559473248
 31
0.0
  0
LINE
  5
1742
  8
247
 10
-105.88483656381941
 20
-3.12771475594724
 30
0.0
 11
-105.4040660560069
 21
-3.12771475594724
 31
0.0
  0
LINE
  5
1743
  8
247
 10
-104.4773858265753
 20
-3.5294240873905678
 30
0.0
 11
-104.1870955864143
 21
-3.2391338472294269
 31
0.0
  0
LINE
  5
1744
  8
247
 10
-105.3497320716322
 20
-3.3605194434472332
 30
0.0
 11
-105.2286363685072
 21
-3.3605194434479722
 31
0.0
  0
LINE
  5
1745
  8
247
 10
-105.88483656381941
 20
-3.3605194434472332
 30
0.0
 11
-105.47081898569429
 21
-3.3605194434472332
 31
0.0
  0
LINE
  5
1746
  8
247
 10
-105.2866328521243
 20
-3.5627769840791088
 30
0.0
 11
-104.8515706239925
 21
-3.127714755947296
 31
0.0
  0
LINE
  5
1747
  8
247
 10
-104.4475468754261
 20
-3.7582165125281239
 30
0.0
 11
-104.0579707057755
 21
-3.3686403428774012
 31
0.0
  0
ARC
  5
1748
  8
247
 10
-104.5295631263194
 20
-3.7097176856347311
 30
0.0
 40
0.5820078735351563
 50
287.66957754739968
 51
90.236159842671583
  0
LINE
  5
1749
  8
247
 10
-105.3906090095722
 20
-3.9253845178138551
 30
0.0
 11
-104.5929392477057
 21
-3.1277147559473248
 31
0.0
  0
LINE
  5
174A
  8
247
 10
-104.8054364232418
 20
-4.3747374366306833
 30
0.0
 11
-103.9723497998053
 21
-3.5416508131940541
 31
0.0
  0
LINE
  5
174B
  8
247
 10
-104.0916041419444
 20
-5.2229396399804111
 30
0.0
 11
-103.5642340247569
 21
-3.3837928809472282
 31
0.0
  0
LINE
  5
174C
  8
247
 10
-104.6491416718207
 20
-3.366604369392947
 30
0.0
 11
-104.8399224960241
 21
-4.0319510656044901
 31
0.0
  0
ARC
  5
174D
  8
247
 10
-104.78928871225691
 20
-3.6864442481347641
 30
0.0
 40
0.349197280883789
 50
261.6626016879294
 51
66.338155095189776
  0
LINE
  5
174E
  8
247
 10
-105.4945851670202
 20
-4.2879920515485441
 30
0.0
 11
-104.6796720901156
 21
-3.47307897464407
 31
0.0
  0
LINE
  5
174F
  8
247
 10
-105.76267738413191
 20
-5.2229396399804111
 30
0.0
 11
-105.2286363685072
 21
-3.3605194434479722
 31
0.0
  0
ARC
  5
1750
  8
247
 10
-101.1589312903819
 20
-4.34993057625974
 30
0.0
 40
1.2222158203124971
 50
270.0
 51
104.7707939660941
  0
ARC
  5
1751
  8
247
 10
-101.1589312903819
 20
-4.34993057625974
 30
0.0
 40
0.9894111328124999
 50
270.0
 51
104.1274364964102
  0
LINE
  5
1752
  8
247
 10
-102.1510142981944
 20
-4.7897879981347291
 30
0.0
 11
-102.00152113413191
 21
-4.2684471778222273
 31
0.0
  0
LINE
  5
1753
  8
247
 10
-102.1952672278819
 20
-4.2684471778222273
 30
0.0
 11
-102.00152113413191
 21
-4.2684471778222273
 31
0.0
  0
LINE
  5
1754
  8
247
 10
-101.9274117591319
 20
-5.0863839759179559
 30
0.0
 11
-101.7908473060069
 21
-5.2229396399804111
 31
0.0
  0
LINE
  5
1755
  8
247
 10
-102.1952672278819
 20
-4.2684471778222273
 30
0.0
 11
-102.1285142981944
 21
-4.0356424903222337
 31
0.0
  0
LINE
  5
1756
  8
247
 10
-102.1285142981944
 20
-4.0356424903222337
 30
0.0
 11
-101.4503941810069
 21
-4.0356424903222337
 31
0.0
  0
LINE
  5
1757
  8
247
 10
-101.7908473060069
 20
-5.2229396399804111
 30
0.0
 11
-101.4503941810069
 21
-4.0356424903222337
 31
0.0
  0
POLYLINE
  5
1758
  8
247
 66
     1
 10
0.0
 20
0.0
 30
0.0
 70
     1
1001
HATCH_DISTANCE
1040
1.0
1001
HATCH_DISPLAY
1070
     0
1001
HATCH_TYPE
1070
     7
  0
VERTEX
  5
1759
  8
247
 10
-101.40042836069441
 20
-3.3904374121972318
 30
0.0
  0
VERTEX
  5
175A
  8
247
 10
-101.4705387122569
 20
-3.1681004981347489
 30
0.0
  0
VERTEX
  5
175B
  8
247
 10
-101.4705387122569
 20
-3.1681004981347489
 30
0.0
  0
VERTEX
  5
175C
  8
247
 10
-101.40042836069441
 20
-3.3904374121972318
 30
0.0
  0
SEQEND
  5
175D
  8
247
  0
POLYLINE
  5
175E
  8
247
 66
     1
 10
0.0
 20
0.0
 30
0.0
 70
     1
  0
VERTEX
  5
175F
  8
247
 10
-101.40042836069441
 20
-3.3904374121972318
 30
0.0
  0
VERTEX
  5
1760
  8
247
 10
-101.4705387122569
 20
-3.1681004981347489
 30
0.0
  0
VERTEX
  5
1761
  8
247
 10
-101.4705387122569
 20
-3.1681004981347489
 30
0.0
  0
VERTEX
  5
1762
  8
247
 10
-101.40042836069441
 20
-3.3904374121972318
 30
0.0
  0
SEQEND
  5
1763
  8
247
  0
LINE
  5
1764
  8
247
 10
-101.40042836069441
 20
-3.3904374121972318
 30
0.0
 11
-101.4705387122569
 21
-3.1681004981347489
 31
0.0
  0
POLYLINE
  5
1765
  8
247
 66
     1
 10
0.0
 20
0.0
 30
0.0
 70
     1
1001
HATCH_DISTANCE
1040
1.0
1001
HATCH_DISPLAY
1070
     0
1001
HATCH_TYPE
1070
     7
  0
VERTEX
  5
1766
  8
247
 10
-101.40042836069441
 20
-3.3904374121972318
 30
0.0
  0
VERTEX
  5
1767
  8
247
 10
-101.4705387122569
 20
-3.1681004981347489
 30
0.0
  0
VERTEX
  5
1768
  8
247
 10
-101.4705387122569
 20
-3.1681004981347489
 30
0.0
  0
VERTEX
  5
1769
  8
247
 10
-101.40042836069441
 20
-3.3904374121972318
 30
0.0
  0
SEQEND
  5
176A
  8
247
  0
POLYLINE
  5
176B
  8
247
 66
     1
 10
0.0
 20
0.0
 30
0.0
 70
     1
  0
VERTEX
  5
176C
  8
247
 10
-101.40042836069441
 20
-3.3904374121972318
 30
0.0
  0
VERTEX
  5
176D
  8
247
 10
-101.4705387122569
 20
-3.1681004981347489
 30
0.0
  0
VERTEX
  5
176E
  8
247
 10
-101.4705387122569
 20
-3.1681004981347489
 30
0.0
  0
VERTEX
  5
176F
  8
247
 10
-101.40042836069441
 20
-3.3904374121972318
 30
0.0
  0
SEQEND
  5
1770
  8
247
  0
LINE
  5
1771
  8
247
 10
-101.5114430091319
 20
-3.42544424813474
 30
0.0
 11
-101.5815533606944
 21
-3.2031073340722021
 31
0.0
  0
ARC
  5
1772
  8
247
 10
-101.1589312903819
 20
-4.34993057625974
 30
0.0
 40
1.222216369628905
 50
110.22964506332001
 51
118.57168892371671
  0
ARC
  5
1773
  8
247
 10
-102.0722379310069
 20
-3.6282430762597371
 30
0.0
 40
0.2444448051452637
 50
1.7101213820627339
 51
163.99839835444709
  0
ARC
  5
1774
  8
247
 10
-101.1589312903819
 20
-4.34993057625974
 30
0.0
 40
0.9894138793945311
 50
110.8721834020736
 51
132.5419489373877
  0
ARC
  5
1775
  8
247
 10
-101.1239683997569
 20
-4.5061122168847314
 30
0.0
 40
1.9799648437499999
 50
155.2051773698409
 51
172.79482596205219
  0
ARC
  5
1776
  8
247
 10
-102.3859898841319
 20
-4.7224110450097516
 30
0.0
 40
0.2444446334838867
 50
164.000273057182
 51
344.00027305718243
  0
LINE
  5
1777
  8
247
 10
-102.62096547006939
 20
-4.6550340918847457
 30
0.0
 11
-102.3072135169444
 21
-3.5608573340722409
 31
0.0
  0
ARC
  5
1778
  8
247
 10
-102.1941070716319
 20
-3.8843212012597239
 30
0.0
 40
0.7566075439453125
 50
53.444012197057482
 51
164.00018438768529
  0
ARC
  5
1779
  8
241
 10
-15.252537552504821
 20
-3.3459605237968542
 30
0.0
 40
24.479518111713151
 50
176.591088494074
 51
180.25381237093191
  0
ARC
  5
177A
  8
241
 10
-32.914422514155277
 20
-2.0647020791345851
 30
0.0
 40
6.7765617097988491
 50
162.26091606914761
 51
178.52584715176079
  0
ARC
  5
177B
  8
241
 10
-37.92752616570619
 20
-0.451752727021421
 30
0.0
 40
1.510399713018822
 50
77.883580345177407
 51
162.59675609492359
  0
LINE
  5
177C
  8
241
 10
-39.731815475576582
 20
-6.6999999999999753
 30
0.0
 11
-39.731815475576582
 21
-3.4544010452985199
 31
0.0
  0
ARC
  5
177D
  8
241
 10
27.576828070062959
 20
8.626324508505899
 30
0.0
 40
30.20216756946731
 50
190.55640042231059
 51
202.8601466227631
  0
CIRCLE
  5
177E
  8
246
 10
-3.4531358191361932
 20
5.289754149289557
 30
0.0
 40
2.500000000000004
  0
ARC
  5
177F
  8
241
 10
-6.7058270125943693
 20
5.2897541492895153
 30
0.0
 40
0.2
 50
135.00000000000011
 51
225.00000000000051
1001
GENIUS_GENODEF_13
1002
{
1000
HIER
1070
     0
1002
}
1002
{
1000
MANEDIT
1070
     0
1002
}
1002
{
1000
NOSEL
1070
     0
1002
}
1002
{
1000
BEHIND
1070
     0
1002
}
1002
{
1000
OTHER
1070
     0
1002
}
1002
{
1000
REACTOR
1002
}
1001
GENIUS_GENOBJ-N-FIL_13
1002
{
1000
OWNER
1000
GEN
1002
}
  0
ARC
  5
1780
  8
241
 10
-3.4531358191362069
 20
2.0370629558314262
 30
0.0
 40
0.2
 50
225.00000000000051
 51
315.0
1001
GENIUS_GENODEF_13
1002
{
1000
HIER
1070
     0
1002
}
1002
{
1000
MANEDIT
1070
     0
1002
}
1002
{
1000
NOSEL
1070
     0
1002
}
1002
{
1000
BEHIND
1070
     0
1002
}
1002
{
1000
OTHER
1070
     0
1002
}
1002
{
1000
REACTOR
1002
}
1001
GENIUS_GENOBJ-N-FIL_13
1002
{
1000
OWNER
1000
GEN
1002
}
  0
ARC
  5
1781
  8
241
 10
-0.2004446256780596
 20
5.2897541492895881
 30
0.0
 40
0.2
 50
315.0
 51
45.000000000000512
1001
GENIUS_GENODEF_13
1002
{
1000
HIER
1070
     0
1002
}
1002
{
1000
MANEDIT
1070
     0
1002
}
1002
{
1000
NOSEL
1070
     0
1002
}
1002
{
1000
BEHIND
1070
     0
1002
}
1002
{
1000
OTHER
1070
     0
1002
}
1002
{
1000
REACTOR
1002
}
1001
GENIUS_GENOBJ-N-FIL_13
1002
{
1000
OWNER
1000
GEN
1002
}
  0
ARC
  5
1782
  8
241
 10
-3.4531358191362069
 20
8.5424453427476763
 30
0.0
 40
0.2
 50
45.000000000000512
 51
135.0
1001
GENIUS_GENOBJ-N-FIL_13
1002
{
1000
OWNER
1000
GEN
1002
}
1001
GENIUS_GENODEF_13
1002
{
1000
HIER
1070
     0
1002
}
1002
{
1000
MANEDIT
1070
     0
1002
}
1002
{
1000
NOSEL
1070
     0
1002
}
1002
{
1000
BEHIND
1070
     0
1002
}
1002
{
1000
OTHER
1070
     0
1002
}
1002
{
1000
REACTOR
1002
}
  0
LINE
  5
1783
  8
240
 10
-40.103135819136227
 20
8.0000000000000426
 30
0.0
 11
-109.1531358191362
 21
8.0000000000000426
 31
0.0
  0
LINE
  5
1784
  8
240
 10
-109.1531358191362
 20
-8.0000000000000142
 30
0.0
 11
-40.103135819136227
 21
-8.0000000000000142
 31
0.0
  0
LINE
  5
1785
  8
240
 10
-110.1531358191362
 20
0.0000000000000417
 30
0.0
 11
-110.1531358191362
 21
7.0000000000000409
 31
0.0
  0
LINE
  5
1786
  8
240
 10
-110.1531358191362
 20
-7.0000000000000151
 30
0.0
 11
-110.1531358191362
 21
0.0000000000000417
 31
0.0
  0
ARC
  5
1787
  8
240
 10
-109.1531358191362
 20
-6.9999999999999858
 30
0.0
 40
1.0
 50
180.0
 51
270.0
  0
ARC
  5
1788
  8
240
 10
-109.1531358191362
 20
7.0000000000000702
 30
0.0
 40
1.0
 50
90.0
 51
180.0
  0
LINE
  5
1789
  8
240
 10
-5.5284238743585092
 20
6.749999999999984
 30
0.0
 11
-37.610495132016929
 21
6.749999999999984
 31
0.0
  0
LINE
  5
178A
  8
241
 10
-37.610495132016929
 20
1.025000000000019
 30
0.0
 11
-1.6531358644096761
 21
1.025000000000019
 31
0.0
  0
LINE
  5
178B
  8
240
 10
-37.731815475576582
 20
-4.7000000000000028
 30
0.0
 11
-0.2531358191362187
 21
-4.7000000000000028
 31
0.0
  0
LINE
  5
178C
  8
241
 10
-40.103135819136227
 20
0.0000000000000417
 30
0.0
 11
-40.103135819136227
 21
8.0000000000000426
 31
0.0
  0
LINE
  5
178D
  8
240
 10
-39.731815475576582
 20
-7.6286796564403554
 30
0.0
 11
-39.731815475576582
 21
-6.6999999999999753
 31
0.0
  0
LINE
  5
178E
  8
241
 10
-40.103135819136227
 20
-8.0000000000000142
 30
0.0
 11
-40.103135819136227
 21
0.0000000000000417
 31
0.0
  0
ARC
  5
178F
  8
240
 10
-37.731815475576582
 20
-6.6999999999999753
 30
0.0
 40
2.0
 50
90.0
 51
180.0
  0
LINE
  5
1790
  8
240
 10
-40.103135819136227
 20
-8.0000000000000142
 30
0.0
 11
-39.731815475576582
 21
-7.6286796564403554
 31
0.0
  0
ARC
  5
1791
  8
240
 10
-37.610495132016929
 20
9.7500000000000711
 30
0.0
 40
3.0000000000000142
 50
225.0
 51
270.0
  0
LINE
  5
1792
  8
240
 10
-39.731815475576582
 20
7.628679656440382
 30
0.0
 11
-40.103135819136227
 21
8.0000000000000426
 31
0.0
  0
LINE
  5
1793
  8
241
 10
-0.0590232694407575
 20
5.4311755055268991
 30
0.0
 11
-3.3122526138556618
 21
8.6844048499417426
 31
0.0
  0
LINE
  5
1794
  8
241
 10
-3.311714462898891
 20
1.895641599594116
 30
0.0
 11
-0.0584851184839863
 21
5.1488709440090323
 31
0.0
  0
LINE
  5
1795
  8
241
 10
-3.5945571753735228
 20
8.6838666989849855
 30
0.0
 11
-6.8472483688316848
 21
5.4311755055268236
 31
0.0
  0
LINE
  5
1796
  8
241
 10
-6.8472483688316714
 20
5.1483327930522043
 30
0.0
 11
-3.5945571753735091
 21
1.8956415995941149
 31
0.0
  0
LINE
  5
1797
  8
240
 10
-0.2531358191362045
 20
4.954220243356799
 30
0.0
 11
-0.2531358191362187
 21
-4.7000000000000028
 31
0.0
  0
LINE
  5
1798
  8
245
 10
-114.57733114767331
 20
0.0000000000000417
 30
0.0
 11
2.4431211516047142
 21
-0.0000000000000009
 31
0.0
  0
LINE
  5
1799
  8
245
 10
-41.390986081216909
 20
2.049999999999939
 30
0.0
 11
2.6367109721542761
 21
2.05000000000001
 31
0.0
  0
LINE
  5
179A
  8
241
 10
-38.853135819136192
 20
7.019460836626477
 30
0.0
 11
-38.853135819136192
 21
0.7687002605115501
 31
0.0
  0
ENDBLK
  5
179D
  8
0
  0
BLOCK
  8
0
  2
*U31
 70
     1
 10
0.0
 20
0.0
 30
0.0
  3
*U31
  1

  0
TEXT
  5
17B7
  8
250
 62
    40
 10
213.0
 20
110.77536757771639
 30
0.0
 40
3.0
  1
\U+2205
 50
90.0
  0
TEXT
  5
17B8
  8
250
 62
    40
 10
213.0
 20
113.4896532920022
 30
0.0
 40
3.0
  1
16
 50
90.0
  0
ENDBLK
  5
17BA
  8
0
  0
BLOCK
  8
0
  2
*U32
 70
     1
 10
0.0
 20
0.0
 30
0.0
  3
*U32
  1

  0
TEXT
  5
17BC
  8
250
 62
    40
 10
255.97183229866781
 20
92.997713475264106
 30
0.0
 40
3.0
  1
71.3
  0
ENDBLK
  5
17BE
  8
0
  0
BLOCK
  8
0
  2
*U33
 70
     1
 10
0.0
 20
0.0
 30
0.0
  3
*U33
  1

  0
TEXT
  5
17C0
  8
250
 62
    40
 10
273.75554306537867
 20
85.997713475264106
 30
0.0
 40
3.0
  1
110.2
  0
ENDBLK
  5
17C2
  8
0
  0
BLOCK
  8
0
  2
*U34
 70
     1
 10
0.0
 20
0.0
 30
0.0
  3
*U34
  1

  0
TEXT
  5
17C4
  8
250
 62
    40
 10
319.0642168597002
 20
92.997713475264106
 30
0.0
 40
3.0
  1
38.9
  0
ENDBLK
  5
17C6
  8
0
  0
BLOCK
  8
0
  2
*U35
 70
     1
 10
0.0
 20
0.0
 30
0.0
  3
*U35
  1

  0
TEXT
  5
17C8
  8
250
 62
    40
 10
326.71451353152429
 20
131.71309004895011
 30
0.0
 40
3.0
  1
45üï
 50
17.61462386379554
  0
ENDBLK
  5
17CA
  8
0
  0
BLOCK
  8
0
  2
*U36
 70
     1
 10
0.0
 20
0.0
 30
0.0
  3
*U36
  1

  0
TEXT
  5
17CC
  8
250
 62
    40
 10
349.0
 20
99.815367577716415
 30
0.0
 40
3.0
  1
2.05
 50
90.0
  0
ENDBLK
  5
17CE
  8
0
  0
BLOCK
  8
0
  2
*U37
 70
     1
 10
0.0
 20
0.0
 30
0.0
  3
*U37
  1

  0
TEXT
  5
17D0
  8
250
 62
    40
 10
356.00000247181163
 20
108.6325107221172
 30
0.0
 40
3.0
  1
\U+2205
 50
90.0
  0
TEXT
  5
17D1
  8
250
 62
    40
 10
356.00000247181163
 20
111.3467964364029
 30
0.0
 40
3.0
  1
17.6
 50
90.0
  0
ENDBLK
  5
17D3
  8
0
  0
BLOCK
  8
0
  2
*U38
 70
     1
 10
0.0
 20
0.0
 30
0.0
  3
*U38
  1

  0
TEXT
  5
17D5
  8
250
 62
    40
 10
314.00001170255803
 20
92.723938980561897
 30
0.0
 40
3.0
  1
\U+2205
 50
90.0
  0
TEXT
  5
17D6
  8
250
 62
    40
 10
314.00001170255803
 20
95.438224694847619
 30
0.0
 40
3.0
  1
13.5
 50
90.0
  0
ENDBLK
  5
17D8
  8
0
  0
BLOCK
  8
0
  2
*U39
 70
     1
 10
0.0
 20
0.0
 30
0.0
  3
*U39
  1

  0
TEXT
  5
17DA
  8
250
 62
    40
 10
307.0
 20
126.5910818634305
 30
0.0
 40
3.0
  1
\U+2205
 50
90.0
  0
TEXT
  5
17DB
  8
250
 62
    40
 10
307.0
 20
129.3053675777162
 30
0.0
 40
3.0
  1
13.5
 50
90.0
  0
ENDBLK
  5
17DD
  8
0
  0
BLOCK
  8
0
  2
*U40
 70
     1
 10
0.0
 20
0.0
 30
0.0
  3
*U40
  1

  0
TEXT
  5
17DF
  8
250
 62
    40
 10
81.678167701332256
 20
12.06333333333315
 30
0.0
 40
3.0
  1
\U+2205
 50
90.0
  0
TEXT
  5
17E0
  8
250
 62
    40
 10
81.578167701332262
 20
14.77761904761887
 30
0.0
 40
2.7999999999999989
  1
13.5
 50
90.0
  0
ENDBLK
  5
17E2
  8
0
  0
BLOCK
  8
0
  2
*U41
 70
     1
 10
0.0
 20
0.0
 30
0.0
  3
*U41
  1

  0
TEXT
  5
17E4
  8
250
 62
    40
 10
88.678179403890283
 20
-21.803809549535451
 30
0.0
 40
3.0
  1
\U+2205
 50
90.0
  0
TEXT
  5
17E5
  8
250
 62
    40
 10
88.578179403890289
 20
-19.089523835249739
 30
0.0
 40
2.7999999999999989
  1
13.5
 50
90.0
  0
ENDBLK
  5
17E7
  8
0
  0
BLOCK
  8
0
  2
*U42
 70
     1
 10
0.0
 20
0.0
 30
0.0
  3
*U42
  1

  0
TEXT
  5
17E9
  8
250
 62
    40
 10
130.6781701731438
 20
-5.8952378079801342
 30
0.0
 40
3.0
  1
\U+2205
 50
90.0
  0
TEXT
  5
17EA
  8
250
 62
    40
 10
130.5781701731438
 20
-3.1809520936944198
 30
0.0
 40
2.7999999999999989
  1
17.6
 50
90.0
  0
ENDBLK
  5
17EC
  8
0
  0
BLOCK
  8
0
  2
*U43
 70
     1
 10
0.0
 20
0.0
 30
0.0
  3
*U43
  1

  0
TEXT
  5
17EE
  8
250
 62
    40
 10
123.6781677013322
 20
-14.69809523809524
 30
0.0
 40
2.7999999999999989
  1
2.05
 50
90.0
  0
ENDBLK
  5
17F0
  8
0
  0
BLOCK
  8
0
  2
*U44
 70
     1
 10
0.0
 20
0.0
 30
0.0
  3
*U44
  1

  0
TEXT
  5
17F2
  8
250
 62
    40
 10
101.7022161760663
 20
16.964571128687101
 30
0.0
 40
2.7999999999999989
  1
45üï
 50
17.614623863795298
  0
ENDBLK
  5
17F4
  8
0
  0
BLOCK
  8
0
  2
*U45
 70
     1
 10
0.0
 20
0.0
 30
0.0
  3
*U45
  1

  0
TEXT
  5
17F6
  8
250
 62
    40
 10
94.070955989603874
 20
-21.849082673880869
 30
0.0
 40
2.7999999999999989
  1
38.9
  0
ENDBLK
  5
17F8
  8
0
  0
BLOCK
  8
0
  2
*U46
 70
     1
 10
0.0
 20
0.0
 30
0.0
  3
*U46
  1

  0
TEXT
  5
17FA
  8
250
 62
    40
 10
30.983333333333341
 20
-21.849082673880869
 30
0.0
 40
2.7999999999999989
  1
71.3
  0
ENDBLK
  5
17FC
  8
0
  0
BLOCK
  8
0
  2
*U47
 70
     1
 10
0.0
 20
0.0
 30
0.0
  3
*U47
  1

  0
TEXT
  5
17FE
  8
250
 62
    40
 10
48.876567909568102
 20
-28.849082673880869
 30
0.0
 40
2.7999999999999989
  1
110.2
  0
ENDBLK
  5
1800
  8
0
  0
BLOCK
  8
0
  2
*U48
 70
     1
 10
0.0
 20
0.0
 30
0.0
  3
*U48
  1

  0
TEXT
  5
1802
  8
250
 62
    40
 10
-12.32183229866774
 20
-3.8952380952380792
 30
0.0
 40
3.0
  1
\U+2205
 50
90.0
  0
TEXT
  5
1803
  8
250
 62
    40
 10
-12.42183229866774
 20
-1.180952380952365
 30
0.0
 40
2.7999999999999989
  1
16
 50
90.0
  0
ENDBLK
  5
1805
  8
0
  0
ENDSEC
  0
SECTION
  2
ENTITIES
  0
TEXT
  5
1405
  8
241
 10
-110.7185043411197
 20
21.308783549581811
 30
0.0
 40
3.0
  1
ST16-CM16-45B-37
  7
YOKO
 11
-110.7185043411197
 21
21.308783549581811
 31
0.0
 73
     1
  0
LINE
  5
1534
  8
250
 10
-110.1531358191362
 20
-7.0000000000000151
 30
0.0
 11
-110.1531358191362
 21
-30.849082673880829
 31
0.0
  0
LINE
  5
1535
  8
250
 10
0.0
 20
4.7897541492895774
 30
0.0
 11
0.0
 21
-30.849082673880829
 31
0.0
  0
LINE
  5
1536
  8
250
 10
-107.92313581913621
 20
-29.849082673880829
 30
0.0
 11
-2.2300000000000031
 21
-29.849082673880829
 31
0.0
  0
LINE
  5
153A
  8
250
 10
-38.853135819136192
 20
0.26870026051155
 30
0.0
 11
-38.853135819136192
 21
-23.849082673880829
 31
0.0
  0
LINE
  5
153B
  8
250
 10
0.0
 20
4.7897541492895774
 30
0.0
 11
0.0
 21
-23.849082673880829
 31
0.0
  0
LINE
  5
153C
  8
250
 10
-36.623135819136181
 20
-22.849082673880829
 30
0.0
 11
-2.2300000000000031
 21
-22.849082673880829
 31
0.0
  0
LINE
  5
1540
  8
250
 10
0.0
 20
5.8721522360861318
 30
0.0
 11
0.0000000000000426
 21
18.978402300574128
 31
0.0
  0
LINE
  5
1541
  8
250
 10
-3.6658060044489531
 20
9.0379582405350156
 30
0.0
 11
-9.6210716871194535
 21
14.99322392320539
 31
0.0
  0
ARC
  5
1542
  8
250
 10
0.0
 20
5.3721522360861291
 30
0.0
 40
12.606250064487989
 50
100.1486777490876
 51
124.8513222509129
  0
LINE
  5
1546
  8
250
 10
-109.6531358191362
 20
-7.9999999999999583
 30
0.0
 11
-122.4749681178039
 21
-7.9999999999999538
 31
0.0
  0
LINE
  5
1547
  8
250
 10
-109.6531358191362
 20
8.0000000000000711
 30
0.0
 11
-122.4749681178039
 21
8.0000000000000746
 31
0.0
  0
LINE
  5
1548
  8
250
 10
-121.4749681178039
 20
-5.7699999999999552
 30
0.0
 11
-121.4749681178039
 21
5.7700000000000724
 31
0.0
  0
LINE
  5
154C
  8
250
 10
2.9431211516047142
 20
-0.000000000000001
 30
0.0
 11
11.468882262690549
 21
-0.0000000000000046
 31
0.0
  0
LINE
  5
154D
  8
250
 10
3.1367109721542761
 20
2.05000000000001
 30
0.0
 11
11.468882262690549
 21
2.050000000000006
 31
0.0
  0
LINE
  5
154E
  8
250
 10
10.468882262690549
 20
4.2800000000000056
 30
0.0
 11
10.468882262690549
 21
6.510000000000006
 31
0.0
  0
LINE
  5
154F
  8
250
 10
10.468882262690549
 20
-2.2300000000000031
 30
0.0
 11
10.468882262690549
 21
-15.29809523809522
 31
0.0
  0
LINE
  5
1550
  8
250
 10
10.468882262690549
 20
2.050000000000006
 30
0.0
 11
10.468882262690549
 21
-0.0000000000000043
 31
0.0
  0
LINE
  5
1554
  8
250
 10
-2.9531358191362642
 20
8.8000000000000398
 30
0.0
 11
18.468884734502119
 21
8.8000000000000291
 31
0.0
  0
LINE
  5
1555
  8
250
 10
17.468884734502119
 20
6.5700000000000296
 30
0.0
 11
17.468884734502119
 21
-6.6095235222658282
 31
0.0
  0
TEXT
  5
1558
  8
250
 10
16.468884734502119
 20
-5.8952378079800916
 30
0.0
 40
3.0
  1
\U+2205
 50
90.0
  0
TEXT
  5
1559
  8
250
 10
16.368884734502132
 20
-3.180952093694378
 30
0.0
 40
2.7999999999999989
  1
17.6
 50
90.0
  0
LINE
  5
155A
  8
250
 10
17.097218067835449
 20
6.5700000000000314
 30
0.0
 11
17.468884734502119
 21
8.8000000000000327
 31
0.0
  0
LINE
  5
155B
  8
250
 10
17.840551401168788
 20
6.5700000000000314
 30
0.0
 11
17.468884734502119
 21
8.8000000000000327
 31
0.0
  0
LINE
  5
155C
  8
250
 10
17.468884734502119
 20
8.8000000000000327
 30
0.0
 11
17.468884734502119
 21
6.5700000000000314
 31
0.0
  0
TEXT
  5
155D
  8
250
 10
9.4688822626905562
 20
-14.698095238095201
 30
0.0
 40
2.7999999999999989
  1
2.05
 50
90.0
  0
LINE
  5
155E
  8
250
 10
10.097215596023879
 20
-2.230000000000004
 30
0.0
 11
10.468882262690549
 21
-0.0000000000000043
 31
0.0
  0
LINE
  5
155F
  8
250
 10
10.840548929357221
 20
-2.230000000000004
 30
0.0
 11
10.468882262690549
 21
-0.0000000000000043
 31
0.0
  0
LINE
  5
1560
  8
250
 10
10.468882262690549
 20
-0.0000000000000043
 30
0.0
 11
10.468882262690549
 21
-2.230000000000004
 31
0.0
  0
LINE
  5
1561
  8
250
 10
10.840548929357221
 20
4.2800000000000074
 30
0.0
 11
10.468882262690549
 21
2.050000000000006
 31
0.0
  0
LINE
  5
1562
  8
250
 10
10.097215596023879
 20
4.2800000000000074
 30
0.0
 11
10.468882262690549
 21
2.050000000000006
 31
0.0
  0
LINE
  5
1563
  8
250
 10
10.468882262690549
 20
2.050000000000006
 30
0.0
 11
10.468882262690549
 21
4.2800000000000074
 31
0.0
  0
TEXT
  5
1564
  8
250
 10
-8.4509196430698665
 20
16.964571128687151
 30
0.0
 40
2.7999999999999989
  1
45üï
 50
17.614623863795298
  0
LINE
  5
1565
  8
250
 10
-6.9652943145910911
 20
15.432292973883509
 30
0.0
 11
-8.9139649059329003
 21
14.286117142018851
 31
0.0
  0
LINE
  5
1566
  8
250
 10
-7.4423605622954048
 20
16.002338796380059
 30
0.0
 11
-8.9139649059329003
 21
14.286117142018851
 31
0.0
  0
LINE
  5
1567
  8
250
 10
-8.9139649059329003
 20
14.286117142018851
 30
0.0
 11
-7.2038274384432412
 21
15.717315885131789
 31
0.0
  0
LINE
  5
1568
  8
250
 10
-2.2541333804276462
 20
18.15137285978247
 30
0.0
 11
0.0000000000000284
 21
17.978402300574128
 31
0.0
  0
LINE
  5
1569
  8
250
 10
-2.1883868925801968
 20
17.410952814281149
 30
0.0
 11
0.0000000000000284
 21
17.978402300574128
 31
0.0
  0
LINE
  5
156A
  8
250
 10
0.0000000000000284
 20
17.978402300574128
 30
0.0
 11
-2.221260136503914
 21
17.781162837031811
 31
0.0
  0
TEXT
  5
156B
  8
250
 10
-24.01579845756309
 20
-21.849082673880829
 30
0.0
 40
2.7999999999999989
  1
38.9
  0
LINE
  5
156C
  8
250
 10
-2.2300000000000031
 20
-22.47741600721417
 30
0.0
 11
0.0
 21
-22.849082673880829
 31
0.0
  0
LINE
  5
156D
  8
250
 10
-2.2300000000000031
 20
-23.220749340547499
 30
0.0
 11
0.0
 21
-22.849082673880829
 31
0.0
  0
LINE
  5
156E
  8
250
 10
0.0
 20
-22.849082673880829
 30
0.0
 11
-2.2300000000000031
 21
-22.849082673880829
 31
0.0
  0
LINE
  5
156F
  8
250
 10
-36.623135819136181
 20
-23.220749340547499
 30
0.0
 11
-38.853135819136192
 21
-22.849082673880829
 31
0.0
  0
LINE
  5
1570
  8
250
 10
-36.623135819136181
 20
-22.47741600721417
 30
0.0
 11
-38.853135819136192
 21
-22.849082673880829
 31
0.0
  0
LINE
  5
1571
  8
250
 10
-38.853135819136192
 20
-22.849082673880829
 30
0.0
 11
-36.623135819136181
 21
-22.849082673880829
 31
0.0
  0
TEXT
  5
1572
  8
250
 10
-61.276567909568087
 20
-28.849082673880829
 30
0.0
 40
2.7999999999999989
  1
110.2
  0
LINE
  5
1573
  8
250
 10
-2.2300000000000031
 20
-29.47741600721416
 30
0.0
 11
0.0
 21
-29.849082673880829
 31
0.0
  0
LINE
  5
1574
  8
250
 10
-2.2300000000000031
 20
-30.220749340547499
 30
0.0
 11
0.0
 21
-29.849082673880829
 31
0.0
  0
LINE
  5
1575
  8
250
 10
0.0
 20
-29.849082673880829
 30
0.0
 11
-2.2300000000000031
 21
-29.849082673880829
 31
0.0
  0
LINE
  5
1576
  8
250
 10
-107.92313581913621
 20
-30.220749340547499
 30
0.0
 11
-110.1531358191362
 21
-29.849082673880829
 31
0.0
  0
LINE
  5
1577
  8
250
 10
-107.92313581913621
 20
-29.47741600721416
 30
0.0
 11
-110.1531358191362
 21
-29.849082673880829
 31
0.0
  0
LINE
  5
1578
  8
250
 10
-110.1531358191362
 20
-29.849082673880829
 30
0.0
 11
-107.92313581913621
 21
-29.849082673880829
 31
0.0
  0
TEXT
  5
1579
  8
250
 10
-122.4749681178039
 20
-3.895238095238037
 30
0.0
 40
3.0
  1
\U+2205
 50
90.0
  0
TEXT
  5
157A
  8
250
 10
-122.57496811780391
 20
-1.180952380952323
 30
0.0
 40
2.7999999999999989
  1
16
 50
90.0
  0
LINE
  5
157B
  8
250
 10
-121.8466347844706
 20
5.7700000000000706
 30
0.0
 11
-121.4749681178039
 21
8.0000000000000711
 31
0.0
  0
LINE
  5
157C
  8
250
 10
-121.1033014511373
 20
5.7700000000000706
 30
0.0
 11
-121.4749681178039
 21
8.0000000000000711
 31
0.0
  0
LINE
  5
157D
  8
250
 10
-121.4749681178039
 20
8.0000000000000711
 30
0.0
 11
-121.4749681178039
 21
5.7700000000000706
 31
0.0
  0
LINE
  5
157E
  8
250
 10
-121.1033014511373
 20
-5.7699999999999543
 30
0.0
 11
-121.4749681178039
 21
-7.9999999999999538
 31
0.0
  0
LINE
  5
157F
  8
250
 10
-121.8466347844706
 20
-5.7699999999999543
 30
0.0
 11
-121.4749681178039
 21
-7.9999999999999538
 31
0.0
  0
LINE
  5
1580
  8
250
 10
-121.4749681178039
 20
-7.9999999999999538
 30
0.0
 11
-121.4749681178039
 21
-5.7699999999999543
 31
0.0
  0
INSERT
  5
179E
  8
240
  2
A$C4C2E4BDB
 10
0.0
 20
0.0
 30
0.0
  0
VIEWPORT
  5
22
 67
     1
  8
0
 10
261.51769911504419
 20
148.5
 30
0.0
 40
523.0353982300885
 41
297.0
 68
     1
 69
     1
1001
ACAD
1000
MVIEW
1002
{
1070
    16
1010
0.0
1020
0.0
1030
0.0
1010
0.0
1020
0.0
1030
1.0
1040
0.0
1040
297.0
1040
261.51769911504419
1040
148.5
1040
50.0
1040
0.0
1040
0.0
1070
     0
1070
   100
1070
     1
1070
     1
1070
     0
1070
     0
1070
     0
1070
     0
1040
0.0
1040
0.0
1040
0.0
1040
1.0
1040
1.0
1040
10.0
1040
10.0
1070
     0
1002
{
1002
}
1002
}
1001
GENIUS_GENODEF_13
1002
{
1000
HIER
1070
     0
1002
}
1002
{
1000
MANEDIT
1070
     0
1002
}
1002
{
1000
NOSEL
1070
     0
1002
}
1002
{
1000
BEHIND
1070
     0
1002
}
1002
{
1000
OTHER
1070
     0
1002
}
1002
{
1000
REACTOR
1002
}
1001
GENIUS_GENOBJ-N-SDF_13
1002
{
1000
OWNER
1000
GEN
1002
}
1001
GENIUS_GENSCREG_15
1000
PF
1040
1.0
1000
DF
1040
1.0
1000
MIN
1011
0.0
1021
131072.00000012503
1031
133864.66080907951
1021
0.0
1031
0.0
1000
MAX
1011
523.0353982300885
1021
131072.00000012503
1031
133864.66080907951
1021
297.0
1031
0.0
1000
FLAGS
1070
     2
  0
ENDSEC
  0
EOF
