  0
SECTION
  2
HEADER
  9
$ACADVER
  1
AC1009
  9
$INSBASE
 10
0.0
 20
0.0
 30
0.0
  9
$EXTMIN
 10
-122.3919519656244
 20
-30.86425735948637
 30
-0.0015258207003583
  9
$EXTMAX
 10
18.526245484508419
 20
23.865967069130821
 30
0.0000000349246037
  9
$LIMMIN
 10
0.0
 20
0.0
  9
$LIMMAX
 10
297.0
 20
210.0
  9
$ORTHOMODE
 70
     0
  9
$REGENMODE
 70
     1
  9
$FILLMODE
 70
     1
  9
$QTEXTMODE
 70
     0
  9
$MIRRTEXT
 70
     1
  9
$DRAGMODE
 70
     2
  9
$LTSCALE
 40
10.0
  9
$OSMODE
 70
  2597
  9
$ATTMODE
 70
     1
  9
$TEXTSIZE
 40
3.0
  9
$TRACEWID
 40
1.0
  9
$TEXTSTYLE
  7
YOKO
  9
$CLAYER
  8
240
  9
$CELTYPE
  6
BYLAYER
  9
$CECOLOR
 62
   256
  9
$DIMSCALE
 40
1.0
  9
$DIMASZ
 40
2.2299999999999991
  9
$DIMEXO
 40
0.5
  9
$DIMDLI
 40
7.0
  9
$DIMRND
 40
0.0
  9
$DIMDLE
 40
0.0
  9
$DIMEXE
 40
1.0
  9
$DIMTP
 40
0.0
  9
$DIMTM
 40
0.01
  9
$DIMTXT
 40
2.7999999999999989
  9
$DIMCEN
 40
0.0
  9
$DIMTSZ
 40
0.0
  9
$DIMTOL
 70
     0
  9
$DIMLIM
 70
     0
  9
$DIMTIH
 70
     0
  9
$DIMTOH
 70
     0
  9
$DIMSE1
 70
     0
  9
$DIMSE2
 70
     0
  9
$DIMTAD
 70
     3
  9
$DIMZIN
 70
     9
  9
$DIMBLK
  1
OPEN
  9
$DIMASO
 70
     1
  9
$DIMSHO
 70
     1
  9
$DIMPOST
  1

  9
$DIMAPOST
  1

  9
$DIMALT
 70
     0
  9
$DIMALTD
 70
     2
  9
$DIMALTF
 40
25.399999999999999
  9
$DIMLFAC
 40
1.0
  9
$DIMTOFL
 70
     1
  9
$DIMTVP
 40
0.0
  9
$DIMTIX
 70
     1
  9
$DIMSOXD
 70
     0
  9
$DIMSAH
 70
     0
  9
$DIMBLK1
  1

  9
$DIMBLK2
  1

  9
$DIMSTYLE
  2
BIGT
  9
$DIMCLRD
 70
   256
  9
$DIMCLRE
 70
   256
  9
$DIMCLRT
 70
    40
  9
$DIMTFAC
 40
1.0
  9
$DIMGAP
 40
1.0
  9
$LUNITS
 70
     2
  9
$LUPREC
 70
     3
  9
$SKETCHINC
 40
1.0
  9
$FILLETRAD
 40
0.2
  9
$AUNITS
 70
     0
  9
$AUPREC
 70
     3
  9
$MENU
  1
.
  9
$ELEVATION
 40
0.0
  9
$PELEVATION
 40
0.0
  9
$THICKNESS
 40
0.0
  9
$LIMCHECK
 70
     0
  9
$BLIPMODE
 70
     0
  9
$CHAMFERA
 40
0.25
  9
$CHAMFERB
 40
0.25
  9
$SKPOLY
 70
     0
  9
$TDCREATE
 40
2454678.7023162609
  9
$TDUPDATE
 40
2454678.7098090281
  9
$TDINDWG
 40
0.0074951157
  9
$TDUSRTIMER
 40
0.0074951157
  9
$USRTIMER
 70
     1
  9
$ANGBASE
 50
0.0
  9
$ANGDIR
 70
     0
  9
$PDMODE
 70
     1
  9
$PDSIZE
 40
0.0
  9
$PLINEWID
 40
0.0
  9
$COORDS
 70
     2
  9
$SPLFRAME
 70
     0
  9
$SPLINETYPE
 70
     6
  9
$SPLINESEGS
 70
     4
  9
$ATTDIA
 70
     1
  9
$ATTREQ
 70
     1
  9
$HANDLING
 70
     1
  9
$HANDSEED
  5
1838
  9
$SURFTAB1
 70
     6
  9
$SURFTAB2
 70
     6
  9
$SURFTYPE
 70
     6
  9
$SURFU
 70
     6
  9
$SURFV
 70
     6
  9
$UCSNAME
  2

  9
$UCSORG
 10
0.0
 20
0.0
 30
0.0
  9
$UCSXDIR
 10
1.0
 20
0.0
 30
0.0
  9
$UCSYDIR
 10
0.0
 20
1.0
 30
0.0
  9
$PUCSNAME
  2

  9
$PUCSORG
 10
0.0
 20
0.0
 30
0.0
  9
$PUCSXDIR
 10
1.0
 20
0.0
 30
0.0
  9
$PUCSYDIR
 10
0.0
 20
1.0
 30
0.0
  9
$USERI1
 70
     1
  9
$USERI2
 70
     0
  9
$USERI3
 70
     0
  9
$USERI4
 70
     0
  9
$USERI5
 70
     0
  9
$USERR1
 40
0.0
  9
$USERR2
 40
0.0
  9
$USERR3
 40
0.0
  9
$USERR4
 40
0.0
  9
$USERR5
 40
0.0
  9
$WORLDVIEW
 70
     1
  9
$SHADEDGE
 70
     3
  9
$SHADEDIF
 70
    70
  9
$TILEMODE
 70
     1
  9
$MAXACTVP
 70
    16
  9
$PLIMCHECK
 70
     0
  9
$PEXTMIN
 10
1.0000000000000000E+020
 20
1.0000000000000000E+020
 30
1.0000000000000000E+020
  9
$PEXTMAX
 10
-1.0000000000000000E+020
 20
-1.0000000000000000E+020
 30
-1.0000000000000000E+020
  9
$PLIMMIN
 10
0.0
 20
0.0
  9
$PLIMMAX
 10
420.0
 20
297.0
  9
$UNITMODE
 70
     0
  9
$VISRETAIN
 70
     1
  9
$PLINEGEN
 70
     0
  9
$PSLTSCALE
 70
     1
  0
ENDSEC
  0
SECTION
  2
TABLES
  0
TABLE
  2
VPORT
 70
    48
  0
VPORT
  2
*ACTIVE
 70
     0
 10
0.0
 20
0.0
 11
1.0
 21
1.0
 12
-51.932853240557989
 22
-3.4991451451777769
 13
0.0
 23
0.0
 14
7.0
 24
7.0
 15
7.0
 25
7.0
 16
0.0
 26
0.0
 36
1.0
 17
0.0
 27
0.0
 37
0.0
 40
95.272316910328414
 41
1.4864532019704431
 42
50.0
 43
0.0
 44
0.0
 50
0.0
 51
0.0
 71
     0
 72
  2000
 73
     1
 74
     0
 75
     0
 76
     1
 77
     0
 78
     0
  0
ENDTAB
  0
TABLE
  2
LTYPE
 70
    13
  0
LTYPE
  2
CONTINUOUS
 70
     0
  3
Solid line
 72
    65
 73
     0
 40
0.0
  0
LTYPE
  2
CENTER2
 70
     0
  3
___ _ ___ _ ___ _ ___ _ ___ _ ___ _ ___ _ ___ _
 72
    65
 73
     4
 40
1.125
 49
0.75
 49
-0.125
 49
0.125
 49
-0.125
  0
LTYPE
  2
HIDDEN2
 70
     0
  3
_ _ _ _ _ _ _ _ _ _ _ _ _ _ _ _ _ _ _ _ _ _ _ _
 72
    65
 73
     2
 40
0.1875
 49
0.125
 49
-0.0625
  0
LTYPE
  2
PHANTOM2
 70
     0
  3
___ _ _ ___ _ _ ___ _ _ ___ _ _ ___ _ _ ___ _ _
 72
    65
 73
     6
 40
1.25
 49
0.625
 49
-0.125
 49
0.125
 49
-0.125
 49
0.125
 49
-0.125
  0
LTYPE
  2
CENTER
 70
     0
  3
____ _ ____ _ ____ _ ____ _ ____ _ ____ _ ____ 
 72
    65
 73
     4
 40
2.0
 49
1.25
 49
-0.25
 49
0.25
 49
-0.25
  0
LTYPE
  2
AM_ISO02W050
 70
     0
  3
__ __ __ __ __ __ __ __ __ __ __ __ __ __ __
 72
    65
 73
     2
 40
7.5
 49
6.0
 49
-1.5
  0
LTYPE
  2
AMCONSTR
 70
     0
  3
_______________________
 72
    65
 73
     2
 40
9999.0
 49
9999.0
 49
0.0
  0
LTYPE
  2
ACISOWELD
 70
     0
  3
_ _ _ _ _
 72
    65
 73
     2
 40
2.0
 49
2.0
 49
-1.0
  0
LTYPE
  2
ACISOTGB
 70
     0
  3
__ . . __ . .
 72
    65
 73
     6
 40
9.0
 49
4.0
 49
-1.0
 49
1.0
 49
-1.0
 49
1.0
 49
-1.0
  0
LTYPE
  2
ACISOTGL
 70
     0
  3
_ _ _ _ _
 72
    65
 73
     2
 40
3.0
 49
2.0
 49
-1.0
  0
LTYPE
  2
ACJISTGB
 70
     0
  3
__ . . __ . .
 72
    65
 73
     6
 40
9.0
 49
4.0
 49
-1.0
 49
1.0
 49
-1.0
 49
1.0
 49
-1.0
  0
LTYPE
  2
ACJISTGL
 70
     0
  3
_ _ _ _ _
 72
    65
 73
     2
 40
3.0
 49
2.0
 49
-1.0
  0
LTYPE
  2
HIDDEN
 70
     0
  3
Hidden __ __ __ __ __ __ __ __ __ __ __ __ __ _
 72
    65
 73
     2
 40
9.5249999999999986
 49
6.3499999999999988
 49
-3.1749999999999989
  0
ENDTAB
  0
TABLE
  2
LAYER
 70
    14
  0
LAYER
  2
0
 70
     0
 62
     7
  6
CONTINUOUS
  0
LAYER
  2
DEFPOINTS
 70
     0
 62
     7
  6
CONTINUOUS
  0
LAYER
  2
245
 70
     0
 62
     2
  6
CENTER2
  0
LAYER
  2
240
 70
     0
 62
     4
  6
CONTINUOUS
  0
LAYER
  2
241
 70
     0
 62
   211
  6
CONTINUOUS
  0
LAYER
  2
246
 70
     0
 62
     3
  6
PHANTOM2
  0
LAYER
  2
247
 70
     0
 62
    60
  6
CONTINUOUS
  0
LAYER
  2
250
 70
     0
 62
     3
  6
CONTINUOUS
  0
ENDTAB
  0
TABLE
  2
STYLE
 70
     6
  0
STYLE
  2
STANDARD
 70
     0
 40
0.0
 41
1.0
 50
0.0
 71
     0
 42
3.0
  3
romans.shx
  4
extfont.shx
  0
STYLE
  2
ACISOTS
 70
     0
 40
1.0
 41
1.0
 50
0.0
 71
     0
 42
3.0
  3
amgdt.shx
  4
extfont.shx
  0
STYLE
  2
ACISOGDT
 70
     0
 40
0.0
 41
1.0
 50
0.0
 71
     0
 42
3.0
  3
amgdt.shx
  4
extfont.shx
  0
STYLE
  2
ACJISTS
 70
     0
 40
1.0
 41
1.0
 50
0.0
 71
     0
 42
3.0
  3
amgdt.shx
  4
extfont.shx
  0
STYLE
  2
ACJISGDT
 70
     0
 40
0.0
 41
1.0
 50
0.0
 71
     0
 42
3.0
  3
amgdt.shx
  4
extfont.shx
  0
STYLE
  2
YOKO
 70
     0
 40
0.0
 41
1.0
 50
0.0
 71
     0
 42
3.0
  3
romans.shx
  4
extfont.shx
  0
ENDTAB
  0
TABLE
  2
VIEW
 70
     0
  0
ENDTAB
  0
TABLE
  2
UCS
 70
     0
  0
ENDTAB
  0
TABLE
  2
APPID
 70
    31
  0
APPID
  2
ACAD
 70
     0
  0
APPID
  2
GLOBAL
 70
     0
  0
APPID
  2
DETAIL
 70
     0
  0
APPID
  2
GRPNAME
 70
     0
  0
APPID
  2
GPARA
 70
     0
  0
APPID
  2
MCAD_NO_VIS
 70
     0
  0
APPID
  2
ACAD_TEMP_GRAPHIC
 70
     0
  0
APPID
  2
ACATTRIBSERVICES
 70
     0
  0
APPID
  2
GENIUS_GENSCREG_15
 70
     0
  0
APPID
  2
GENIUS_GENODEF_13
 70
     0
  0
APPID
  2
GENIUS_GENOBJ-N-SDF_13
 70
     0
  0
APPID
  2
GENIUS_GENREC_14
 70
     0
  0
APPID
  2
GENIUS_GENOBJ-N-REC_13
 70
     0
  0
APPID
  2
GENIUS_GENDIMSH_14
 70
     0
  0
APPID
  2
GENIUS_GENOBJ-N-DIM_13
 70
     0
  0
APPID
  2
GENIUS_GENDIM_13
 70
     0
  0
APPID
  2
GENIUS_GENDTOL_13
 70
     0
  0
APPID
  2
GENIUS_GENOLIS_13
 70
     0
  0
APPID
  2
GENIUS_GENOENT_13
 70
     0
  0
APPID
  2
GENIUS_GENOBJ-F-FEM_13
 70
     0
  0
APPID
  2
GENIUS_GENOREF_13
 70
     0
  0
APPID
  2
GENIUS_GEFFEM_13
 70
     0
  0
APPID
  2
GENIUS_GEFFEMP_13
 70
     0
  0
APPID
  2
AD_DRAW
 70
     0
  0
APPID
  2
DESIGNERASSEMBLIES
 70
     0
  0
APPID
  2
ACADM_DIM_EDIT
 70
     0
  0
APPID
  2
AMDT_DM_ADJ
 70
     0
  0
APPID
  2
GENIUS_GENOBJ-N-FIL_13
 70
     0
  0
APPID
  2
HATCH_TYPE
 70
     0
  0
APPID
  2
HATCH_DISPLAY
 70
     0
  0
APPID
  2
HATCH_DISTANCE
 70
     0
  0
ENDTAB
  0
TABLE
  2
DIMSTYLE
 70
    25
  0
DIMSTYLE
  2
BIGT
 70
     0
  3

  4

  5
OPEN
  6

  7

 40
1.0
 41
2.2299999999999991
 42
0.5
 43
7.0
 44
1.0
 45
0.0
 46
0.0
 47
0.0
 48
0.01
140
2.7999999999999989
141
0.0
142
0.0
143
25.399999999999999
144
1.0
145
0.0
146
1.0
147
1.0
 71
     0
 72
     0
 73
     0
 74
     0
 75
     0
 76
     0
 77
     3
 78
     9
170
     0
171
     2
172
     1
173
     0
174
     1
175
     0
176
   256
177
   256
178
    40
  0
DIMSTYLE
  2
AM_ISO
 70
     0
  3

  4
"
  5

  6

  7

 40
1.0
 41
2.5
 42
1.0
 43
10.0
 44
1.0
 45
0.0
 46
0.0
 47
0.1
 48
0.1
140
3.5
141
0.0
142
0.0
143
0.0393701
144
1.0
145
0.0
146
0.71
147
1.5
 71
     0
 72
     0
 73
     0
 74
     0
 75
     0
 76
     0
 77
     1
 78
     8
170
     0
171
     2
172
     1
173
     0
174
     0
175
     0
176
   256
177
   256
178
     2
  0
DIMSTYLE
  2
AM_ISO$3
 70
     0
  3

  4
"
  5

  6

  7

 40
1.0
 41
2.5
 42
1.0
 43
10.0
 44
1.0
 45
0.0
 46
0.0
 47
0.1
 48
0.1
140
3.5
141
0.0
142
0.0
143
0.0393701
144
1.0
145
0.0
146
0.71
147
1.5
 71
     0
 72
     0
 73
     0
 74
     1
 75
     0
 76
     0
 77
     1
 78
     8
170
     0
171
     2
172
     0
173
     0
174
     0
175
     0
176
   256
177
   256
178
     2
  0
DIMSTYLE
  2
AM_ISO$4
 70
     0
  3

  4
"
  5

  6

  7

 40
1.0
 41
2.5
 42
1.0
 43
10.0
 44
1.0
 45
0.0
 46
0.0
 47
0.1
 48
0.1
140
3.5
141
0.0
142
0.0
143
0.0393701
144
1.0
145
0.0
146
0.71
147
1.5
 71
     0
 72
     0
 73
     0
 74
     1
 75
     0
 76
     0
 77
     1
 78
     8
170
     0
171
     2
172
     0
173
     0
174
     0
175
     0
176
   256
177
   256
178
     2
  0
DIMSTYLE
  2
AM_ISO$6
 70
     0
  3

  4
"
  5

  6

  7

 40
1.0
 41
2.5
 42
1.0
 43
10.0
 44
1.0
 45
0.0
 46
0.0
 47
0.1
 48
0.1
140
3.5
141
0.0
142
0.0
143
0.0393701
144
1.0
145
0.0
146
0.71
147
1.5
 71
     0
 72
     0
 73
     0
 74
     0
 75
     0
 76
     0
 77
     0
 78
     8
170
     0
171
     2
172
     1
173
     0
174
     0
175
     0
176
   256
177
   256
178
     2
  0
DIMSTYLE
  2
AM_ISO$7
 70
     0
  3

  4
"
  5

  6

  7

 40
1.0
 41
2.5
 42
1.0
 43
10.0
 44
1.0
 45
0.0
 46
0.0
 47
0.1
 48
0.1
140
5.0
141
0.0
142
0.0
143
0.0393701
144
1.0
145
0.0
146
0.71
147
1.5
 71
     0
 72
     0
 73
     0
 74
     0
 75
     0
 76
     0
 77
     1
 78
     8
170
     0
171
     2
172
     1
173
     0
174
     0
175
     0
176
   256
177
   256
178
     2
  0
DIMSTYLE
  2
AM_ISO$SF
 70
     0
  3

  4
"
  5

  6

  7

 40
1.0
 41
2.5
 42
1.0
 43
10.0
 44
1.0
 45
0.0
 46
0.0
 47
0.1
 48
0.1
140
3.5
141
0.0
142
0.0
143
0.0393701
144
1.0
145
0.0
146
0.71
147
1.5
 71
     0
 72
     0
 73
     0
 74
     0
 75
     1
 76
     1
 77
     1
 78
     8
170
     0
171
     2
172
     1
173
     0
174
     0
175
     0
176
   256
177
   256
178
     2
  0
DIMSTYLE
  2
AM_ISO$SH
 70
     0
  3

  4
"
  5

  6
GENAXEH
  7

 40
1.0
 41
2.5
 42
1.0
 43
10.0
 44
1.0
 45
0.0
 46
0.0
 47
0.1
 48
0.1
140
3.5
141
0.0
142
0.0
143
0.0393701
144
2.0
145
0.0
146
0.71
147
1.5
 71
     0
 72
     0
 73
     0
 74
     0
 75
     1
 76
     1
 77
     1
 78
     8
170
     0
171
     2
172
     1
173
     1
174
     0
175
     0
176
   256
177
   256
178
     2
  0
DIMSTYLE
  2
BIGT$2
 70
     0
  3

  4

  5
OPEN
  6

  7

 40
1.0
 41
2.2299999999999991
 42
0.5
 43
7.0
 44
1.0
 45
0.0
 46
0.0
 47
0.0
 48
0.01
140
2.7999999999999989
141
0.0
142
0.0
143
25.399999999999999
144
1.0
145
0.0
146
1.0
147
1.0
 71
     0
 72
     0
 73
     0
 74
     0
 75
     0
 76
     0
 77
     3
 78
     9
170
     0
171
     2
172
     1
173
     0
174
     0
175
     0
176
   256
177
   256
178
    40
  0
DIMSTYLE
  2
BIGT$3
 70
     0
  3

  4

  5
OPEN
  6

  7

 40
1.0
 41
2.2299999999999991
 42
0.5
 43
2.5
 44
1.0
 45
0.0
 46
0.0
 47
0.0
 48
0.01
140
2.7999999999999989
141
0.0
142
0.0
143
25.399999999999999
144
1.0
145
0.0
146
1.0
147
1.0
 71
     0
 72
     0
 73
     0
 74
     0
 75
     0
 76
     0
 77
     3
 78
     9
170
     0
171
     2
172
     1
173
     0
174
     0
175
     0
176
   256
177
   256
178
    40
  0
DIMSTYLE
  2
BIGT$7
 70
     0
  3

  4

  5
OPEN
  6

  7

 40
0.0
 41
2.2299999999999991
 42
0.5
 43
7.0
 44
1.0
 45
0.0
 46
0.0
 47
0.0
 48
0.01
140
2.7999999999999989
141
0.0
142
0.0
143
25.399999999999999
144
1.0
145
0.0
146
1.0
147
1.0
 71
     0
 72
     0
 73
     0
 74
     0
 75
     0
 76
     0
 77
     3
 78
     9
170
     0
171
     2
172
     0
173
     0
174
     0
175
     0
176
   256
177
   256
178
    40
  0
DIMSTYLE
  2
BIGT$6
 70
     0
  3

  4

  5
OPEN
  6

  7

 40
1.0
 41
2.2299999999999991
 42
0.5
 43
2.5
 44
1.0
 45
0.0
 46
0.0
 47
0.0
 48
0.01
140
2.7999999999999989
141
0.0
142
0.0
143
25.399999999999999
144
1.0
145
0.0
146
1.0
147
1.0
 71
     0
 72
     0
 73
     0
 74
     0
 75
     0
 76
     0
 77
     3
 78
     9
170
     0
171
     2
172
     1
173
     0
174
     0
175
     0
176
   256
177
   256
178
    40
  0
DIMSTYLE
  2
BIGT$0
 70
     0
  3

  4

  5
OPEN
  6

  7

 40
1.0
 41
2.2299999999999991
 42
0.5
 43
7.0
 44
1.0
 45
0.0
 46
0.0
 47
0.0
 48
0.01
140
2.7999999999999989
141
0.0
142
0.0
143
25.399999999999999
144
1.0
145
0.0
146
1.0
147
1.0
 71
     0
 72
     0
 73
     0
 74
     0
 75
     0
 76
     0
 77
     3
 78
     9
170
     0
171
     2
172
     1
173
     0
174
     0
175
     0
176
   256
177
   256
178
    40
  0
DIMSTYLE
  2
BIGT$4
 70
     0
  3

  4

  5
OPEN
  6

  7

 40
1.0
 41
2.2299999999999991
 42
0.5
 43
2.5
 44
1.0
 45
0.0
 46
0.0
 47
0.0
 48
0.01
140
2.7999999999999989
141
0.0
142
0.0
143
25.399999999999999
144
1.0
145
0.0
146
1.0
147
1.0
 71
     0
 72
     0
 73
     0
 74
     0
 75
     0
 76
     0
 77
     3
 78
     9
170
     0
171
     2
172
     1
173
     0
174
     0
175
     0
176
   256
177
   256
178
    40
  0
DIMSTYLE
  2
BIGT$SH
 70
     0
  3

  4

  5
OPEN
  6

  7

 40
1.0
 41
2.2299999999999991
 42
0.5
 43
7.0
 44
1.0
 45
0.0
 46
0.0
 47
0.0
 48
0.0
140
2.7999999999999989
141
0.0
142
0.0
143
25.399999999999999
144
1.0
145
0.0
146
1.0
147
1.0
 71
     0
 72
     0
 73
     0
 74
     0
 75
     0
 76
     0
 77
     3
 78
     9
170
     0
171
     2
172
     1
173
     0
174
     0
175
     0
176
   256
177
   256
178
    40
  0
DIMSTYLE
  2
BIGT$SF
 70
     0
  3

  4

  5
OPEN
  6

  7

 40
1.0
 41
2.2299999999999991
 42
0.5
 43
7.0
 44
1.0
 45
0.0
 46
0.0
 47
0.0
 48
0.0
140
2.7999999999999989
141
0.0
142
0.0
143
25.399999999999999
144
1.0
145
0.0
146
1.0
147
1.0
 71
     0
 72
     0
 73
     0
 74
     0
 75
     0
 76
     0
 77
     3
 78
     9
170
     0
171
     2
172
     1
173
     0
174
     0
175
     0
176
   256
177
   256
178
    40
  0
DIMSTYLE
  2
TECHNICAL_OSAKA
 70
     0
  3

  4
"
  5
OPEN30
  6

  7

 40
1.0
 41
2.5
 42
1.0
 43
10.0
 44
1.0
 45
0.0
 46
0.0
 47
0.1
 48
0.1
140
2.7999999999999989
141
0.0
142
0.0
143
0.0393701
144
1.0
145
0.0
146
0.71
147
1.5
 71
     0
 72
     0
 73
     0
 74
     0
 75
     0
 76
     0
 77
     3
 78
     8
170
     0
171
     2
172
     1
173
     0
174
     0
175
     0
176
   256
177
   256
178
    40
  0
DIMSTYLE
  2
TECHNICAL_OSAKA$3
 70
     0
  3

  4
"
  5
OPEN30
  6

  7

 40
1.0
 41
2.5
 42
1.0
 43
10.0
 44
1.0
 45
0.0
 46
0.0
 47
0.1
 48
0.1
140
2.7999999999999989
141
0.0
142
0.0
143
0.0393701
144
1.0
145
0.0
146
0.71
147
1.5
 71
     0
 72
     0
 73
     0
 74
     1
 75
     0
 76
     0
 77
     3
 78
     8
170
     0
171
     2
172
     0
173
     0
174
     0
175
     0
176
   256
177
   256
178
    40
  0
DIMSTYLE
  2
TECHNICAL_OSAKA$4
 70
     0
  3

  4
"
  5
OPEN30
  6

  7

 40
1.0
 41
2.5
 42
1.0
 43
10.0
 44
1.0
 45
0.0
 46
0.0
 47
0.1
 48
0.1
140
2.7999999999999989
141
0.0
142
0.0
143
0.0393701
144
1.0
145
0.0
146
0.71
147
1.5
 71
     0
 72
     0
 73
     0
 74
     1
 75
     0
 76
     0
 77
     3
 78
     8
170
     0
171
     2
172
     0
173
     0
174
     0
175
     0
176
   256
177
   256
178
    40
  0
DIMSTYLE
  2
TECHNICAL_OSAKA$6
 70
     0
  3

  4
"
  5
OPEN30
  6

  7

 40
1.0
 41
2.5
 42
1.0
 43
10.0
 44
1.0
 45
0.0
 46
0.0
 47
0.1
 48
0.1
140
2.7999999999999989
141
0.0
142
0.0
143
0.0393701
144
1.0
145
0.0
146
0.71
147
1.5
 71
     0
 72
     0
 73
     0
 74
     0
 75
     0
 76
     0
 77
     0
 78
     8
170
     0
171
     2
172
     1
173
     0
174
     0
175
     0
176
   256
177
   256
178
    40
  0
DIMSTYLE
  2
TECHNICAL_OSAKA$7
 70
     0
  3

  4
"
  5
OPEN30
  6

  7

 40
1.0
 41
2.5
 42
1.0
 43
10.0
 44
1.0
 45
0.0
 46
0.0
 47
0.1
 48
0.1
140
2.7999999999999989
141
0.0
142
0.0
143
0.0393701
144
1.0
145
0.0
146
0.71
147
1.5
 71
     0
 72
     0
 73
     0
 74
     0
 75
     0
 76
     0
 77
     3
 78
     8
170
     0
171
     2
172
     1
173
     0
174
     0
175
     0
176
   256
177
   256
178
    40
  0
DIMSTYLE
  2
TECHNICAL_OSAKA$SF
 70
     0
  3

  4
"
  5
OPEN30
  6
OPEN30
  7
OPEN30
 40
1.0
 41
2.5
 42
1.0
 43
10.0
 44
1.0
 45
0.0
 46
0.0
 47
0.1
 48
0.1
140
3.5
141
0.0
142
0.0
143
0.0393701
144
1.0
145
0.0
146
0.71
147
1.5
 71
     0
 72
     0
 73
     0
 74
     0
 75
     1
 76
     1
 77
     3
 78
     8
170
     0
171
     2
172
     1
173
     0
174
     0
175
     0
176
   256
177
   256
178
    40
  0
DIMSTYLE
  2
TECHNICAL_OSAKA$SH
 70
     0
  3

  4
"
  5
OPEN30
  6
GENAXEH
  7
OPEN30
 40
1.0
 41
2.5
 42
1.0
 43
10.0
 44
1.0
 45
0.0
 46
0.0
 47
0.1
 48
0.1
140
3.5
141
0.0
142
0.0
143
0.0393701
144
2.0
145
0.0
146
0.71
147
1.5
 71
     0
 72
     0
 73
     0
 74
     0
 75
     1
 76
     1
 77
     3
 78
     8
170
     0
171
     2
172
     1
173
     1
174
     0
175
     0
176
   256
177
   256
178
    40
  0
ENDTAB
  0
ENDSEC
  0
SECTION
  2
BLOCKS
  0
BLOCK
  8
0
  2
$MODEL_SPACE
 70
     0
 10
0.0
 20
0.0
 30
0.0
  3
$MODEL_SPACE
  1

  0
ENDBLK
  5
1C
  8
0
  0
BLOCK
 67
     1
  8
0
  2
$PAPER_SPACE
 70
     0
 10
0.0
 20
0.0
 30
0.0
  3
$PAPER_SPACE
  1

  0
ENDBLK
  5
19
 67
     1
  8
0
  0
BLOCK
  8
0
  2
_OPEN
 70
     0
 10
0.0
 20
0.0
 30
0.0
  3
_OPEN
  1

  0
LINE
  5
595
  8
0
  6
BYBLOCK
 62
     0
 10
-1.0
 20
0.1666666666666666
 30
0.0
 11
0.0
 21
0.0
 31
0.0
  0
LINE
  5
596
  8
0
  6
BYBLOCK
 62
     0
 10
-1.0
 20
-0.1666666666666666
 30
0.0
 11
0.0
 21
0.0
 31
0.0
  0
LINE
  5
597
  8
0
  6
BYBLOCK
 62
     0
 10
0.0
 20
0.0
 30
0.0
 11
-1.0
 21
0.0
 31
0.0
  0
ENDBLK
  5
599
  8
0
  0
BLOCK
  8
0
  2
GENAXEH
 70
     0
 10
0.0
 20
0.0
 30
0.0
  3
GENAXEH
  1

  0
LINE
  5
6E8
  8
0
 10
-1.0
 20
0.0
 30
0.0
 11
1.0
 21
0.0
 31
0.0
  0
ENDBLK
  5
6EA
  8
0
  0
BLOCK
  8
0
  2
_OPEN30
 70
     0
 10
0.0
 20
0.0
 30
0.0
  3
_OPEN30
  1

  0
LINE
  5
E8F
  8
0
  6
BYBLOCK
 62
     0
 10
-1.0
 20
0.26794919
 30
0.0
 11
0.0
 21
0.0
 31
0.0
  0
LINE
  5
E90
  8
0
  6
BYBLOCK
 62
     0
 10
0.0
 20
0.0
 30
0.0
 11
-1.0
 21
-0.26794919
 31
0.0
  0
LINE
  5
E91
  8
0
  6
BYBLOCK
 62
     0
 10
0.0
 20
0.0
 30
0.0
 11
-1.0
 21
0.0
 31
0.0
  0
ENDBLK
  5
E93
  8
0
  0
BLOCK
  8
0
  2
*X27
 70
     1
 10
0.0
 20
0.0
 30
0.0
  3
*X27
  1

  0
LINE
  5
16F5
  8
0
 62
     0
 10
4.2731626460786938
 20
-5.8571670211471281
 30
0.0
 11
3.510115154589633
 21
-5.094119529658065
 31
0.0
  0
LINE
  5
16F6
  8
0
 62
     0
 10
3.4940719416106631
 20
-5.3367076929658772
 30
0.0
 11
3.1883917659253989
 21
-5.03102751728062
 31
0.0
  0
LINE
  5
16F7
  8
0
 62
     0
 10
4.3362546584561459
 20
-6.1788904098113671
 30
0.0
 11
4.030574482770878
 21
-5.8732102341260983
 31
0.0
  0
LINE
  5
16F8
  8
0
 62
     0
 10
3.161466872339401
 20
-5.2627339999814282
 30
0.0
 11
2.940339387738502
 21
-5.0416065153805283
 31
0.0
  0
LINE
  5
16F9
  8
0
 62
     0
 10
4.3383903626899851
 20
-6.4396574903320083
 30
0.0
 11
4.1045481757553324
 21
-6.2058153033973573
 31
0.0
  0
LINE
  5
16FA
  8
0
 62
     0
 10
2.9211994892945912
 20
-5.281097993223403
 30
0.0
 11
2.7312050109658852
 21
-5.091103514894697
 31
0.0
  0
LINE
  5
16FB
  8
0
 62
     0
 10
4.338390362689978
 20
-6.6982888666187872
 30
0.0
 11
4.105585681181485
 21
-6.4654841851102951
 31
0.0
  0
LINE
  5
16FC
  8
0
 62
     0
 10
2.7241461983551192
 20
-5.342676078570725
 30
0.0
 11
2.549611000613679
 21
-5.1681408808292844
 31
0.0
  0
LINE
  5
16FD
  8
0
 62
     0
 10
4.338390362689978
 20
-6.9569202429055821
 30
0.0
 11
4.105585681181485
 21
-6.7241155613970891
 31
0.0
  0
LINE
  5
16FE
  8
0
 62
     0
 10
2.5574155323842751
 20
-5.4345767888866652
 30
0.0
 11
2.3904879894348241
 21
-5.2676492459372142
 31
0.0
  0
LINE
  5
16FF
  8
0
 62
     0
 10
4.3383903626899851
 20
-7.2155516191923734
 30
0.0
 11
4.105585681181485
 21
-6.9827469376838751
 31
0.0
  0
LINE
  5
1700
  8
0
 62
     0
 10
2.4161255819181502
 20
-5.5519182147073352
 30
0.0
 11
2.251507783582793
 21
-5.3873004163719713
 31
0.0
  0
LINE
  5
1701
  8
0
 62
     0
 10
4.3383903626899851
 20
-7.4741829954791603
 30
0.0
 11
4.105585681181493
 21
-7.2413783139706691
 31
0.0
  0
LINE
  5
1702
  8
0
 62
     0
 10
2.2989457159389901
 20
-5.6933697250149731
 30
0.0
 11
2.1319866093836382
 21
-5.526410618459618
 31
0.0
  0
LINE
  5
1703
  8
0
 62
     0
 10
4.3383903626899851
 20
-7.7328143717659659
 30
0.0
 11
4.105585681181477
 21
-7.5000096902574631
 31
0.0
  0
LINE
  5
1704
  8
0
 62
     0
 10
2.2072252078153949
 20
-5.8602805931781683
 30
0.0
 11
2.03261766024983
 21
-5.6856730456126012
 31
0.0
  0
LINE
  5
1705
  8
0
 62
     0
 10
4.338390362689978
 20
-7.9914457480527474
 30
0.0
 11
4.105585681181485
 21
-7.7586410665442571
 31
0.0
  0
LINE
  5
1706
  8
0
 62
     0
 10
2.1458777492053511
 20
-6.0575645108549061
 30
0.0
 11
1.955742399326019
 21
-5.8674291609755747
 31
0.0
  0
LINE
  5
1707
  8
0
 62
     0
 10
4.338390362689978
 20
-8.2500771243395317
 30
0.0
 11
4.105585681181485
 21
-8.0172724428310431
 31
0.0
  0
LINE
  5
1708
  8
0
 62
     0
 10
2.127884606905837
 20
-6.298202744842186
 30
0.0
 11
1.906455657393491
 21
-6.0767737953298466
 31
0.0
  0
LINE
  5
1709
  8
0
 62
     0
 10
4.3383903626899851
 20
-8.5087085006263319
 30
0.0
 11
4.105585681181485
 21
-8.2759038191178362
 31
0.0
  0
LINE
  5
170A
  8
0
 62
     0
 10
2.0859571237484991
 20
-6.514906637971646
 30
0.0
 11
1.896203437136684
 21
-6.325152951359831
 31
0.0
  0
LINE
  5
170B
  8
0
 62
     0
 10
4.338390362689978
 20
-8.7673398769131232
 30
0.0
 11
4.105585681181485
 21
-8.5345351954046365
 31
0.0
  0
LINE
  5
170C
  8
0
 62
     0
 10
4.338390362689978
 20
-9.0259712531999199
 30
0.0
 11
4.105585681181485
 21
-8.7931665716914225
 31
0.0
  0
LINE
  5
170D
  8
0
 62
     0
 10
4.338390362689978
 20
-9.2846026294867023
 30
0.0
 11
4.105585681181485
 21
-9.0517979479782156
 31
0.0
  0
LINE
  5
170E
  8
0
 62
     0
 10
4.338390362689978
 20
-9.5432340057735008
 30
0.0
 11
4.105585681181485
 21
-9.3104293242649998
 31
0.0
  0
LINE
  5
170F
  8
0
 62
     0
 10
4.3383903626899851
 20
-9.8018653820602886
 30
0.0
 11
4.105585681181485
 21
-9.5690607005517911
 31
0.0
  0
LINE
  5
1710
  8
0
 62
     0
 10
4.3383903626899851
 20
-10.06049675834708
 30
0.0
 11
4.105585681181493
 21
-9.8276920768385878
 31
0.0
  0
LINE
  5
1711
  8
0
 62
     0
 10
4.338390362689978
 20
-10.31912813463388
 30
0.0
 11
4.105585681181485
 21
-10.086323453125379
 31
0.0
  0
LINE
  5
1712
  8
0
 62
     0
 10
4.338390362689978
 20
-10.577759510920661
 30
0.0
 11
4.105585681181485
 21
-10.34495482941217
 31
0.0
  0
LINE
  5
1713
  8
0
 62
     0
 10
4.338390362689978
 20
-10.836390887207459
 30
0.0
 11
4.105585681181485
 21
-10.60358620569896
 31
0.0
  0
LINE
  5
1714
  8
0
 62
     0
 10
4.3331743680063184
 20
-11.08980626881058
 30
0.0
 11
4.105585681181485
 21
-10.862217581985741
 31
0.0
  0
LINE
  5
1715
  8
0
 62
     0
 10
4.2927234683474307
 20
-11.30798674543848
 30
0.0
 11
4.0963826280125382
 21
-11.11164590510359
 31
0.0
  0
LINE
  5
1716
  8
0
 62
     0
 10
4.2225300722551111
 20
-11.496424725632959
 30
0.0
 11
4.0447379717610348
 21
-11.31863262513888
 31
0.0
  0
LINE
  5
1717
  8
0
 62
     0
 10
4.1288343457024572
 20
-11.661360375367099
 30
0.0
 11
3.960418835935497
 21
-11.492944865600141
 31
0.0
  0
LINE
  5
1718
  8
0
 62
     0
 10
4.0145495478446014
 20
-11.80570695379603
 30
0.0
 11
3.849766277175481
 21
-11.640923683126911
 31
0.0
  0
LINE
  5
1719
  8
0
 62
     0
 10
3.8807570971702989
 20
-11.93054587940852
 30
0.0
 11
3.7149104705198961
 21
-11.76469925275811
 31
0.0
  0
LINE
  5
171A
  8
0
 62
     0
 10
3.7271431977453031
 20
-12.03556335627032
 30
0.0
 11
3.555244829520197
 21
-11.86366498804521
 31
0.0
  0
LINE
  5
171B
  8
0
 62
     0
 10
2.1267631408982761
 20
-10.69381467571009
 30
0.0
 11
1.9433546960822801
 21
-10.51040623089408
 31
0.0
  0
LINE
  5
171C
  8
0
 62
     0
 10
3.551878254361716
 20
-12.11892978917353
 30
0.0
 11
3.367040741413724
 21
-11.93409227622552
 31
0.0
  0
LINE
  5
171D
  8
0
 62
     0
 10
2.1267631408982761
 20
-10.95244605199688
 30
0.0
 11
1.8939584533982809
 21
-10.719641364496891
 31
0.0
  0
LINE
  5
171E
  8
0
 62
     0
 10
3.3508120748548631
 20
-12.17649498595347
 30
0.0
 11
3.140443698089034
 21
-11.96612660918764
 31
0.0
  0
LINE
  5
171F
  8
0
 62
     0
 10
2.1649602340683498
 20
-11.24927452145374
 30
0.0
 11
1.893959103096269
 21
-10.978273390481659
 31
0.0
  0
LINE
  5
1720
  8
0
 62
     0
 10
3.1149140586925621
 20
-12.19922834607795
 30
0.0
 11
2.8439129277204782
 21
-11.928227215105871
 31
0.0
  0
LINE
  5
1721
  8
0
 62
     0
 10
2.8198068968923571
 20
-12.162752560564529
 30
0.0
 11
1.930434888609696
 21
-11.27338055228187
 31
0.0
  0
ENDBLK
  5
1722
  8
0
  0
BLOCK
  8
0
  2
*X28
 70
     1
 10
0.0
 20
0.0
 30
0.0
  3
*X28
  1

  0
LINE
  5
1725
  8
0
 62
     0
 10
3.9891833374314549
 20
-8.6767642279413888
 30
0.0
 11
3.9699999022341181
 21
-8.6575807927440565
 31
0.0
  0
LINE
  5
1726
  8
0
 62
     0
 10
3.9891833374314549
 20
-8.9353956042281784
 30
0.0
 11
3.6073930521298831
 21
-8.5536053189266141
 31
0.0
  0
LINE
  5
1727
  8
0
 62
     0
 10
3.9748178468112911
 20
-9.179661489894805
 30
0.0
 11
3.2447862020256362
 21
-8.4496298451091505
 31
0.0
  0
LINE
  5
1728
  8
0
 62
     0
 10
3.6122095777595682
 20
-9.0756845971298823
 30
0.0
 11
2.8821793519213932
 21
-8.3456543712917011
 31
0.0
  0
LINE
  5
1729
  8
0
 62
     0
 10
3.249601308707851
 20
-8.9717077043649454
 30
0.0
 11
2.5195725018171511
 21
-8.2416788974742428
 31
0.0
  0
LINE
  5
172A
  8
0
 62
     0
 10
2.8869930396561161
 20
-8.8677308116000084
 30
0.0
 11
2.1569656517128988
 21
-8.1377034236567951
 31
0.0
  0
LINE
  5
172B
  8
0
 62
     0
 10
2.52438477060439
 20
-8.7637539188350768
 30
0.0
 11
1.8939584533982809
 21
-8.1333276016289702
 31
0.0
  0
LINE
  5
172C
  8
0
 62
     0
 10
2.1617765015526582
 20
-8.659777026070131
 30
0.0
 11
1.8939584533982901
 21
-8.3919589779157633
 31
0.0
  0
LINE
  5
172D
  8
0
 62
     0
 10
1.918015068738405
 20
-8.674646969542664
 30
0.0
 11
1.8939584533982809
 21
-8.6505903542025422
 31
0.0
  0
ENDBLK
  5
172E
  8
0
  0
BLOCK
  8
0
  2
*X29
 70
     1
 10
0.0
 20
0.0
 30
0.0
  3
*X29
  1

  0
LINE
  5
1731
  8
0
 62
     0
 10
3.868211204180473
 20
-7.0040038369696571
 30
0.0
 11
3.649960323505288
 21
-6.7857529562944654
 31
0.0
  0
LINE
  5
1732
  8
0
 62
     0
 10
3.985652949158299
 20
-7.380076958234282
 30
0.0
 11
3.2873524678243831
 21
-6.6817764769003674
 31
0.0
  0
LINE
  5
1733
  8
0
 62
     0
 10
3.617185728354428
 20
-7.2702411137172023
 30
0.0
 11
2.924744612143483
 21
-6.5777999975062533
 31
0.0
  0
LINE
  5
1734
  8
0
 62
     0
 10
3.9698966386926511
 20
-7.6229520240554223
 30
0.0
 11
3.6965801245195551
 21
-7.3496355098823223
 31
0.0
  0
LINE
  5
1735
  8
0
 62
     0
 10
3.2412377906756031
 20
-7.1529245523251603
 30
0.0
 11
2.8018861877732841
 21
-6.7135729494228391
 31
0.0
  0
LINE
  5
1736
  8
0
 62
     0
 10
3.8992580266775039
 20
-7.8109447883270624
 30
0.0
 11
3.6959786603753511
 21
-7.6076654220249154
 31
0.0
  0
LINE
  5
1737
  8
0
 62
     0
 10
3.034690875273276
 20
-7.2050090132096241
 30
0.0
 11
2.8018861877732761
 21
-6.9722043257096251
 31
0.0
  0
LINE
  5
1738
  8
0
 62
     0
 10
3.792131315773708
 20
-7.9624494537100619
 30
0.0
 11
3.5455738235496872
 21
-7.7158919614860322
 31
0.0
  0
LINE
  5
1739
  8
0
 62
     0
 10
2.202988506504409
 20
-6.6319380207275582
 30
0.0
 11
2.1787499076577741
 21
-6.6076994218809224
 31
0.0
  0
LINE
  5
173A
  8
0
 62
     0
 10
3.6531656331833751
 20
-8.082115147406526
 30
0.0
 11
3.2290805876554312
 21
-7.6580301018785768
 31
0.0
  0
LINE
  5
173B
  8
0
 62
     0
 10
2.2677871082174681
 20
-6.9553679987274011
 30
0.0
 11
1.982121972154764
 21
-6.669702862664697
 31
0.0
  0
LINE
  5
173C
  8
0
 62
     0
 10
3.4804499382598562
 20
-8.168030828769794
 30
0.0
 11
2.8664723785437469
 21
-7.5540532690536821
 31
0.0
  0
LINE
  5
173D
  8
0
 62
     0
 10
2.1576583608831101
 20
-7.1038706276798393
 30
0.0
 11
1.983335797400418
 21
-6.9295480641971459
 31
0.0
  0
LINE
  5
173E
  8
0
 62
     0
 10
3.262962952369413
 20
-8.2091752191661413
 30
0.0
 11
2.503864169432068
 21
-7.4500764362287972
 31
0.0
  0
LINE
  5
173F
  8
0
 62
     0
 10
2.9676848492862362
 20
-8.1725284923697501
 30
0.0
 11
1.91295532882317
 21
-7.1177989719066872
 31
0.0
  0
LINE
  5
1740
  8
0
 62
     0
 10
2.623189712588176
 20
-8.0866647319584857
 30
0.0
 11
1.897669979788303
 21
-7.3611449991586113
 31
0.0
  0
ENDBLK
  5
1741
  8
0
  0
BLOCK
  8
0
  2
A$C1C6F1CE2
 70
     0
 10
0.0
 20
0.0
 30
0.0
  3
A$C1C6F1CE2
  1

  0
LINE
  5
1743
  8
241
 10
-35.731815475576582
 20
-5.749999999999944
 30
0.0
 11
-35.731815475576582
 21
-3.0307765030725311
 31
0.0
  0
TEXT
  5
1744
  8
247
 10
-95.907823388356093
 20
-5.1160206157621673
 30
0.0
 40
2.0
  1
ST16-CM14-45B-33
 41
0.7
  7
YOKO
 11
-95.907823388356093
 21
-5.1160206157621673
 31
0.0
 73
     1
  0
INSERT
  5
1745
  8
247
  6
CONTINUOUS
  2
*X27
 10
-91.907823388355922
 20
-1.074418976996427
 30
0.0
 50
270.0
1001
ACAD
1000
HATCH
1002
{
1070
    19
1000
ANSI31
1040
0.0576
1040
6.2831853071795836
1002
}
  0
INSERT
  5
1746
  8
247
  6
CONTINUOUS
  2
*X28
 10
-91.907823388355922
 20
-1.074418976996427
 30
0.0
 50
270.0
1001
ACAD
1000
HATCH
1002
{
1070
    19
1000
ANSI31
1040
0.0576
1040
6.2831853071795836
1002
}
  0
INSERT
  5
1747
  8
247
  6
CONTINUOUS
  2
*X29
 10
-91.907823388355922
 20
-1.074418976996427
 30
0.0
 50
270.0
1001
ACAD
1000
HATCH
1002
{
1070
    19
1000
ANSI31
1040
0.0576
1040
6.2831853071795836
1002
}
  0
LINE
  5
1748
  8
247
 10
-100.5755719153819
 20
-2.9683774303947099
 30
0.0
 11
-99.970110977881902
 21
-2.9683774303947099
 31
0.0
  0
POLYLINE
  5
1749
  8
247
 66
     1
 10
0.0
 20
0.0
 30
0.0
 70
     1
1001
HATCH_DISTANCE
1040
1.0
1001
HATCH_DISPLAY
1070
     0
1001
HATCH_TYPE
1070
     7
  0
VERTEX
  5
174A
  8
247
 10
-100.5755719153819
 20
-2.9683774303947099
 30
0.0
  0
VERTEX
  5
174B
  8
247
 10
-100.64900453256929
 20
-3.2244555553946981
 30
0.0
  0
VERTEX
  5
174C
  8
247
 10
-100.5642340247569
 20
-3.2244555553946981
 30
0.0
  0
VERTEX
  5
174D
  8
247
 10
-101.0916041419444
 20
-5.0636023144278823
 30
0.0
  0
VERTEX
  5
174E
  8
247
 10
-100.57090492319441
 20
-5.0636023144278823
 30
0.0
  0
VERTEX
  5
174F
  8
247
 10
-99.970110977881902
 20
-2.9683774303947099
 30
0.0
  0
SEQEND
  5
1750
  8
247
  0
POLYLINE
  5
1751
  8
247
 66
     1
 10
0.0
 20
0.0
 30
0.0
 70
     1
  0
VERTEX
  5
1752
  8
247
 10
-100.5755719153819
 20
-2.9683774303947099
 30
0.0
  0
VERTEX
  5
1753
  8
247
 10
-100.64900453256929
 20
-3.2244555553946981
 30
0.0
  0
VERTEX
  5
1754
  8
247
 10
-100.5642340247569
 20
-3.2244555553946981
 30
0.0
  0
VERTEX
  5
1755
  8
247
 10
-101.0916041419444
 20
-5.0636023144278823
 30
0.0
  0
VERTEX
  5
1756
  8
247
 10
-100.57090492319441
 20
-5.0636023144278823
 30
0.0
  0
VERTEX
  5
1757
  8
247
 10
-99.970110977881902
 20
-2.9683774303947099
 30
0.0
  0
SEQEND
  5
1758
  8
247
  0
LINE
  5
1759
  8
247
 10
-100.57090492319441
 20
-5.0636023144278823
 30
0.0
 11
-99.970110977881902
 21
-2.9683774303947099
 31
0.0
  0
LINE
  5
175A
  8
247
 10
-102.88483656381931
 20
-5.4128093396864054
 30
0.0
 11
-98.158931290381901
 21
-5.4128093396864054
 31
0.0
  0
LINE
  5
175B
  8
247
 10
-102.88483656381931
 20
-5.1800046581779071
 30
0.0
 11
-98.158931290381901
 21
-5.1800046581779071
 31
0.0
  0
ARC
  5
175C
  8
247
 10
-99.360993790381869
 20
-4.3069955944572058
 30
0.0
 40
0.756615234375
 50
163.99975070172931
 51
304.96387329163002
  0
ARC
  5
175D
  8
247
 10
-102.88483656381931
 20
-4.1905932507072103
 30
0.0
 40
0.9894111328124999
 50
90.0
 51
270.0
  0
ARC
  5
175E
  8
247
 10
-102.88483656381931
 20
-4.1905932507072103
 30
0.0
 40
1.2222158203124971
 50
90.0
 51
270.0
  0
LINE
  5
175F
  8
247
 10
-101.0916041419444
 20
-5.0636023144278823
 30
0.0
 11
-100.57090492319441
 21
-5.0636023144278823
 31
0.0
  0
LINE
  5
1760
  8
247
 10
-101.57547723727509
 20
-5.0199664302585489
 30
0.0
 11
-101.2582163139555
 21
-4.702705506938984
 31
0.0
  0
LINE
  5
1761
  8
247
 10
-102.6536386265916
 20
-5.0636023144278823
 30
0.0
 11
-101.9915977382586
 21
-4.401561426094915
 31
0.0
  0
LINE
  5
1762
  8
247
 10
-102.3950072503049
 20
-5.0636023144278823
 30
0.0
 11
-102.0955685382114
 21
-4.7641636023344773
 31
0.0
  0
LINE
  5
1763
  8
247
 10
-101.8777444977312
 20
-5.0636023144279108
 30
0.0
 11
-101.21958484279951
 21
-4.4054426594961882
 31
0.0
  0
LINE
  5
1764
  8
247
 10
-101.91615940106649
 20
-4.138467314573675
 30
0.0
 11
-102.10694336385571
 21
-4.8038337456328719
 31
0.0
  0
ARC
  5
1765
  8
247
 10
-102.05630922006939
 20
-4.4583168835196858
 30
0.0
 40
0.3492072715759277
 50
261.66285421114719
 51
66.338192159113646
  0
LINE
  5
1766
  8
247
 10
-102.136375874018
 20
-5.0636023144278823
 30
0.0
 11
-101.2821625442073
 21
-4.2093889846172337
 31
0.0
  0
LINE
  5
1767
  8
247
 10
-102.76267738413181
 20
-5.0636023144278823
 30
0.0
 11
-101.79658363413181
 21
-5.0636023144278823
 31
0.0
  0
LINE
  5
1768
  8
247
 10
-102.7025374819159
 20
-4.8538697934654493
 30
0.0
 11
-101.7175164478635
 21
-3.8688487594130119
 31
0.0
  0
LINE
  5
1769
  8
247
 10
-102.59856132446799
 20
-4.4912622597307594
 30
0.0
 11
-101.7836448155964
 21
-3.6763457508591411
 31
0.0
  0
ARC
  5
176A
  8
247
 10
-101.79658363413181
 20
-4.4815991100822288
 30
0.0
 40
0.5820029296875
 50
270.0
 51
40.329840654167079
  0
LINE
  5
176B
  8
247
 10
-101.7151558345812
 20
-4.3837508987043208
 30
0.0
 11
-100.9517794434659
 21
-3.6203745075889771
 31
0.0
  0
LINE
  5
176C
  8
247
 10
-100.64900453256929
 20
-3.2244555553946981
 30
0.0
 11
-100.5755719153819
 21
-2.9683774303947099
 31
0.0
  0
LINE
  5
176D
  8
247
 10
-100.64900453256929
 20
-3.2244555553946981
 30
0.0
 11
-100.5642340247569
 21
-3.2244555553946981
 31
0.0
  0
LINE
  5
176E
  8
247
 10
-101.5997537903371
 20
-3.2338233493130839
 30
0.0
 11
-101.359655885978
 21
-2.9937254449539101
 31
0.0
  0
LINE
  5
176F
  8
247
 10
-102.34300668777919
 20
-3.2011821178947599
 30
0.0
 11
-102.1102020002792
 21
-2.9683774303947672
 31
0.0
  0
LINE
  5
1770
  8
247
 10
-102.4040660560068
 20
-2.9683774303947099
 30
0.0
 11
-102.47081898569429
 21
-3.2011821178947031
 31
0.0
  0
LINE
  5
1771
  8
247
 10
-102.2829791419442
 20
-2.9683774303947099
 30
0.0
 11
-102.3497320716321
 21
-3.2011821178947031
 31
0.0
  0
LINE
  5
1772
  8
247
 10
-102.2829791419442
 20
-2.9683774303947099
 30
0.0
 11
-101.5319620202665
 21
-2.9683774303947952
 31
0.0
  0
LINE
  5
1773
  8
247
 10
-102.88483656381931
 20
-2.9683774303947099
 30
0.0
 11
-102.4040660560068
 21
-2.9683774303947099
 31
0.0
  0
LINE
  5
1774
  8
247
 10
-101.4773858265753
 20
-3.3700867618380381
 30
0.0
 11
-101.1870955864142
 21
-3.0797965216768972
 31
0.0
  0
LINE
  5
1775
  8
247
 10
-102.3497320716321
 20
-3.2011821178947031
 30
0.0
 11
-102.2286363685071
 21
-3.201182117895442
 31
0.0
  0
LINE
  5
1776
  8
247
 10
-102.88483656381931
 20
-3.2011821178947031
 30
0.0
 11
-102.47081898569429
 21
-3.2011821178947031
 31
0.0
  0
LINE
  5
1777
  8
247
 10
-102.2866328521243
 20
-3.4034396585265791
 30
0.0
 11
-101.8515706239924
 21
-2.9683774303947672
 31
0.0
  0
LINE
  5
1778
  8
247
 10
-101.4475468754261
 20
-3.5988791869755938
 30
0.0
 11
-101.0579707057754
 21
-3.2093030173248711
 31
0.0
  0
ARC
  5
1779
  8
247
 10
-101.5295631263194
 20
-3.550380360082201
 30
0.0
 40
0.5820078735351563
 50
287.66957754739968
 51
90.236159842671583
  0
LINE
  5
177A
  8
247
 10
-102.3906090095721
 20
-3.766047192261325
 30
0.0
 11
-101.5929392477056
 21
-2.9683774303947952
 31
0.0
  0
LINE
  5
177B
  8
247
 10
-101.8054364232418
 20
-4.2154001110781527
 30
0.0
 11
-100.9723497998052
 21
-3.3823134876415248
 31
0.0
  0
LINE
  5
177C
  8
247
 10
-101.0916041419444
 20
-5.0636023144278823
 30
0.0
 11
-100.5642340247569
 21
-3.2244555553946981
 31
0.0
  0
LINE
  5
177D
  8
247
 10
-101.6491416718206
 20
-3.2072670438404169
 30
0.0
 11
-101.839922496024
 21
-3.87261374005196
 31
0.0
  0
ARC
  5
177E
  8
247
 10
-101.78928871225691
 20
-3.527106922582234
 30
0.0
 40
0.349197280883789
 50
261.6626016879294
 51
66.338155095189776
  0
LINE
  5
177F
  8
247
 10
-102.49458516702011
 20
-4.1286547259960136
 30
0.0
 11
-101.6796720901155
 21
-3.3137416490915399
 31
0.0
  0
LINE
  5
1780
  8
247
 10
-102.76267738413181
 20
-5.0636023144278823
 30
0.0
 11
-102.2286363685071
 21
-3.201182117895442
 31
0.0
  0
ARC
  5
1781
  8
247
 10
-98.158931290381901
 20
-4.1905932507072103
 30
0.0
 40
1.2222158203124971
 50
270.0
 51
104.7707939660941
  0
ARC
  5
1782
  8
247
 10
-98.158931290381901
 20
-4.1905932507072103
 30
0.0
 40
0.9894111328124999
 50
270.0
 51
104.1274364964102
  0
LINE
  5
1783
  8
247
 10
-99.151014298194383
 20
-4.6304506725822003
 30
0.0
 11
-99.00152113413192
 21
-4.1091098522696967
 31
0.0
  0
LINE
  5
1784
  8
247
 10
-99.195267227881914
 20
-4.1091098522696967
 30
0.0
 11
-99.00152113413192
 21
-4.1091098522696967
 31
0.0
  0
LINE
  5
1785
  8
247
 10
-98.927411759131886
 20
-4.9270466503654271
 30
0.0
 11
-98.790847306006896
 21
-5.0636023144278823
 31
0.0
  0
LINE
  5
1786
  8
247
 10
-99.195267227881914
 20
-4.1091098522696967
 30
0.0
 11
-99.128514298194403
 21
-3.876305164769704
 31
0.0
  0
LINE
  5
1787
  8
247
 10
-99.128514298194403
 20
-3.876305164769704
 30
0.0
 11
-98.450394181006885
 21
-3.876305164769704
 31
0.0
  0
LINE
  5
1788
  8
247
 10
-98.790847306006896
 20
-5.0636023144278823
 30
0.0
 11
-98.450394181006885
 21
-3.876305164769704
 31
0.0
  0
POLYLINE
  5
1789
  8
247
 66
     1
 10
0.0
 20
0.0
 30
0.0
 70
     1
1001
HATCH_DISTANCE
1040
1.0
1001
HATCH_DISPLAY
1070
     0
1001
HATCH_TYPE
1070
     7
  0
VERTEX
  5
178A
  8
247
 10
-98.400428360694377
 20
-3.2311000866447022
 30
0.0
  0
VERTEX
  5
178B
  8
247
 10
-98.470538712256896
 20
-3.0087631725822201
 30
0.0
  0
VERTEX
  5
178C
  8
247
 10
-98.470538712256896
 20
-3.0087631725822201
 30
0.0
  0
VERTEX
  5
178D
  8
247
 10
-98.400428360694377
 20
-3.2311000866447022
 30
0.0
  0
SEQEND
  5
178E
  8
247
  0
POLYLINE
  5
178F
  8
247
 66
     1
 10
0.0
 20
0.0
 30
0.0
 70
     1
  0
VERTEX
  5
1790
  8
247
 10
-98.400428360694377
 20
-3.2311000866447022
 30
0.0
  0
VERTEX
  5
1791
  8
247
 10
-98.470538712256896
 20
-3.0087631725822201
 30
0.0
  0
VERTEX
  5
1792
  8
247
 10
-98.470538712256896
 20
-3.0087631725822201
 30
0.0
  0
VERTEX
  5
1793
  8
247
 10
-98.400428360694377
 20
-3.2311000866447022
 30
0.0
  0
SEQEND
  5
1794
  8
247
  0
LINE
  5
1795
  8
247
 10
-98.400428360694377
 20
-3.2311000866447022
 30
0.0
 11
-98.470538712256896
 21
-3.0087631725822201
 31
0.0
  0
POLYLINE
  5
1796
  8
247
 66
     1
 10
0.0
 20
0.0
 30
0.0
 70
     1
1001
HATCH_DISTANCE
1040
1.0
1001
HATCH_DISPLAY
1070
     0
1001
HATCH_TYPE
1070
     7
  0
VERTEX
  5
1797
  8
247
 10
-98.400428360694377
 20
-3.2311000866447022
 30
0.0
  0
VERTEX
  5
1798
  8
247
 10
-98.470538712256896
 20
-3.0087631725822201
 30
0.0
  0
VERTEX
  5
1799
  8
247
 10
-98.470538712256896
 20
-3.0087631725822201
 30
0.0
  0
VERTEX
  5
179A
  8
247
 10
-98.400428360694377
 20
-3.2311000866447022
 30
0.0
  0
SEQEND
  5
179B
  8
247
  0
POLYLINE
  5
179C
  8
247
 66
     1
 10
0.0
 20
0.0
 30
0.0
 70
     1
  0
VERTEX
  5
179D
  8
247
 10
-98.400428360694377
 20
-3.2311000866447022
 30
0.0
  0
VERTEX
  5
179E
  8
247
 10
-98.470538712256896
 20
-3.0087631725822201
 30
0.0
  0
VERTEX
  5
179F
  8
247
 10
-98.470538712256896
 20
-3.0087631725822201
 30
0.0
  0
VERTEX
  5
17A0
  8
247
 10
-98.400428360694377
 20
-3.2311000866447022
 30
0.0
  0
SEQEND
  5
17A1
  8
247
  0
LINE
  5
17A2
  8
247
 10
-98.511443009131867
 20
-3.2661069225822099
 30
0.0
 11
-98.581553360694386
 21
-3.0437700085196719
 31
0.0
  0
ARC
  5
17A3
  8
247
 10
-98.158931290381901
 20
-4.1905932507072103
 30
0.0
 40
1.222216369628905
 50
110.22964506332001
 51
118.57168892371671
  0
ARC
  5
17A4
  8
247
 10
-99.072237931006896
 20
-3.4689057507072079
 30
0.0
 40
0.2444448051452637
 50
1.7101213820627339
 51
163.99839835444709
  0
ARC
  5
17A5
  8
247
 10
-98.158931290381901
 20
-4.1905932507072103
 30
0.0
 40
0.9894138793945311
 50
110.8721834020736
 51
132.5419489373877
  0
ARC
  5
17A6
  8
247
 10
-98.123968399756905
 20
-4.3467748913322009
 30
0.0
 40
1.9799648437499999
 50
155.2051773698409
 51
172.79482596205219
  0
ARC
  5
17A7
  8
247
 10
-99.385989884131902
 20
-4.563073719457222
 30
0.0
 40
0.2444446334838867
 50
164.000273057182
 51
344.00027305718243
  0
LINE
  5
17A8
  8
247
 10
-99.620965470069379
 20
-4.495696766332216
 30
0.0
 11
-99.307213516944387
 21
-3.4015200085197121
 31
0.0
  0
ARC
  5
17A9
  8
247
 10
-99.19410707163189
 20
-3.7249838757071951
 30
0.0
 40
0.7566075439453125
 50
53.444012197057482
 51
164.00018438768529
  0
LINE
  5
17AA
  8
240
 10
-0.2531358191362187
 20
3.899836306664358
 30
0.0
 11
-0.0584851184839863
 21
4.0944870073165864
 31
0.0
  0
LINE
  5
17AB
  8
241
 10
-5.4740399366046537
 20
5.7500000000000258
 30
0.0
 11
-6.8472483687750829
 21
4.3767915689468948
 31
0.0
  0
ARC
  5
17AC
  8
241
 10
-13.77887549510382
 20
-2.9625577065018551
 30
0.0
 40
21.953045975227329
 50
177.36767409934919
 51
180.1780461545986
  0
ARC
  5
17AD
  8
241
 10
-28.928859026875202
 20
-2.0097627894298071
 30
0.0
 40
6.7801245834523112
 50
162.75730905711319
 51
179.53154953661939
  0
ARC
  5
17AE
  8
241
 10
-33.954714287519387
 20
-0.4913619787688803
 30
0.0
 40
1.530570932277125
 50
77.003242131431932
 51
161.274663274293
  0
ARC
  5
17AF
  8
241
 10
136.9690080093896
 20
56.532020590282478
 30
0.0
 40
149.42779736847899
 50
201.40382444475509
 51
203.31867866961861
  0
ARC
  5
17B0
  8
241
 10
-6.7058270125940851
 20
4.235370212653276
 30
0.0
 40
0.2
 50
134.99999997718669
 51
224.99999999999949
1001
GENIUS_GENODEF_13
1002
{
1000
HIER
1070
     0
1002
}
1002
{
1000
MANEDIT
1070
     0
1002
}
1002
{
1000
NOSEL
1070
     0
1002
}
1002
{
1000
BEHIND
1070
     0
1002
}
1002
{
1000
OTHER
1070
     0
1002
}
1002
{
1000
REACTOR
1002
}
1001
GENIUS_GENOBJ-N-FIL_13
1002
{
1000
OWNER
1000
GEN
1002
}
  0
ARC
  5
17B1
  8
241
 10
-3.4531358191362069
 20
0.9826790191390427
 30
0.0
 40
0.2
 50
224.99999999999949
 51
314.99999999999949
1001
GENIUS_GENOBJ-N-FIL_13
1002
{
1000
OWNER
1000
GEN
1002
}
1001
GENIUS_GENODEF_13
1002
{
1000
HIER
1070
     0
1002
}
1002
{
1000
MANEDIT
1070
     0
1002
}
1002
{
1000
NOSEL
1070
     0
1002
}
1002
{
1000
BEHIND
1070
     0
1002
}
1002
{
1000
OTHER
1070
     0
1002
}
1002
{
1000
REACTOR
1002
}
  0
ARC
  5
17B2
  8
240
 10
-0.2004446256780454
 20
4.2353702125971306
 30
0.0
 40
0.2
 50
314.99999999999949
 51
45.0
1001
GENIUS_GENODEF_13
1002
{
1000
HIER
1070
     0
1002
}
1002
{
1000
MANEDIT
1070
     0
1002
}
1002
{
1000
NOSEL
1070
     0
1002
}
1002
{
1000
BEHIND
1070
     0
1002
}
1002
{
1000
OTHER
1070
     0
1002
}
1002
{
1000
REACTOR
1002
}
1001
GENIUS_GENOBJ-N-FIL_13
1002
{
1000
OWNER
1000
GEN
1002
}
  0
ARC
  5
17B3
  8
240
 10
-3.4531358165455401
 20
7.4880614060552837
 30
0.0
 40
0.2
 50
45.0
 51
135.0
1001
GENIUS_GENODEF_13
1002
{
1000
HIER
1070
     0
1002
}
1002
{
1000
MANEDIT
1070
     0
1002
}
1002
{
1000
NOSEL
1070
     0
1002
}
1002
{
1000
BEHIND
1070
     0
1002
}
1002
{
1000
OTHER
1070
     0
1002
}
1002
{
1000
REACTOR
1002
}
1001
GENIUS_GENOBJ-N-FIL_13
1002
{
1000
OWNER
1000
GEN
1002
}
  0
CIRCLE
  5
17B4
  8
246
 10
-3.4531358191361932
 20
4.2353702125971466
 30
0.0
 40
2.5000000000000142
  0
LINE
  5
17B5
  8
245
 10
-111.57733114767321
 20
0.000000000000056
 30
0.0
 11
2.255280886746049
 21
-0.0000000000000009
 31
0.0
  0
LINE
  5
17B6
  8
245
 10
-38.390986081216852
 20
1.999999999999942
 30
0.0
 11
2.255280886746049
 21
2.0000000000000551
 31
0.0
  0
LINE
  5
17B7
  8
240
 10
-107.1531358191361
 20
0.0000000000000275
 30
0.0
 11
-107.1531358191361
 21
7.0000000000000266
 31
0.0
  0
LINE
  5
17B8
  8
241
 10
-37.103135819136241
 20
0.0000000000000275
 30
0.0
 11
-37.103135819136241
 21
8.0000000000000853
 31
0.0
  0
LINE
  5
17B9
  8
240
 10
-33.731815475576582
 20
-3.749999999999972
 30
0.0
 11
-0.2531358191362187
 21
-3.749999999999972
 31
0.0
  0
LINE
  5
17BA
  8
240
 10
-0.2531358191362187
 20
3.8998363066643629
 30
0.0
 11
-0.2531358191362187
 21
-3.749999999999972
 31
0.0
  0
LINE
  5
17BB
  8
240
 10
-106.1531358191362
 20
-7.9999999999999716
 30
0.0
 11
-37.103135819136241
 21
-7.9999999999999716
 31
0.0
  0
LINE
  5
17BC
  8
240
 10
-37.103135819136241
 20
-7.9999999999999716
 30
0.0
 11
-35.731815475576582
 21
-6.6286796564403687
 31
0.0
  0
LINE
  5
17BD
  8
240
 10
-35.731815475576582
 20
-6.6286796564403687
 30
0.0
 11
-35.731815475576582
 21
-5.749999999999944
 31
0.0
  0
ARC
  5
17BE
  8
240
 10
-33.731815475576582
 20
-5.749999999999944
 30
0.0
 40
2.0
 50
90.0
 51
180.0
  0
LINE
  5
17BF
  8
241
 10
-37.103135819136241
 20
-7.9999999999999716
 30
0.0
 11
-37.103135819136241
 21
0.0000000000000275
 31
0.0
  0
LINE
  5
17C0
  8
240
 10
-107.1531358191361
 20
-6.9999999999999716
 30
0.0
 11
-107.1531358191361
 21
0.0000000000000275
 31
0.0
  0
ARC
  5
17C1
  8
240
 10
-106.1531358191362
 20
-6.999999999999944
 30
0.0
 40
1.0
 50
180.0
 51
270.0
  0
LINE
  5
17C2
  8
240
 10
-5.4740399376660767
 20
5.7500000000000266
 30
0.0
 11
-33.610495132016922
 21
5.7500000000000266
 31
0.0
  0
LINE
  5
17C3
  8
241
 10
-33.610495132016922
 20
1.0000000000000271
 30
0.0
 11
-5.4930853127973469
 21
1.0000000000000271
 31
0.0
  0
LINE
  5
17C4
  8
240
 10
-3.594557172782856
 20
7.6294827622925929
 30
0.0
 11
-5.4740399366046537
 21
5.7500000000000258
 31
0.0
  0
LINE
  5
17C5
  8
241
 10
-6.8472483688314014
 20
4.0939488564159676
 30
0.0
 11
-3.594019024416752
 21
0.8407195119449673
 31
0.0
  0
LINE
  5
17C6
  8
240
 10
-0.0590232694407291
 20
4.3767915688344399
 30
0.0
 11
-3.3122526138556618
 21
7.6300209132493517
 31
0.0
  0
LINE
  5
17C7
  8
241
 10
-3.3117144628989048
 20
0.8412576629017319
 30
0.0
 11
-0.2531358191362187
 21
3.899836306664358
 31
0.0
  0
LINE
  5
17C8
  8
240
 10
-37.103135819136241
 20
8.0000000000000853
 30
0.0
 11
-106.1531358191362
 21
8.0000000000000853
 31
0.0
  0
LINE
  5
17C9
  8
240
 10
-35.731815475576582
 20
6.6286796564404238
 30
0.0
 11
-37.103135819136241
 21
8.0000000000000853
 31
0.0
  0
ARC
  5
17CA
  8
240
 10
-33.610495132016922
 20
8.7500000000001137
 30
0.0
 40
3.000000000000028
 50
225.0
 51
270.0
  0
ARC
  5
17CB
  8
240
 10
-106.1531358191362
 20
7.0000000000000551
 30
0.0
 40
1.000000000000028
 50
90.0
 51
180.0
  0
LINE
  5
17CC
  8
241
 10
-34.853135819136241
 20
6.0194608366268474
 30
0.0
 11
-34.853135819136241
 21
0.7742605090194834
 31
0.0
  0
ENDBLK
  5
17CF
  8
0
  0
BLOCK
  8
0
  2
*U31
 70
     1
 10
0.0
 20
0.0
 30
0.0
  3
*U31
  1

  0
TEXT
  5
17E9
  8
250
 62
    40
 10
272.25554306537867
 20
203.99771347526391
 30
0.0
 40
3.0
  1
107.2
  0
ENDBLK
  5
17EB
  8
0
  0
BLOCK
  8
0
  2
*U32
 70
     1
 10
0.0
 20
0.0
 30
0.0
  3
*U32
  1

  0
TEXT
  5
17ED
  8
250
 62
    40
 10
256.47183229866772
 20
210.99771347526391
 30
0.0
 40
3.0
  1
72.3
  0
ENDBLK
  5
17EF
  8
0
  0
BLOCK
  8
0
  2
*U33
 70
     1
 10
0.0
 20
0.0
 30
0.0
  3
*U33
  1

  0
TEXT
  5
17F1
  8
250
 62
    40
 10
213.0
 20
228.77536757771631
 30
0.0
 40
3.0
  1
\U+2205
 50
90.0
  0
TEXT
  5
17F2
  8
250
 62
    40
 10
213.0
 20
231.489653292002
 30
0.0
 40
3.0
  1
16
 50
90.0
  0
ENDBLK
  5
17F4
  8
0
  0
BLOCK
  8
0
  2
*U34
 70
     1
 10
0.0
 20
0.0
 30
0.0
  3
*U34
  1

  0
TEXT
  5
17F6
  8
250
 62
    40
 10
310.11982877966432
 20
210.99771347526391
 30
0.0
 40
3.0
  1
34.9
  0
ENDBLK
  5
17F8
  8
0
  0
BLOCK
  8
0
  2
*U35
 70
     1
 10
0.0
 20
0.0
 30
0.0
  3
*U35
  1

  0
TEXT
  5
17FA
  8
250
 62
    40
 10
324.2150355687574
 20
247.3365961402445
 30
0.0
 40
3.0
  1
45üï
 50
17.252550394896609
  0
ENDBLK
  5
17FC
  8
0
  0
BLOCK
  8
0
  2
*U36
 70
     1
 10
0.0
 20
0.0
 30
0.0
  3
*U36
  1

  0
TEXT
  5
17FE
  8
250
 62
    40
 10
356.00000463742742
 20
226.63250941323349
 30
0.0
 40
3.0
  1
\U+2205
 50
90.0
  0
TEXT
  5
17FF
  8
250
 62
    40
 10
356.00000463742742
 20
229.34679512751919
 30
0.0
 40
3.0
  1
15.5
 50
90.0
  0
ENDBLK
  5
1801
  8
0
  0
BLOCK
  8
0
  2
*U37
 70
     1
 10
0.0
 20
0.0
 30
0.0
  3
*U37
  1

  0
TEXT
  5
1803
  8
250
 62
    40
 10
348.99999999999989
 20
224.95822472057341
 30
0.0
 40
3.0
  1
2
 50
90.0
  0
ENDBLK
  5
1805
  8
0
  0
BLOCK
  8
0
  2
*U38
 70
     1
 10
0.0
 20
0.0
 30
0.0
  3
*U38
  1

  0
TEXT
  5
1807
  8
250
 62
    40
 10
307.00000052845161
 20
211.72393900628759
 30
0.0
 40
3.0
  1
\U+2205
 50
90.0
  0
TEXT
  5
1808
  8
250
 62
    40
 10
307.00000052845161
 20
214.43822472057329
 30
0.0
 40
3.0
  1
11.5
 50
90.0
  0
ENDBLK
  5
180A
  8
0
  0
BLOCK
  8
0
  2
*U39
 70
     1
 10
0.0
 20
0.0
 30
0.0
  3
*U39
  1

  0
TEXT
  5
180C
  8
250
 62
    40
 10
314.00000000000011
 20
243.54108186343069
 30
0.0
 40
3.0
  1
\U+2205
 50
90.0
  0
TEXT
  5
180D
  8
250
 62
    40
 10
314.00000000000011
 20
246.25536757771641
 30
0.0
 40
3.0
  1
11.5
 50
90.0
  0
ENDBLK
  5
180F
  8
0
  0
BLOCK
  8
0
  2
*U40
 70
     1
 10
0.0
 20
0.0
 30
0.0
  3
*U40
  1

  0
TEXT
  5
1811
  8
250
 62
    40
 10
88.678167701332313
 20
11.01333333333351
 30
0.0
 40
3.0
  1
\U+2205
 50
90.0
  0
TEXT
  5
1812
  8
250
 62
    40
 10
88.578167701332305
 20
13.727619047619219
 30
0.0
 40
2.7999999999999989
  1
11.5
 50
90.0
  0
ENDBLK
  5
1814
  8
0
  0
BLOCK
  8
0
  2
*U41
 70
     1
 10
0.0
 20
0.0
 30
0.0
  3
*U41
  1

  0
TEXT
  5
1816
  8
250
 62
    40
 10
81.678168229783864
 20
-20.803809523809559
 30
0.0
 40
3.0
  1
\U+2205
 50
90.0
  0
TEXT
  5
1817
  8
250
 62
    40
 10
81.578168229783884
 20
-18.08952380952384
 30
0.0
 40
2.7999999999999989
  1
11.5
 50
90.0
  0
ENDBLK
  5
1819
  8
0
  0
BLOCK
  8
0
  2
*U42
 70
     1
 10
0.0
 20
0.0
 30
0.0
  3
*U42
  1

  0
TEXT
  5
181B
  8
250
 62
    40
 10
99.203353079207744
 20
14.58611920355809
 30
0.0
 40
2.7999999999999989
  1
45üï
 50
17.252550394896531
  0
ENDBLK
  5
181D
  8
0
  0
BLOCK
  8
0
  2
*U43
 70
     1
 10
0.0
 20
0.0
 30
0.0
  3
*U43
  1

  0
TEXT
  5
181F
  8
250
 62
    40
 10
85.126567909568024
 20
-21.849082673880851
 30
0.0
 40
2.7999999999999989
  1
34.9
  0
ENDBLK
  5
1821
  8
0
  0
BLOCK
  8
0
  2
*U44
 70
     1
 10
0.0
 20
0.0
 30
0.0
  3
*U44
  1

  0
TEXT
  5
1823
  8
250
 62
    40
 10
-12.32183229866774
 20
-3.8952380952380512
 30
0.0
 40
3.0
  1
\U+2205
 50
90.0
  0
TEXT
  5
1824
  8
250
 62
    40
 10
-12.42183229866774
 20
-1.180952380952337
 30
0.0
 40
2.7999999999999989
  1
16
 50
90.0
  0
ENDBLK
  5
1826
  8
0
  0
BLOCK
  8
0
  2
*U45
 70
     1
 10
0.0
 20
0.0
 30
0.0
  3
*U45
  1

  0
TEXT
  5
1828
  8
250
 62
    40
 10
31.483333333333281
 20
-21.849082673880851
 30
0.0
 40
2.7999999999999989
  1
72.3
  0
ENDBLK
  5
182A
  8
0
  0
BLOCK
  8
0
  2
*U46
 70
     1
 10
0.0
 20
0.0
 30
0.0
  3
*U46
  1

  0
TEXT
  5
182C
  8
250
 62
    40
 10
123.67817233875959
 20
-5.8952391168636868
 30
0.0
 40
3.0
  1
\U+2205
 50
90.0
  0
TEXT
  5
182D
  8
250
 62
    40
 10
123.5781723387596
 20
-3.1809534025779729
 30
0.0
 40
2.7999999999999989
  1
15.5
 50
90.0
  0
ENDBLK
  5
182F
  8
0
  0
BLOCK
  8
0
  2
*U47
 70
     1
 10
0.0
 20
0.0
 30
0.0
  3
*U47
  1

  0
TEXT
  5
1831
  8
250
 62
    40
 10
116.6781677013322
 20
-7.7933333333333117
 30
0.0
 40
2.7999999999999989
  1
2
 50
90.0
  0
ENDBLK
  5
1833
  8
0
  0
BLOCK
  8
0
  2
*U48
 70
     1
 10
0.0
 20
0.0
 30
0.0
  3
*U48
  1

  0
TEXT
  5
1835
  8
250
 62
    40
 10
47.376567909568067
 20
-28.84908267388084
 30
0.0
 40
2.7999999999999989
  1
107.2
  0
ENDBLK
  5
1837
  8
0
  0
ENDSEC
  0
SECTION
  2
ENTITIES
  0
TEXT
  5
146A
  8
241
 10
-107.4898283685296
 20
20.858943702278712
 30
0.0
 40
3.0
  1
ST16-CM14-45B-33
  7
YOKO
 11
-107.4898283685296
 21
20.858943702278712
 31
0.0
 73
     1
  0
LINE
  5
1692
  8
250
 10
-107.1531358191361
 20
-7.4999999999999716
 30
0.0
 11
-107.1531358191361
 21
-30.849082673880819
 31
0.0
  0
LINE
  5
1693
  8
250
 10
0.0
 20
3.7353702125971879
 30
0.0
 11
0.0
 21
-30.849082673880819
 31
0.0
  0
LINE
  5
1694
  8
250
 10
-104.92313581913611
 20
-29.849082673880819
 30
0.0
 11
-2.2300000000000031
 21
-29.849082673880819
 31
0.0
  0
LINE
  5
1698
  8
250
 10
-34.853135819136241
 20
0.2742605090194834
 30
0.0
 11
-34.853135819136241
 21
-23.849082673880819
 31
0.0
  0
LINE
  5
1699
  8
250
 10
0.0
 20
3.7353702125971879
 30
0.0
 11
0.0
 21
-23.849082673880819
 31
0.0
  0
LINE
  5
169A
  8
250
 10
-32.623135819136238
 20
-22.849082673880819
 30
0.0
 11
-2.2300000000000031
 21
-22.849082673880819
 31
0.0
  0
LINE
  5
169E
  8
250
 10
0.0
 20
4.8177682993937037
 30
0.0
 11
-0.0000000000000568
 21
16.481891700828761
 31
0.0
  0
LINE
  5
169F
  8
250
 10
-3.665806004448938
 20
7.9835743038426248
 30
0.0
 11
-8.6013341443447047
 21
12.91910244373838
 31
0.0
  0
ARC
  5
16A0
  8
250
 10
0.0000000000000142
 20
4.3177682993937037
 30
0.0
 40
11.164123401435051
 50
101.4637713778941
 51
123.53622862210641
  0
LINE
  5
16A4
  8
250
 10
-106.6531358191362
 20
-7.999999999999944
 30
0.0
 11
-119.4749681178039
 21
-7.9999999999999396
 31
0.0
  0
LINE
  5
16A5
  8
250
 10
-106.6531358191362
 20
8.0000000000000853
 30
0.0
 11
-119.4749681178039
 21
8.0000000000000888
 31
0.0
  0
LINE
  5
16A6
  8
250
 10
-118.4749681178039
 20
-5.7699999999999401
 30
0.0
 11
-118.4749681178039
 21
5.7700000000000857
 31
0.0
  0
LINE
  5
16AA
  8
250
 10
-2.9531358191362642
 20
7.7499999999999423
 30
0.0
 11
18.52503651962348
 21
7.7499999999999361
 31
0.0
  0
LINE
  5
16AB
  8
250
 10
17.52503651962348
 20
5.5199999999999374
 30
0.0
 11
17.52503651962348
 21
-6.6095248311493942
 31
0.0
  0
LINE
  5
16AE
  8
250
 10
2.755280886746049
 20
-0.000000000000001
 30
0.0
 11
11.52503188219606
 21
-0.0000000000000035
 31
0.0
  0
LINE
  5
16AF
  8
250
 10
2.755280886746049
 20
2.0000000000000551
 30
0.0
 11
11.52503188219606
 21
2.0000000000000528
 31
0.0
  0
LINE
  5
16B0
  8
250
 10
10.52503188219606
 20
4.2300000000000528
 30
0.0
 11
10.52503188219606
 21
6.4600000000000541
 31
0.0
  0
LINE
  5
16B1
  8
250
 10
10.52503188219606
 20
-2.2300000000000031
 30
0.0
 11
10.52503188219606
 21
-8.393333333333306
 31
0.0
  0
LINE
  5
16B2
  8
250
 10
10.52503188219606
 20
2.0000000000000528
 30
0.0
 11
10.52503188219606
 21
-0.0000000000000032
 31
0.0
  0
TEXT
  5
16B6
  8
250
 10
9.5250318821960605
 20
-7.793333333333285
 30
0.0
 40
2.7999999999999989
  1
2
 50
90.0
  0
LINE
  5
16B7
  8
250
 10
10.153365215529391
 20
-2.2300000000000031
 30
0.0
 11
10.52503188219606
 21
-0.0000000000000032
 31
0.0
  0
LINE
  5
16B8
  8
250
 10
10.89669854886273
 20
-2.2300000000000031
 30
0.0
 11
10.52503188219606
 21
-0.0000000000000032
 31
0.0
  0
LINE
  5
16B9
  8
250
 10
10.52503188219606
 20
-0.0000000000000032
 30
0.0
 11
10.52503188219606
 21
-2.2300000000000031
 31
0.0
  0
LINE
  5
16BA
  8
250
 10
10.89669854886273
 20
4.2300000000000528
 30
0.0
 11
10.52503188219606
 21
2.0000000000000528
 31
0.0
  0
LINE
  5
16BB
  8
250
 10
10.153365215529391
 20
4.2300000000000528
 30
0.0
 11
10.52503188219606
 21
2.0000000000000528
 31
0.0
  0
LINE
  5
16BC
  8
250
 10
10.52503188219606
 20
2.0000000000000528
 30
0.0
 11
10.52503188219606
 21
4.2300000000000528
 31
0.0
  0
TEXT
  5
16BD
  8
250
 10
16.52503651962348
 20
-5.8952391168636602
 30
0.0
 40
3.0
  1
\U+2205
 50
90.0
  0
TEXT
  5
16BE
  8
250
 10
16.42503651962349
 20
-3.1809534025779458
 30
0.0
 40
2.7999999999999989
  1
15.5
 50
90.0
  0
LINE
  5
16BF
  8
250
 10
17.153369852956811
 20
5.5199999999999356
 30
0.0
 11
17.52503651962348
 21
7.7499999999999361
 31
0.0
  0
LINE
  5
16C0
  8
250
 10
17.89670318629015
 20
5.5199999999999356
 30
0.0
 11
17.52503651962348
 21
7.7499999999999361
 31
0.0
  0
LINE
  5
16C1
  8
250
 10
17.52503651962348
 20
7.7499999999999361
 30
0.0
 11
17.52503651962348
 21
5.5199999999999356
 31
0.0
  0
TEXT
  5
16C2
  8
250
 10
-7.949782739928394
 20
14.58611920355812
 30
0.0
 40
2.7999999999999989
  1
45üï
 50
17.252550394896531
  0
LINE
  5
16C3
  8
250
 10
-5.9325314627882468
 20
13.335732867410229
 30
0.0
 11
-7.8942273631581648
 21
12.211995662551841
 31
0.0
  0
LINE
  5
16C4
  8
250
 10
-6.4030243887082596
 20
13.911216013213529
 30
0.0
 11
-7.8942273631581648
 21
12.211995662551841
 31
0.0
  0
LINE
  5
16C5
  8
250
 10
-7.8942273631581648
 20
12.211995662551841
 30
0.0
 11
-6.1677779257482541
 21
13.623474440311879
 31
0.0
  0
LINE
  5
16C6
  8
250
 10
-2.2559699680422081
 20
15.62898219815273
 30
0.0
 11
-0.0000000000000568
 21
15.48189170082876
 31
0.0
  0
LINE
  5
16C7
  8
250
 10
-2.1817306716044551
 20
14.88936542487831
 30
0.0
 11
-0.0000000000000568
 21
15.48189170082876
 31
0.0
  0
LINE
  5
16C8
  8
250
 10
-0.0000000000000568
 20
15.48189170082876
 30
0.0
 11
-2.218850319823332
 21
15.25917381151552
 31
0.0
  0
TEXT
  5
16C9
  8
250
 10
-22.026567909568129
 20
-21.849082673880812
 30
0.0
 40
2.7999999999999989
  1
34.9
  0
LINE
  5
16CA
  8
250
 10
-2.2300000000000031
 20
-22.477416007214149
 30
0.0
 11
0.0
 21
-22.849082673880819
 31
0.0
  0
LINE
  5
16CB
  8
250
 10
-2.2300000000000031
 20
-23.220749340547481
 30
0.0
 11
0.0
 21
-22.849082673880819
 31
0.0
  0
LINE
  5
16CC
  8
250
 10
0.0
 20
-22.849082673880819
 30
0.0
 11
-2.2300000000000031
 21
-22.849082673880819
 31
0.0
  0
LINE
  5
16CD
  8
250
 10
-32.623135819136238
 20
-23.220749340547481
 30
0.0
 11
-34.853135819136241
 21
-22.849082673880819
 31
0.0
  0
LINE
  5
16CE
  8
250
 10
-32.623135819136238
 20
-22.477416007214149
 30
0.0
 11
-34.853135819136241
 21
-22.849082673880819
 31
0.0
  0
LINE
  5
16CF
  8
250
 10
-34.853135819136241
 20
-22.849082673880819
 30
0.0
 11
-32.623135819136238
 21
-22.849082673880819
 31
0.0
  0
TEXT
  5
16D0
  8
250
 10
-59.776567909568072
 20
-28.849082673880819
 30
0.0
 40
2.7999999999999989
  1
107.2
  0
LINE
  5
16D1
  8
250
 10
-2.2300000000000031
 20
-29.477416007214149
 30
0.0
 11
0.0
 21
-29.849082673880819
 31
0.0
  0
LINE
  5
16D2
  8
250
 10
-2.2300000000000031
 20
-30.220749340547481
 30
0.0
 11
0.0
 21
-29.849082673880819
 31
0.0
  0
LINE
  5
16D3
  8
250
 10
0.0
 20
-29.849082673880819
 30
0.0
 11
-2.2300000000000031
 21
-29.849082673880819
 31
0.0
  0
LINE
  5
16D4
  8
250
 10
-104.92313581913611
 20
-30.220749340547481
 30
0.0
 11
-107.1531358191361
 21
-29.849082673880819
 31
0.0
  0
LINE
  5
16D5
  8
250
 10
-104.92313581913611
 20
-29.477416007214149
 30
0.0
 11
-107.1531358191361
 21
-29.849082673880819
 31
0.0
  0
LINE
  5
16D6
  8
250
 10
-107.1531358191361
 20
-29.849082673880819
 30
0.0
 11
-104.92313581913611
 21
-29.849082673880819
 31
0.0
  0
TEXT
  5
16D7
  8
250
 10
-119.4749681178039
 20
-3.8952380952380228
 30
0.0
 40
3.0
  1
\U+2205
 50
90.0
  0
TEXT
  5
16D8
  8
250
 10
-119.57496811780391
 20
-1.180952380952309
 30
0.0
 40
2.7999999999999989
  1
16
 50
90.0
  0
LINE
  5
16D9
  8
250
 10
-118.8466347844705
 20
5.7700000000000848
 30
0.0
 11
-118.4749681178039
 21
8.0000000000000853
 31
0.0
  0
LINE
  5
16DA
  8
250
 10
-118.1033014511372
 20
5.7700000000000848
 30
0.0
 11
-118.4749681178039
 21
8.0000000000000853
 31
0.0
  0
LINE
  5
16DB
  8
250
 10
-118.4749681178039
 20
8.0000000000000853
 30
0.0
 11
-118.4749681178039
 21
5.7700000000000848
 31
0.0
  0
LINE
  5
16DC
  8
250
 10
-118.1033014511372
 20
-5.7699999999999401
 30
0.0
 11
-118.4749681178039
 21
-7.9999999999999396
 31
0.0
  0
LINE
  5
16DD
  8
250
 10
-118.8466347844705
 20
-5.7699999999999401
 30
0.0
 11
-118.4749681178039
 21
-7.9999999999999396
 31
0.0
  0
LINE
  5
16DE
  8
250
 10
-118.4749681178039
 20
-7.9999999999999396
 30
0.0
 11
-118.4749681178039
 21
-5.7699999999999401
 31
0.0
  0
INSERT
  5
17D0
  8
240
  2
A$C1C6F1CE2
 10
0.0
 20
0.0
 30
0.0
  0
VIEWPORT
  5
22
 67
     1
  8
0
 10
261.51769911504419
 20
148.5
 30
0.0
 40
523.0353982300885
 41
297.0
 68
     1
 69
     1
1001
ACAD
1000
MVIEW
1002
{
1070
    16
1010
0.0
1020
0.0
1030
0.0
1010
0.0
1020
0.0
1030
1.0
1040
0.0
1040
297.0
1040
261.51769911504419
1040
148.5
1040
50.0
1040
0.0
1040
0.0
1070
     0
1070
   100
1070
     1
1070
     1
1070
     0
1070
     0
1070
     0
1070
     0
1040
0.0
1040
0.0
1040
0.0
1040
1.0
1040
1.0
1040
10.0
1040
10.0
1070
     0
1002
{
1002
}
1002
}
1001
GENIUS_GENODEF_13
1002
{
1000
HIER
1070
     0
1002
}
1002
{
1000
MANEDIT
1070
     0
1002
}
1002
{
1000
NOSEL
1070
     0
1002
}
1002
{
1000
BEHIND
1070
     0
1002
}
1002
{
1000
OTHER
1070
     0
1002
}
1002
{
1000
REACTOR
1002
}
1001
GENIUS_GENOBJ-N-SDF_13
1002
{
1000
OWNER
1000
GEN
1002
}
1001
GENIUS_GENSCREG_15
1000
PF
1040
1.0
1000
DF
1040
1.0
1000
MIN
1011
0.0
1021
0.0
1031
0.0
1021
0.0
1031
0.0
1000
MAX
1011
523.0353982300885
1021
0.0
1031
0.0
1021
297.0
1031
0.0
1000
FLAGS
1070
     2
  0
ENDSEC
  0
EOF
