  0
SECTION
  2
HEADER
  9
$ACADVER
  1
AC1009
  9
$INSBASE
 10
0.0
 20
0.0
 30
0.0
  9
$EXTMIN
 10
-192.80000000000001
 20
-10.606601717798
 30
0.0
  9
$EXTMAX
 10
22.0
 20
54.0
 30
0.0
  9
$LIMMIN
 10
0.0
 20
0.0
  9
$LIMMAX
 10
297.0
 20
210.0
  9
$ORTHOMODE
 70
     1
  9
$REGENMODE
 70
     1
  9
$FILLMODE
 70
     1
  9
$QTEXTMODE
 70
     0
  9
$MIRRTEXT
 70
     1
  9
$DRAGMODE
 70
     2
  9
$LTSCALE
 40
10.0
  9
$OSMODE
 70
  2799
  9
$ATTMODE
 70
     1
  9
$TEXTSIZE
 40
3.0
  9
$TRACEWID
 40
1.0
  9
$TEXTSTYLE
  7
YOKO
  9
$CLAYER
  8
240
  9
$CELTYPE
  6
BYLAYER
  9
$CECOLOR
 62
   256
  9
$DIMSCALE
 40
1.0
  9
$DIMASZ
 40
2.2299999999999991
  9
$DIMEXO
 40
0.5
  9
$DIMDLI
 40
7.0
  9
$DIMRND
 40
0.0
  9
$DIMDLE
 40
0.0
  9
$DIMEXE
 40
1.0
  9
$DIMTP
 40
0.0
  9
$DIMTM
 40
0.0
  9
$DIMTXT
 40
2.799999999999998
  9
$DIMCEN
 40
0.0
  9
$DIMTSZ
 40
0.0
  9
$DIMTOL
 70
     0
  9
$DIMLIM
 70
     0
  9
$DIMTIH
 70
     0
  9
$DIMTOH
 70
     0
  9
$DIMSE1
 70
     0
  9
$DIMSE2
 70
     0
  9
$DIMTAD
 70
     3
  9
$DIMZIN
 70
     9
  9
$DIMBLK
  1
OPEN
  9
$DIMASO
 70
     1
  9
$DIMSHO
 70
     1
  9
$DIMPOST
  1

  9
$DIMAPOST
  1

  9
$DIMALT
 70
     0
  9
$DIMALTD
 70
     2
  9
$DIMALTF
 40
25.399999999999999
  9
$DIMLFAC
 40
1.0
  9
$DIMTOFL
 70
     1
  9
$DIMTVP
 40
0.0
  9
$DIMTIX
 70
     1
  9
$DIMSOXD
 70
     0
  9
$DIMSAH
 70
     0
  9
$DIMBLK1
  1

  9
$DIMBLK2
  1

  9
$DIMSTYLE
  2
BIGT
  9
$DIMCLRD
 70
   256
  9
$DIMCLRE
 70
   256
  9
$DIMCLRT
 70
    40
  9
$DIMTFAC
 40
1.0
  9
$DIMGAP
 40
1.0
  9
$LUNITS
 70
     2
  9
$LUPREC
 70
     3
  9
$SKETCHINC
 40
1.0
  9
$FILLETRAD
 40
0.0
  9
$AUNITS
 70
     0
  9
$AUPREC
 70
     3
  9
$MENU
  1
.
  9
$ELEVATION
 40
0.0
  9
$PELEVATION
 40
0.0
  9
$THICKNESS
 40
0.0
  9
$LIMCHECK
 70
     0
  9
$BLIPMODE
 70
     0
  9
$CHAMFERA
 40
0.25
  9
$CHAMFERB
 40
0.25
  9
$SKPOLY
 70
     0
  9
$TDCREATE
 40
2452787.542889711
  9
$TDUPDATE
 40
2454035.4583366318
  9
$TDINDWG
 40
0.0057808565
  9
$TDUSRTIMER
 40
0.0057806713
  9
$USRTIMER
 70
     1
  9
$ANGBASE
 50
0.0
  9
$ANGDIR
 70
     0
  9
$PDMODE
 70
    35
  9
$PDSIZE
 40
-5.0
  9
$PLINEWID
 40
0.0
  9
$COORDS
 70
     0
  9
$SPLFRAME
 70
     0
  9
$SPLINETYPE
 70
     6
  9
$SPLINESEGS
 70
     4
  9
$ATTDIA
 70
     1
  9
$ATTREQ
 70
     1
  9
$HANDLING
 70
     1
  9
$HANDSEED
  5
1C86
  9
$SURFTAB1
 70
     6
  9
$SURFTAB2
 70
     6
  9
$SURFTYPE
 70
     6
  9
$SURFU
 70
     6
  9
$SURFV
 70
     6
  9
$UCSNAME
  2

  9
$UCSORG
 10
0.0
 20
0.0
 30
0.0
  9
$UCSXDIR
 10
1.0
 20
0.0
 30
0.0
  9
$UCSYDIR
 10
0.0
 20
1.0
 30
0.0
  9
$PUCSNAME
  2

  9
$PUCSORG
 10
0.0
 20
0.0
 30
0.0
  9
$PUCSXDIR
 10
1.0
 20
0.0
 30
0.0
  9
$PUCSYDIR
 10
0.0
 20
1.0
 30
0.0
  9
$USERI1
 70
     1
  9
$USERI2
 70
     0
  9
$USERI3
 70
     0
  9
$USERI4
 70
     0
  9
$USERI5
 70
     0
  9
$USERR1
 40
0.0
  9
$USERR2
 40
0.0
  9
$USERR3
 40
0.0
  9
$USERR4
 40
0.0
  9
$USERR5
 40
0.0
  9
$WORLDVIEW
 70
     1
  9
$SHADEDGE
 70
     3
  9
$SHADEDIF
 70
    70
  9
$TILEMODE
 70
     1
  9
$MAXACTVP
 70
    16
  9
$PLIMCHECK
 70
     0
  9
$PEXTMIN
 10
1.0000000000000000E+020
 20
1.0000000000000000E+020
 30
1.0000000000000000E+020
  9
$PEXTMAX
 10
-1.0000000000000000E+020
 20
-1.0000000000000000E+020
 30
-1.0000000000000000E+020
  9
$PLIMMIN
 10
0.0
 20
0.0
  9
$PLIMMAX
 10
420.0
 20
297.0
  9
$UNITMODE
 70
     0
  9
$VISRETAIN
 70
     1
  9
$PLINEGEN
 70
     0
  9
$PSLTSCALE
 70
     1
  0
ENDSEC
  0
SECTION
  2
TABLES
  0
TABLE
  2
VPORT
 70
     3
  0
VPORT
  2
*ACTIVE
 70
     0
 10
0.0
 20
0.0
 11
1.0
 21
1.0
 12
-85.398404476207773
 22
21.693671025333462
 13
0.0
 23
0.0
 14
7.0
 24
7.0
 15
7.0
 25
7.0
 16
0.0
 26
0.0
 36
1.0
 17
0.0
 27
0.0
 37
0.0
 40
139.4974573406254
 41
1.546099290780141
 42
50.0
 43
0.0
 44
0.0
 50
0.0
 51
0.0
 71
     0
 72
   500
 73
     1
 74
     0
 75
     0
 76
     0
 77
     0
 78
     0
  0
ENDTAB
  0
TABLE
  2
LTYPE
 70
    13
  0
LTYPE
  2
CONTINUOUS
 70
     0
  3
Solid line
 72
    65
 73
     0
 40
0.0
  0
LTYPE
  2
CENTER2
 70
     0
  3
___ _ ___ _ ___ _ ___ _ ___ _ ___ _ ___ _ ___ _
 72
    65
 73
     4
 40
1.125
 49
0.75
 49
-0.125
 49
0.125
 49
-0.125
  0
LTYPE
  2
CENTER
 70
     0
  3
____ _ ____ _ ____ _ ____ _ ____ _ ____ _ ____ 
 72
    65
 73
     4
 40
2.0
 49
1.25
 49
-0.25
 49
0.25
 49
-0.25
  0
LTYPE
  2
AM_ISO02W050
 70
     0
  3
__ __ __ __ __ __ __ __ __ __ __ __ __ __ __
 72
    65
 73
     2
 40
7.5
 49
6.0
 49
-1.5
  0
LTYPE
  2
AMCONSTR
 70
     0
  3
_______________________
 72
    65
 73
     2
 40
9999.0
 49
9999.0
 49
0.0
  0
LTYPE
  2
ACISOWELD
 70
     0
  3
_ _ _ _ _
 72
    65
 73
     2
 40
2.0
 49
2.0
 49
-1.0
  0
LTYPE
  2
ACISOTGB
 70
     0
  3
__ . . __ . .
 72
    65
 73
     6
 40
9.0
 49
4.0
 49
-1.0
 49
1.0
 49
-1.0
 49
1.0
 49
-1.0
  0
LTYPE
  2
ACISOTGL
 70
     0
  3
_ _ _ _ _
 72
    65
 73
     2
 40
3.0
 49
2.0
 49
-1.0
  0
LTYPE
  2
HIDDEN2
 70
     0
  3
_ _ _ _ _ _ _ _ _ _ _ _ _ _ _ _ _ _ _ _ _ _ _ _
 72
    65
 73
     2
 40
0.1875
 49
0.125
 49
-0.0625
  0
LTYPE
  2
PHANTOM2
 70
     0
  3
___ _ _ ___ _ _ ___ _ _ ___ _ _ ___ _ _ ___ _ _
 72
    65
 73
     6
 40
1.25
 49
0.625
 49
-0.125
 49
0.125
 49
-0.125
 49
0.125
 49
-0.125
  0
LTYPE
  2
HIDDEN
 70
     0
  3
Hidden __ __ __ __ __ __ __ __ __ __ __ __ __ _
 72
    65
 73
     2
 40
9.5249999999999986
 49
6.3499999999999988
 49
-3.1749999999999989
  0
LTYPE
  2
ACJISTGB
 70
     0
  3
__ . . __ . .
 72
    65
 73
     6
 40
9.0
 49
4.0
 49
-1.0
 49
1.0
 49
-1.0
 49
1.0
 49
-1.0
  0
LTYPE
  2
ACJISTGL
 70
     0
  3
_ _ _ _ _
 72
    65
 73
     2
 40
3.0
 49
2.0
 49
-1.0
  0
ENDTAB
  0
TABLE
  2
LAYER
 70
     7
  0
LAYER
  2
0
 70
     0
 62
     7
  6
CONTINUOUS
  0
LAYER
  2
DEFPOINTS
 70
     0
 62
     7
  6
CONTINUOUS
  0
LAYER
  2
245
 70
     0
 62
     2
  6
CENTER2
  0
LAYER
  2
240
 70
     0
 62
     4
  6
CONTINUOUS
  0
LAYER
  2
241
 70
     0
 62
   211
  6
CONTINUOUS
  0
LAYER
  2
247
 70
     0
 62
    60
  6
CONTINUOUS
  0
LAYER
  2
250
 70
     0
 62
     7
  6
CONTINUOUS
  0
ENDTAB
  0
TABLE
  2
STYLE
 70
     6
  0
STYLE
  2
STANDARD
 70
     0
 40
0.0
 41
1.0
 50
0.0
 71
     0
 42
3.0
  3
romans.shx
  4
extfont.shx
  0
STYLE
  2
ACISOTS
 70
     0
 40
1.0
 41
1.0
 50
0.0
 71
     0
 42
3.0
  3
amgdt.shx
  4
extfont.shx
  0
STYLE
  2
ACISOGDT
 70
     0
 40
0.0
 41
1.0
 50
0.0
 71
     0
 42
3.0
  3
amgdt.shx
  4
extfont.shx
  0
STYLE
  2
YOKO
 70
     0
 40
0.0
 41
1.0
 50
0.0
 71
     0
 42
3.0
  3
romans.shx
  4
extfont.shx
  0
STYLE
  2
ACJISGDT
 70
     0
 40
0.0
 41
1.0
 50
0.0
 71
     0
 42
3.0
  3
amgdt.shx
  4
extfont.shx
  0
STYLE
  2
ACJISTS
 70
     0
 40
1.0
 41
1.0
 50
0.0
 71
     0
 42
3.0
  3
amgdt.shx
  4
extfont.shx
  0
ENDTAB
  0
TABLE
  2
VIEW
 70
     0
  0
ENDTAB
  0
TABLE
  2
UCS
 70
     0
  0
ENDTAB
  0
TABLE
  2
APPID
 70
    31
  0
APPID
  2
ACAD
 70
     0
  0
APPID
  2
GLOBAL
 70
     0
  0
APPID
  2
DETAIL
 70
     0
  0
APPID
  2
GRPNAME
 70
     0
  0
APPID
  2
GPARA
 70
     0
  0
APPID
  2
MCAD_NO_VIS
 70
     0
  0
APPID
  2
ACAD_TEMP_GRAPHIC
 70
     0
  0
APPID
  2
ACATTRIBSERVICES
 70
     0
  0
APPID
  2
GENIUS_GENSCREG_15
 70
     0
  0
APPID
  2
GENIUS_GENODEF_13
 70
     0
  0
APPID
  2
GENIUS_GENOBJ-N-SDF_13
 70
     0
  0
APPID
  2
GENIUS_GENREC_14
 70
     0
  0
APPID
  2
GENIUS_GENOBJ-N-REC_13
 70
     0
  0
APPID
  2
GENIUS_GENDIMSH_14
 70
     0
  0
APPID
  2
GENIUS_GENOBJ-N-DIM_13
 70
     0
  0
APPID
  2
GENIUS_GENDIM_13
 70
     0
  0
APPID
  2
GENIUS_GENDTOL_13
 70
     0
  0
APPID
  2
GENIUS_GENOLIS_13
 70
     0
  0
APPID
  2
GENIUS_GENOENT_13
 70
     0
  0
APPID
  2
GENIUS_GENOBJ-F-FEM_13
 70
     0
  0
APPID
  2
GENIUS_GENOREF_13
 70
     0
  0
APPID
  2
GENIUS_GEFFEM_13
 70
     0
  0
APPID
  2
GENIUS_GEFFEMP_13
 70
     0
  0
APPID
  2
ITEMNAME
 70
     0
  0
APPID
  2
HATCH_TYPE
 70
     0
  0
APPID
  2
HATCH_DISPLAY
 70
     0
  0
APPID
  2
HATCH_DISTANCE
 70
     0
  0
APPID
  2
AD_DRAW
 70
     0
  0
APPID
  2
DESIGNERASSEMBLIES
 70
     0
  0
APPID
  2
ACADM_DIM_EDIT
 70
     0
  0
APPID
  2
AMDT_DM_ADJ
 70
     0
  0
ENDTAB
  0
TABLE
  2
DIMSTYLE
 70
    23
  0
DIMSTYLE
  2
BIGT
 70
     0
  3

  4

  5
OPEN
  6

  7

 40
1.0
 41
2.2299999999999991
 42
0.5
 43
7.0
 44
1.0
 45
0.0
 46
0.0
 47
0.0
 48
0.01
140
2.7999999999999989
141
0.0
142
0.0
143
25.399999999999999
144
1.0
145
0.0
146
1.0
147
1.0
 71
     0
 72
     0
 73
     0
 74
     0
 75
     0
 76
     0
 77
     3
 78
     9
170
     0
171
     2
172
     1
173
     0
174
     1
175
     0
176
   256
177
   256
178
    40
  0
DIMSTYLE
  2
AM_ISO
 70
     0
  3

  4
"
  5

  6

  7

 40
1.0
 41
2.5
 42
1.0
 43
10.0
 44
1.0
 45
0.0
 46
0.0
 47
0.1
 48
0.1
140
3.5
141
0.0
142
0.0
143
0.0393701
144
1.0
145
0.0
146
0.71
147
1.5
 71
     0
 72
     0
 73
     0
 74
     0
 75
     0
 76
     0
 77
     1
 78
     8
170
     0
171
     2
172
     1
173
     0
174
     0
175
     0
176
   256
177
   256
178
     2
  0
DIMSTYLE
  2
AM_ISO$3
 70
     0
  3

  4
"
  5

  6

  7

 40
1.0
 41
2.5
 42
1.0
 43
10.0
 44
1.0
 45
0.0
 46
0.0
 47
0.1
 48
0.1
140
3.5
141
0.0
142
0.0
143
0.0393701
144
1.0
145
0.0
146
0.71
147
1.5
 71
     0
 72
     0
 73
     0
 74
     1
 75
     0
 76
     0
 77
     1
 78
     8
170
     0
171
     2
172
     0
173
     0
174
     0
175
     0
176
   256
177
   256
178
     2
  0
DIMSTYLE
  2
AM_ISO$4
 70
     0
  3

  4
"
  5

  6

  7

 40
1.0
 41
2.5
 42
1.0
 43
10.0
 44
1.0
 45
0.0
 46
0.0
 47
0.1
 48
0.1
140
3.5
141
0.0
142
0.0
143
0.0393701
144
1.0
145
0.0
146
0.71
147
1.5
 71
     0
 72
     0
 73
     0
 74
     1
 75
     0
 76
     0
 77
     1
 78
     8
170
     0
171
     2
172
     0
173
     0
174
     0
175
     0
176
   256
177
   256
178
     2
  0
DIMSTYLE
  2
AM_ISO$6
 70
     0
  3

  4
"
  5

  6

  7

 40
1.0
 41
2.5
 42
1.0
 43
10.0
 44
1.0
 45
0.0
 46
0.0
 47
0.1
 48
0.1
140
3.5
141
0.0
142
0.0
143
0.0393701
144
1.0
145
0.0
146
0.71
147
1.5
 71
     0
 72
     0
 73
     0
 74
     0
 75
     0
 76
     0
 77
     0
 78
     8
170
     0
171
     2
172
     1
173
     0
174
     0
175
     0
176
   256
177
   256
178
     2
  0
DIMSTYLE
  2
AM_ISO$7
 70
     0
  3

  4
"
  5

  6

  7

 40
1.0
 41
2.5
 42
1.0
 43
10.0
 44
1.0
 45
0.0
 46
0.0
 47
0.1
 48
0.1
140
5.0
141
0.0
142
0.0
143
0.0393701
144
1.0
145
0.0
146
0.71
147
1.5
 71
     0
 72
     0
 73
     0
 74
     0
 75
     0
 76
     0
 77
     1
 78
     8
170
     0
171
     2
172
     1
173
     0
174
     0
175
     0
176
   256
177
   256
178
     2
  0
DIMSTYLE
  2
AM_ISO$SF
 70
     0
  3

  4
"
  5

  6

  7

 40
1.0
 41
2.5
 42
1.0
 43
10.0
 44
1.0
 45
0.0
 46
0.0
 47
0.1
 48
0.1
140
3.5
141
0.0
142
0.0
143
0.0393701
144
1.0
145
0.0
146
0.71
147
1.5
 71
     0
 72
     0
 73
     0
 74
     0
 75
     1
 76
     1
 77
     1
 78
     8
170
     0
171
     2
172
     1
173
     0
174
     0
175
     0
176
   256
177
   256
178
     2
  0
DIMSTYLE
  2
AM_ISO$SH
 70
     0
  3

  4
"
  5

  6
GENAXEH
  7

 40
1.0
 41
2.5
 42
1.0
 43
10.0
 44
1.0
 45
0.0
 46
0.0
 47
0.1
 48
0.1
140
3.5
141
0.0
142
0.0
143
0.0393701
144
2.0
145
0.0
146
0.71
147
1.5
 71
     0
 72
     0
 73
     0
 74
     0
 75
     1
 76
     1
 77
     1
 78
     8
170
     0
171
     2
172
     1
173
     1
174
     0
175
     0
176
   256
177
   256
178
     2
  0
DIMSTYLE
  2
BIGT$2
 70
     0
  3

  4

  5
OPEN
  6

  7

 40
1.0
 41
2.2299999999999991
 42
0.5
 43
7.0
 44
1.0
 45
0.0
 46
0.0
 47
0.0
 48
0.01
140
2.7999999999999989
141
0.0
142
0.0
143
25.399999999999999
144
1.0
145
0.0
146
1.0
147
1.0
 71
     0
 72
     0
 73
     0
 74
     0
 75
     0
 76
     0
 77
     3
 78
     9
170
     0
171
     2
172
     1
173
     0
174
     0
175
     0
176
   256
177
   256
178
    40
  0
DIMSTYLE
  2
BIGT$0
 70
     0
  3

  4

  5
OPEN
  6

  7

 40
1.0
 41
2.2299999999999991
 42
0.5
 43
7.0
 44
1.0
 45
0.0
 46
0.0
 47
0.0
 48
0.01
140
2.7999999999999989
141
0.0
142
0.0
143
25.399999999999999
144
1.0
145
0.0
146
1.0
147
1.0
 71
     0
 72
     0
 73
     0
 74
     0
 75
     0
 76
     0
 77
     3
 78
     9
170
     0
171
     2
172
     1
173
     0
174
     0
175
     0
176
   256
177
   256
178
    40
  0
DIMSTYLE
  2
BIGT$3
 70
     0
  3

  4

  5
OPEN
  6

  7

 40
1.0
 41
2.2299999999999991
 42
0.5
 43
2.5
 44
1.0
 45
0.0
 46
0.0
 47
0.0
 48
0.01
140
2.7999999999999989
141
0.0
142
0.0
143
25.399999999999999
144
1.0
145
0.0
146
1.0
147
1.0
 71
     0
 72
     0
 73
     0
 74
     0
 75
     0
 76
     0
 77
     3
 78
     9
170
     0
171
     2
172
     1
173
     0
174
     0
175
     0
176
   256
177
   256
178
    40
  0
DIMSTYLE
  2
BIGT$4
 70
     0
  3

  4

  5
OPEN
  6

  7

 40
1.0
 41
2.2299999999999991
 42
0.5
 43
2.5
 44
1.0
 45
0.0
 46
0.0
 47
0.0
 48
0.01
140
2.7999999999999989
141
0.0
142
0.0
143
25.399999999999999
144
1.0
145
0.0
146
1.0
147
1.0
 71
     0
 72
     0
 73
     0
 74
     0
 75
     0
 76
     0
 77
     3
 78
     9
170
     0
171
     2
172
     1
173
     0
174
     0
175
     0
176
   256
177
   256
178
    40
  0
DIMSTYLE
  2
BIGT$6
 70
     0
  3

  4

  5
OPEN
  6

  7

 40
1.0
 41
2.2299999999999991
 42
0.5
 43
2.5
 44
1.0
 45
0.0
 46
0.0
 47
0.0
 48
0.01
140
2.7999999999999989
141
0.0
142
0.0
143
25.399999999999999
144
1.0
145
0.0
146
1.0
147
1.0
 71
     0
 72
     0
 73
     0
 74
     0
 75
     0
 76
     0
 77
     3
 78
     9
170
     0
171
     2
172
     1
173
     0
174
     0
175
     0
176
   256
177
   256
178
    40
  0
DIMSTYLE
  2
BIGT$7
 70
     0
  3

  4

  5
OPEN
  6

  7

 40
0.0
 41
2.2299999999999991
 42
0.5
 43
7.0
 44
1.0
 45
0.0
 46
0.0
 47
0.0
 48
0.01
140
2.7999999999999989
141
0.0
142
0.0
143
25.399999999999999
144
1.0
145
0.0
146
1.0
147
1.0
 71
     0
 72
     0
 73
     0
 74
     0
 75
     0
 76
     0
 77
     3
 78
     9
170
     0
171
     2
172
     0
173
     0
174
     0
175
     0
176
   256
177
   256
178
    40
  0
DIMSTYLE
  2
BIGT$SF
 70
     0
  3

  4

  5
OPEN
  6

  7

 40
1.0
 41
2.2299999999999991
 42
0.5
 43
7.0
 44
1.0
 45
0.0
 46
0.0
 47
0.0
 48
0.0
140
2.7999999999999989
141
0.0
142
0.0
143
25.399999999999999
144
1.0
145
0.0
146
1.0
147
1.0
 71
     0
 72
     0
 73
     0
 74
     0
 75
     0
 76
     0
 77
     3
 78
     9
170
     0
171
     2
172
     1
173
     0
174
     0
175
     0
176
   256
177
   256
178
    40
  0
DIMSTYLE
  2
BIGT$SH
 70
     0
  3

  4

  5
OPEN
  6

  7

 40
1.0
 41
2.2299999999999991
 42
0.5
 43
7.0
 44
1.0
 45
0.0
 46
0.0
 47
0.0
 48
0.0
140
2.7999999999999989
141
0.0
142
0.0
143
25.399999999999999
144
1.0
145
0.0
146
1.0
147
1.0
 71
     0
 72
     0
 73
     0
 74
     0
 75
     0
 76
     0
 77
     3
 78
     9
170
     0
171
     2
172
     1
173
     0
174
     0
175
     0
176
   256
177
   256
178
    40
  0
DIMSTYLE
  2
TECHNICAL_OSAKA
 70
     0
  3

  4
"
  5
OPEN30
  6

  7

 40
1.0
 41
2.5
 42
1.0
 43
10.0
 44
1.0
 45
0.0
 46
0.0
 47
0.1
 48
0.1
140
2.7999999999999989
141
0.0
142
0.0
143
0.0393701
144
1.0
145
0.0
146
0.71
147
1.5
 71
     0
 72
     0
 73
     0
 74
     0
 75
     0
 76
     0
 77
     3
 78
     8
170
     0
171
     2
172
     1
173
     0
174
     0
175
     0
176
   256
177
   256
178
    40
  0
DIMSTYLE
  2
TECHNICAL_OSAKA$3
 70
     0
  3

  4
"
  5
OPEN30
  6

  7

 40
1.0
 41
2.5
 42
1.0
 43
10.0
 44
1.0
 45
0.0
 46
0.0
 47
0.1
 48
0.1
140
2.7999999999999989
141
0.0
142
0.0
143
0.0393701
144
1.0
145
0.0
146
0.71
147
1.5
 71
     0
 72
     0
 73
     0
 74
     1
 75
     0
 76
     0
 77
     3
 78
     8
170
     0
171
     2
172
     0
173
     0
174
     0
175
     0
176
   256
177
   256
178
    40
  0
DIMSTYLE
  2
TECHNICAL_OSAKA$4
 70
     0
  3

  4
"
  5
OPEN30
  6

  7

 40
1.0
 41
2.5
 42
1.0
 43
10.0
 44
1.0
 45
0.0
 46
0.0
 47
0.1
 48
0.1
140
2.7999999999999989
141
0.0
142
0.0
143
0.0393701
144
1.0
145
0.0
146
0.71
147
1.5
 71
     0
 72
     0
 73
     0
 74
     1
 75
     0
 76
     0
 77
     3
 78
     8
170
     0
171
     2
172
     0
173
     0
174
     0
175
     0
176
   256
177
   256
178
    40
  0
DIMSTYLE
  2
TECHNICAL_OSAKA$6
 70
     0
  3

  4
"
  5
OPEN30
  6

  7

 40
1.0
 41
2.5
 42
1.0
 43
10.0
 44
1.0
 45
0.0
 46
0.0
 47
0.1
 48
0.1
140
2.7999999999999989
141
0.0
142
0.0
143
0.0393701
144
1.0
145
0.0
146
0.71
147
1.5
 71
     0
 72
     0
 73
     0
 74
     0
 75
     0
 76
     0
 77
     0
 78
     8
170
     0
171
     2
172
     1
173
     0
174
     0
175
     0
176
   256
177
   256
178
    40
  0
DIMSTYLE
  2
TECHNICAL_OSAKA$7
 70
     0
  3

  4
"
  5
OPEN30
  6

  7

 40
1.0
 41
2.5
 42
1.0
 43
10.0
 44
1.0
 45
0.0
 46
0.0
 47
0.1
 48
0.1
140
2.7999999999999989
141
0.0
142
0.0
143
0.0393701
144
1.0
145
0.0
146
0.71
147
1.5
 71
     0
 72
     0
 73
     0
 74
     0
 75
     0
 76
     0
 77
     3
 78
     8
170
     0
171
     2
172
     1
173
     0
174
     0
175
     0
176
   256
177
   256
178
    40
  0
DIMSTYLE
  2
TECHNICAL_OSAKA$SF
 70
     0
  3

  4
"
  5
OPEN30
  6
OPEN30
  7
OPEN30
 40
1.0
 41
2.5
 42
1.0
 43
10.0
 44
1.0
 45
0.0
 46
0.0
 47
0.1
 48
0.1
140
3.5
141
0.0
142
0.0
143
0.0393701
144
1.0
145
0.0
146
0.71
147
1.5
 71
     0
 72
     0
 73
     0
 74
     0
 75
     1
 76
     1
 77
     3
 78
     8
170
     0
171
     2
172
     1
173
     0
174
     0
175
     0
176
   256
177
   256
178
    40
  0
DIMSTYLE
  2
TECHNICAL_OSAKA$SH
 70
     0
  3

  4
"
  5
OPEN30
  6
GENAXEH
  7
OPEN30
 40
1.0
 41
2.5
 42
1.0
 43
10.0
 44
1.0
 45
0.0
 46
0.0
 47
0.1
 48
0.1
140
3.5
141
0.0
142
0.0
143
0.0393701
144
2.0
145
0.0
146
0.71
147
1.5
 71
     0
 72
     0
 73
     0
 74
     0
 75
     1
 76
     1
 77
     3
 78
     8
170
     0
171
     2
172
     1
173
     1
174
     0
175
     0
176
   256
177
   256
178
    40
  0
ENDTAB
  0
ENDSEC
  0
SECTION
  2
BLOCKS
  0
BLOCK
  8
0
  2
$MODEL_SPACE
 70
     0
 10
0.0
 20
0.0
 30
0.0
  3
$MODEL_SPACE
  1

  0
ENDBLK
  5
1C
  8
0
  0
BLOCK
 67
     1
  8
0
  2
$PAPER_SPACE
 70
     0
 10
0.0
 20
0.0
 30
0.0
  3
$PAPER_SPACE
  1

  0
ENDBLK
  5
19
 67
     1
  8
0
  0
BLOCK
  8
0
  2
_OPEN
 70
     0
 10
0.0
 20
0.0
 30
0.0
  3
_OPEN
  1

  0
LINE
  5
1C1D
  8
0
  6
BYBLOCK
 62
     0
 10
-1.0
 20
0.1666666666666666
 30
0.0
 11
0.0
 21
0.0
 31
0.0
  0
LINE
  5
1C1E
  8
0
  6
BYBLOCK
 62
     0
 10
-1.0
 20
-0.1666666666666666
 30
0.0
 11
0.0
 21
0.0
 31
0.0
  0
LINE
  5
1C1F
  8
0
  6
BYBLOCK
 62
     0
 10
0.0
 20
0.0
 30
0.0
 11
-1.0
 21
0.0
 31
0.0
  0
ENDBLK
  5
1C20
  8
0
  0
BLOCK
  8
0
  2
GENAXEH
 70
     0
 10
0.0
 20
0.0
 30
0.0
  3
GENAXEH
  1

  0
LINE
  5
1C48
  8
0
 10
-1.0
 20
0.0
 30
0.0
 11
1.0
 21
0.0
 31
0.0
  0
ENDBLK
  5
1C49
  8
0
  0
BLOCK
  8
0
  2
_OPEN30
 70
     0
 10
0.0
 20
0.0
 30
0.0
  3
_OPEN30
  1

  0
LINE
  5
1C6D
  8
0
  6
BYBLOCK
 62
     0
 10
-1.0
 20
0.26794919
 30
0.0
 11
0.0
 21
0.0
 31
0.0
  0
LINE
  5
1C6E
  8
0
  6
BYBLOCK
 62
     0
 10
0.0
 20
0.0
 30
0.0
 11
-1.0
 21
-0.26794919
 31
0.0
  0
LINE
  5
1C6F
  8
0
  6
BYBLOCK
 62
     0
 10
0.0
 20
0.0
 30
0.0
 11
-1.0
 21
0.0
 31
0.0
  0
ENDBLK
  5
1C70
  8
0
  0
BLOCK
  8
0
  2
A$C4604191F
 70
     0
 10
0.0
 20
0.0
 30
0.0
  3
A$C4604191F
  1

  0
LINE
  5
1ADB
  8
247
 10
-65.181440589659672
 20
6.0970782806990851
 30
0.0
 11
-65.181440589659672
 21
6.0970782806990851
 31
0.0
1001
HATCH_DISTANCE
1040
1.0
1001
HATCH_DISPLAY
1070
     0
1001
HATCH_TYPE
1070
     7
  0
LINE
  5
1ADC
  8
247
 10
-65.272730109923359
 20
6.386579470884632
 30
0.0
 11
-65.181440589659672
 21
6.0970782806990851
 31
0.0
1001
HATCH_DISTANCE
1040
1.0
1001
HATCH_DISPLAY
1070
     0
1001
HATCH_TYPE
1070
     7
  0
LINE
  5
1ADD
  8
247
 10
-65.272730109923359
 20
6.386579470884632
 30
0.0
 11
-65.272730109923359
 21
6.386579470884632
 31
0.0
1001
HATCH_DISTANCE
1040
1.0
1001
HATCH_DISPLAY
1070
     0
1001
HATCH_TYPE
1070
     7
  0
LINE
  5
1ADE
  8
247
 10
-65.181440589659672
 20
6.0970782806990851
 30
0.0
 11
-65.272730109923359
 21
6.386579470884632
 31
0.0
1001
HATCH_DISTANCE
1040
1.0
1001
HATCH_DISPLAY
1070
     0
1001
HATCH_TYPE
1070
     7
  0
LINE
  5
1ADF
  8
247
 10
-65.181440589659672
 20
6.0970782806990851
 30
0.0
 11
-65.181440589659672
 21
6.0970782806990851
 31
0.0
  0
LINE
  5
1AE0
  8
247
 10
-65.272730109923359
 20
6.386579470884632
 30
0.0
 11
-65.181440589659672
 21
6.0970782806990851
 31
0.0
  0
LINE
  5
1AE1
  8
247
 10
-65.272730109923359
 20
6.386579470884632
 30
0.0
 11
-65.272730109923359
 21
6.386579470884632
 31
0.0
  0
LINE
  5
1AE2
  8
247
 10
-65.181440589659672
 20
6.0970782806990851
 30
0.0
 11
-65.272730109923359
 21
6.386579470884632
 31
0.0
  0
LINE
  5
1AE3
  8
247
 10
-65.181440589659672
 20
6.0970782806990851
 30
0.0
 11
-65.181440589659672
 21
6.0970782806990851
 31
0.0
1001
HATCH_DISTANCE
1040
1.0
1001
HATCH_DISPLAY
1070
     0
1001
HATCH_TYPE
1070
     7
  0
LINE
  5
1AE4
  8
247
 10
-65.272730109923359
 20
6.386579470884632
 30
0.0
 11
-65.181440589659672
 21
6.0970782806990851
 31
0.0
1001
HATCH_DISTANCE
1040
1.0
1001
HATCH_DISPLAY
1070
     0
1001
HATCH_TYPE
1070
     7
  0
LINE
  5
1AE5
  8
247
 10
-65.272730109923359
 20
6.386579470884632
 30
0.0
 11
-65.272730109923359
 21
6.386579470884632
 31
0.0
1001
HATCH_DISTANCE
1040
1.0
1001
HATCH_DISPLAY
1070
     0
1001
HATCH_TYPE
1070
     7
  0
LINE
  5
1AE6
  8
247
 10
-65.181440589659672
 20
6.0970782806990851
 30
0.0
 11
-65.272730109923359
 21
6.386579470884632
 31
0.0
1001
HATCH_DISTANCE
1040
1.0
1001
HATCH_DISPLAY
1070
     0
1001
HATCH_TYPE
1070
     7
  0
LINE
  5
1AE7
  8
247
 10
-65.181440589659672
 20
6.0970782806990851
 30
0.0
 11
-65.181440589659672
 21
6.0970782806990851
 31
0.0
  0
LINE
  5
1AE8
  8
247
 10
-65.272730109923359
 20
6.386579470884632
 30
0.0
 11
-65.181440589659672
 21
6.0970782806990851
 31
0.0
  0
LINE
  5
1AE9
  8
247
 10
-65.272730109923359
 20
6.386579470884632
 30
0.0
 11
-65.272730109923359
 21
6.386579470884632
 31
0.0
  0
LINE
  5
1AEA
  8
247
 10
-65.181440589659672
 20
6.0970782806990851
 30
0.0
 11
-65.272730109923359
 21
6.386579470884632
 31
0.0
  0
LINE
  5
1AEB
  8
247
 10
-67.225298164122563
 20
6.4391650726912726
 30
0.0
 11
-68.013658759825674
 21
6.4391650726912726
 31
0.0
1001
HATCH_DISTANCE
1040
1.0
1001
HATCH_DISPLAY
1070
     0
1001
HATCH_TYPE
1070
     7
  0
LINE
  5
1AEC
  8
247
 10
-68.007581947081547
 20
3.7110076716063731
 30
0.0
 11
-67.225298164122563
 21
6.4391650726912726
 31
0.0
1001
HATCH_DISTANCE
1040
1.0
1001
HATCH_DISPLAY
1070
     0
1001
HATCH_TYPE
1070
     7
  0
LINE
  5
1AED
  8
247
 10
-68.68557572149561
 20
3.7110076716063731
 30
0.0
 11
-68.007581947081547
 21
3.7110076716063731
 31
0.0
1001
HATCH_DISTANCE
1040
1.0
1001
HATCH_DISPLAY
1070
     0
1001
HATCH_TYPE
1070
     7
  0
LINE
  5
1AEE
  8
247
 10
-67.998895881407705
 20
6.1057300140975226
 30
0.0
 11
-68.68557572149561
 21
3.7110076716063731
 31
0.0
1001
HATCH_DISTANCE
1040
1.0
1001
HATCH_DISPLAY
1070
     0
1001
HATCH_TYPE
1070
     7
  0
LINE
  5
1AEF
  8
247
 10
-68.109274146788565
 20
6.1057300140975226
 30
0.0
 11
-67.998895881407705
 21
6.1057300140975226
 31
0.0
1001
HATCH_DISTANCE
1040
1.0
1001
HATCH_DISPLAY
1070
     0
1001
HATCH_TYPE
1070
     7
  0
LINE
  5
1AF0
  8
247
 10
-68.013658759825674
 20
6.4391650726912726
 30
0.0
 11
-68.109274146788565
 21
6.1057300140975226
 31
0.0
1001
HATCH_DISTANCE
1040
1.0
1001
HATCH_DISPLAY
1070
     0
1001
HATCH_TYPE
1070
     7
  0
LINE
  5
1AF1
  8
247
 10
-67.225298164122563
 20
6.4391650726912726
 30
0.0
 11
-68.013658759825674
 21
6.4391650726912726
 31
0.0
  0
LINE
  5
1AF2
  8
247
 10
-68.007581947081547
 20
3.7110076716063731
 30
0.0
 11
-67.225298164122563
 21
6.4391650726912726
 31
0.0
  0
LINE
  5
1AF3
  8
247
 10
-68.68557572149561
 20
3.7110076716063731
 30
0.0
 11
-68.007581947081547
 21
3.7110076716063731
 31
0.0
  0
LINE
  5
1AF4
  8
247
 10
-67.998895881407705
 20
6.1057300140975226
 30
0.0
 11
-68.68557572149561
 21
3.7110076716063731
 31
0.0
  0
LINE
  5
1AF5
  8
247
 10
-68.109274146788565
 20
6.1057300140975226
 30
0.0
 11
-67.998895881407705
 21
6.1057300140975226
 31
0.0
  0
LINE
  5
1AF6
  8
247
 10
-68.013658759825674
 20
6.4391650726912726
 30
0.0
 11
-68.109274146788565
 21
6.1057300140975226
 31
0.0
  0
LINE
  5
1AF7
  8
247
 10
-68.025397953725957
 20
3.7110076716063878
 30
0.0
 11
-68.000419522479461
 21
3.735986102852876
 31
0.0
  0
LINE
  5
1AF8
  8
247
 10
-68.362157558266063
 20
3.7110076716063878
 30
0.0
 11
-67.865034790946325
 21
4.208130438926112
 31
0.0
  0
LINE
  5
1AF9
  8
247
 10
-68.680212096894479
 20
3.729712737518049
 30
0.0
 11
-67.729650059413189
 21
4.6802747749993472
 31
0.0
  0
LINE
  5
1AFA
  8
247
 10
-68.544825517773489
 20
4.2018589211791371
 30
0.0
 11
-67.594265327880038
 21
5.1524191110725823
 31
0.0
  0
LINE
  5
1AFB
  8
247
 10
-68.409438938652499
 20
4.6740051048402256
 30
0.0
 11
-67.458880596346916
 21
5.6245634471458166
 31
0.0
  0
LINE
  5
1AFC
  8
247
 10
-68.274052359531495
 20
5.1461512885013141
 30
0.0
 11
-67.323495864813751
 21
6.0967077832190517
 31
0.0
  0
LINE
  5
1AFD
  8
247
 10
-68.138665780410491
 20
5.6182974721624026
 30
0.0
 11
-67.317798179881635
 21
6.4391650726912601
 31
0.0
  0
LINE
  5
1AFE
  8
247
 10
-68.003279201289516
 20
6.0904436558234769
 30
0.0
 11
-67.654557784421726
 21
6.4391650726912673
 31
0.0
  0
LINE
  5
1AFF
  8
247
 10
-68.02264110685266
 20
6.407841354800432
 30
0.0
 11
-67.991317388961818
 21
6.4391650726912673
 31
0.0
  0
LINE
  5
1B00
  8
247
 10
-64.354047424045888
 20
3.3412429468053229
 30
0.0
 11
-63.360496002836193
 21
4.3347943680150181
 31
0.0
  0
LINE
  5
1B01
  8
247
 10
-63.676366007143258
 20
4.3556839682480506
 30
0.0
 11
-63.278344945053057
 21
4.753705030338252
 31
0.0
  0
LINE
  5
1B02
  8
247
 10
-64.77295808636913
 20
3.2590918890221801
 30
0.0
 11
-64.374937024278935
 21
3.657112951112381
 31
0.0
  0
LINE
  5
1B03
  8
247
 10
-63.580046094403073
 20
4.7887634855283423
 30
0.0
 11
-63.292119682162323
 21
5.0766898977690849
 31
0.0
  0
LINE
  5
1B04
  8
247
 10
-65.112498555797075
 20
3.25631102413434
 30
0.0
 11
-64.808016541559226
 21
3.5607930383721889
 31
0.0
  0
LINE
  5
1B05
  8
247
 10
-63.603957543936893
 20
5.1016116405345988
 30
0.0
 11
-63.356568900279733
 21
5.3490002841917743
 31
0.0
  0
LINE
  5
1B06
  8
247
 10
-65.449258160337166
 20
3.25631102413434
 30
0.0
 11
-65.146127064622959
 21
3.5594421198485402
 31
0.0
  0
LINE
  5
1B07
  8
247
 10
-63.684137342566203
 20
5.3581914464453737
 30
0.0
 11
-63.456877970507037
 21
5.5854508185045404
 31
0.0
  0
LINE
  5
1B08
  8
247
 10
-65.786017764877244
 20
3.25631102413434
 30
0.0
 11
-65.482886669163037
 21
3.5594421198485402
 31
0.0
  0
LINE
  5
1B09
  8
247
 10
-63.803799725790107
 20
5.5752886677615896
 30
0.0
 11
-63.586446154241337
 21
5.7926422393103527
 31
0.0
  0
LINE
  5
1B0A
  8
247
 10
-66.122777369417335
 20
3.256311024134348
 30
0.0
 11
-65.819646273703157
 21
3.5594421198485469
 31
0.0
  0
LINE
  5
1B0B
  8
247
 10
-63.956588040660762
 20
5.759259957431027
 30
0.0
 11
-63.742241949078263
 21
5.9736060490135179
 31
0.0
  0
LINE
  5
1B0C
  8
247
 10
-66.459536973957455
 20
3.25631102413434
 30
0.0
 11
-66.156405878243234
 21
3.5594421198485469
 31
0.0
  0
LINE
  5
1B0D
  8
247
 10
-64.14076969470716
 20
5.9118379079247196
 30
0.0
 11
-63.923375024713209
 21
6.1292325779186561
 31
0.0
  0
LINE
  5
1B0E
  8
247
 10
-66.796296578497532
 20
3.25631102413434
 30
0.0
 11
-66.493165482783311
 21
3.5594421198485611
 31
0.0
  0
LINE
  5
1B0F
  8
247
 10
-64.358101554294635
 20
6.0312656528773161
 30
0.0
 11
-64.130747976735336
 21
6.2586192304366364
 31
0.0
  0
LINE
  5
1B10
  8
247
 10
-67.133056183037624
 20
3.256311024134348
 30
0.0
 11
-66.829925087323417
 21
3.559442119848554
 31
0.0
  0
LINE
  5
1B11
  8
247
 10
-64.614981655436253
 20
6.1111451562758097
 30
0.0
 11
-64.367409585280882
 21
6.3587172264311951
 31
0.0
  0
LINE
  5
1B12
  8
247
 10
-67.469815787577716
 20
3.256311024134348
 30
0.0
 11
-67.166684691863509
 21
3.559442119848554
 31
0.0
  0
LINE
  5
1B13
  8
247
 10
-64.928312689273838
 20
6.1345737269783172
 30
0.0
 11
-64.63999374459631
 21
6.4228926716558439
 31
0.0
  0
LINE
  5
1B14
  8
247
 10
-67.806575392117793
 20
3.256311024134348
 30
0.0
 11
-67.5034442964036
 21
3.559442119848554
 31
0.0
  0
LINE
  5
1B15
  8
247
 10
-65.210479216786183
 20
6.1891668040060486
 30
0.0
 11
-64.963404104010337
 21
6.4362419167818947
 31
0.0
  0
LINE
  5
1B16
  8
247
 10
-68.143334996657899
 20
3.256311024134348
 30
0.0
 11
-67.840203900943678
 21
3.5594421198485611
 31
0.0
  0
LINE
  5
1B17
  8
247
 10
-68.480094601198005
 20
3.256311024134348
 30
0.0
 11
-68.176963505483769
 21
3.5594421198485691
 31
0.0
  0
LINE
  5
1B18
  8
247
 10
-68.816854205738096
 20
3.256311024134348
 30
0.0
 11
-68.513723110023875
 21
3.5594421198485691
 31
0.0
  0
LINE
  5
1B19
  8
247
 10
-69.153613810278159
 20
3.2563110241343618
 30
0.0
 11
-68.850482714563952
 21
3.5594421198485691
 31
0.0
  0
LINE
  5
1B1A
  8
247
 10
-69.490373414818265
 20
3.2563110241343618
 30
0.0
 11
-69.187242319104058
 21
3.5594421198485611
 31
0.0
  0
LINE
  5
1B1B
  8
247
 10
-69.827133019358357
 20
3.2563110241343618
 30
0.0
 11
-69.524001923644164
 21
3.5594421198485611
 31
0.0
  0
LINE
  5
1B1C
  8
247
 10
-70.163892623898448
 20
3.2563110241343689
 30
0.0
 11
-69.860761528184241
 21
3.5594421198485611
 31
0.0
  0
LINE
  5
1B1D
  8
247
 10
-70.500652228438526
 20
3.2563110241343551
 30
0.0
 11
-70.197521132724304
 21
3.5594421198485691
 31
0.0
  0
LINE
  5
1B1E
  8
247
 10
-70.837411832978631
 20
3.2563110241343618
 30
0.0
 11
-70.534280737264424
 21
3.5594421198485691
 31
0.0
  0
LINE
  5
1B1F
  8
247
 10
-71.167379777774386
 20
3.2631026838787061
 30
0.0
 11
-70.87104034180453
 21
3.5594421198485691
 31
0.0
  0
LINE
  5
1B20
  8
247
 10
-71.45146894005029
 20
3.3157731261428931
 30
0.0
 11
-71.195816804197563
 21
3.5714252619956142
 31
0.0
  0
LINE
  5
1B21
  8
247
 10
-71.696830893428526
 20
3.4071707773047559
 30
0.0
 11
-71.465330762576855
 21
3.6386709081564201
 31
0.0
  0
LINE
  5
1B22
  8
247
 10
-71.911590854019863
 20
3.5291704212535171
 30
0.0
 11
-71.69229982567748
 21
3.7484614495958999
 31
0.0
  0
LINE
  5
1B23
  8
247
 10
-72.099542128015884
 20
3.677978751797589
 30
0.0
 11
-71.884980577665459
 21
3.8925403021480132
 31
0.0
  0
LINE
  5
1B24
  8
247
 10
-72.262092812407133
 20
3.8521876719464099
 30
0.0
 11
-72.046146683956096
 21
4.0681338003974536
 31
0.0
  0
LINE
  5
1B25
  8
247
 10
-72.398834318737613
 20
4.0522057701560419
 30
0.0
 11
-72.175008318444497
 21
4.2760317704491513
 31
0.0
  0
LINE
  5
1B26
  8
247
 10
-70.651765724258084
 20
6.1360339691756494
 30
0.0
 11
-70.412952645070732
 21
6.3748470483630149
 31
0.0
  0
LINE
  5
1B27
  8
247
 10
-72.507384361580336
 20
4.280415331853419
 30
0.0
 11
-72.266710516595964
 21
4.5210891768377692
 31
0.0
  0
LINE
  5
1B28
  8
247
 10
-70.988525328798175
 20
6.1360339691756556
 30
0.0
 11
-70.685394225282565
 21
6.4391650726912744
 31
0.0
  0
LINE
  5
1B29
  8
247
 10
-72.582339044887561
 20
4.5422202530862839
 30
0.0
 11
-72.308421887640378
 21
4.8161374103334529
 31
0.0
  0
LINE
  5
1B2A
  8
247
 10
-71.375020731736811
 20
6.0862981707771331
 30
0.0
 11
-71.022154675783582
 21
6.4391642267303482
 31
0.0
  0
LINE
  5
1B2B
  8
247
 10
-72.611939774216324
 20
4.8493791282975991
 30
0.0
 11
-72.259073718263124
 21
5.2022451842508133
 31
0.0
  0
LINE
  5
1B2C
  8
247
 10
-72.564445261829093
 20
5.2336332452249357
 30
0.0
 11
-71.40640879271092
 21
6.3916697143431094
 31
0.0
  0
LINE
  5
1B2D
  8
247
 10
-65.847324527981485
 20
3.8685234701102891
 30
0.0
 11
-65.563143693769049
 21
4.1527043043227394
 31
0.0
  0
LINE
  5
1B2E
  8
247
 10
-66.337003071294816
 20
3.715604531337064
 30
0.0
 11
-65.427757652891302
 21
4.6248499497405566
 31
0.0
  0
LINE
  5
1B2F
  8
247
 10
-66.193987648746685
 20
4.1953795584252944
 30
0.0
 11
-65.292371612013596
 21
5.0969955951583819
 31
0.0
  0
LINE
  5
1B30
  8
247
 10
-66.653246646582772
 20
3.7361205605891921
 30
0.0
 11
-66.297365768753053
 21
4.0920014384188974
 31
0.0
  0
LINE
  5
1B31
  8
247
 10
-66.041231709434015
 20
4.6848951022780412
 30
0.0
 11
-65.469159309821578
 21
5.256967501890486
 31
0.0
  0
LINE
  5
1B32
  8
247
 10
-66.89802889172816
 20
3.82809791998391
 30
0.0
 11
-66.633342216855539
 21
4.092784594856532
 31
0.0
  0
LINE
  5
1B33
  8
247
 10
-66.109050017877266
 20
4.9538363983748681
 30
0.0
 11
-65.805918914361655
 21
5.2569675018904931
 31
0.0
  0
LINE
  5
1B34
  8
247
 10
-67.095300591445593
 20
3.9675858248065619
 30
0.0
 11
-66.774262190112225
 21
4.2886242261399303
 31
0.0
  0
LINE
  5
1B35
  8
247
 10
-65.362863829749571
 20
6.0367821910426684
 30
0.0
 11
-65.33130315416804
 21
6.0683428666241994
 31
0.0
  0
LINE
  5
1B36
  8
247
 10
-67.251115296779517
 20
4.1485307240127147
 30
0.0
 11
-66.698921227081712
 21
4.7007247937105268
 31
0.0
  0
LINE
  5
1B37
  8
247
 10
-65.783996613603591
 20
5.9524090117287614
 30
0.0
 11
-65.412036801021941
 21
6.3243688243103966
 31
0.0
  0
LINE
  5
1B38
  8
247
 10
-67.362984673554621
 20
4.3734209517777174
 30
0.0
 11
-66.563534726007617
 21
5.1728708993247201
 31
0.0
  0
LINE
  5
1B39
  8
247
 10
-65.977359411718709
 20
6.0958058181537282
 30
0.0
 11
-65.750376907183977
 21
6.3227883226884671
 31
0.0
  0
LINE
  5
1B3A
  8
247
 10
-67.416558098549885
 20
4.6566071313225592
 30
0.0
 11
-66.42814822493358
 21
5.6450170049388708
 31
0.0
  0
LINE
  5
1B3B
  8
247
 10
-67.368841006367063
 20
5.0410838280454584
 30
0.0
 11
-65.995495276597424
 21
6.4144295578150974
 31
0.0
  0
LINE
  5
1B3C
  8
247
 10
-67.257039234998246
 20
5.4896452039543879
 30
0.0
 11
-66.312352082915027
 21
6.4343323560375998
 31
0.0
  0
LINE
  5
1B3D
  8
240
  6
CONTINUOUS
 10
-17.74999999999994
 20
8.0
 30
0.0
 11
-177.99999999999989
 21
8.0
 31
0.0
1001
GRPNAME
1000
PASTMD01
  0
LINE
  5
1B3E
  8
240
  6
CONTINUOUS
 10
-17.74999999999994
 20
-8.0
 30
0.0
 11
-177.99999999999989
 21
-8.0
 31
0.0
1001
GRPNAME
1000
PASTMD01
  0
LINE
  5
1B3F
  8
245
 10
3.228045572302618
 20
0.0
 30
0.0
 11
-184.3216659952401
 21
0.0
 31
0.0
1001
GRPNAME
1000
PASTMD01
  0
ARC
  5
1B40
  8
241
  6
CONTINUOUS
 10
-18.74873734152925
 20
16.627416997968389
 30
0.0
 40
24.560566550878811
 50
311.4985666391168
 51
318.50143341666683
1001
GRPNAME
1000
PASTMD06
  0
LINE
  5
1B41
  8
241
  6
CONTINUOUS
 10
-2.4748737341539342
 20
-1.7677669529654121
 30
0.0
 11
-12.24264068711971
 21
8.0000000000000266
 31
0.0
1001
GRPNAME
1000
PASTMD06
  0
LINE
  5
1B42
  8
240
  6
CONTINUOUS
 10
-8.0000000000003411
 20
8.0000000000000266
 30
0.0
 11
0.0
 21
0.0
 31
0.0
1001
GRPNAME
1000
PASTMD02
  0
LINE
  5
1B43
  8
240
  6
CONTINUOUS
 10
0.0
 20
0.0
 30
0.0
 11
-8.0000000000003961
 21
-7.9999999999999707
 31
0.0
1001
GRPNAME
1000
PASTMD02
  0
LINE
  5
1B44
  8
241
  6
CONTINUOUS
 10
-17.49999999999994
 20
7.75
 30
0.0
 11
-17.49999999999994
 21
-7.75
 31
0.0
1001
GRPNAME
1000
PASTMD02
  0
LINE
  5
1B45
  8
240
  6
CONTINUOUS
 10
-8.0000000000003961
 20
-7.9999999999999707
 30
0.0
 11
-17.25
 21
-7.9999999999999432
 31
0.0
1001
GRPNAME
1000
PASTMD02
  0
LINE
  5
1B46
  8
240
  6
CONTINUOUS
 10
-17.25
 20
-7.9999999999999432
 30
0.0
 11
-17.5
 21
-7.7499999999999432
 31
0.0
1001
GRPNAME
1000
PASTMD02
  0
LINE
  5
1B47
  8
240
  6
CONTINUOUS
 10
-17.74999999999994
 20
-8.0
 30
0.0
 11
-17.49999999999994
 21
-7.75
 31
0.0
1001
GRPNAME
1000
PASTMD02
  0
LINE
  5
1B48
  8
240
  6
CONTINUOUS
 10
-8.0000000000003411
 20
8.0000000000000266
 30
0.0
 11
-17.24999999999994
 21
8.0000000000000568
 31
0.0
1001
GRPNAME
1000
PASTMD02
  0
LINE
  5
1B49
  8
240
  6
CONTINUOUS
 10
-17.49999999999994
 20
7.750000000000056
 30
0.0
 11
-17.24999999999994
 21
8.0000000000000568
 31
0.0
1001
GRPNAME
1000
PASTMD02
  0
LINE
  5
1B4A
  8
240
  6
CONTINUOUS
 10
-17.49999999999994
 20
7.75
 30
0.0
 11
-17.74999999999994
 21
8.0
 31
0.0
1001
GRPNAME
1000
PASTMD02
  0
LINE
  5
1B4B
  8
240
  6
CONTINUOUS
 10
-179.99999999999989
 20
6.8452994616207672
 30
0.0
 11
-179.99999999999989
 21
-6.8452994616207707
 31
0.0
1001
GRPNAME
1000
PASTMD02
  0
LINE
  5
1B4C
  8
240
  6
CONTINUOUS
 10
-179.99999999999989
 20
6.8452994616207619
 30
0.0
 11
-177.99999999999989
 21
8.0000000000000124
 31
0.0
  0
LINE
  5
1B4D
  8
240
  6
CONTINUOUS
 10
-177.99999999999989
 20
-8.0
 30
0.0
 11
-179.99999999999989
 21
-6.8452994616207619
 31
0.0
  0
TEXT
  5
1B4E
  8
247
 10
-62.268265154449161
 20
3.6885065677128561
 30
0.0
 40
2.5
  1
ST16-CBY09016
  7
YOKO
 11
-62.268265154449161
 21
3.6885065677128561
 31
0.0
 73
     1
  0
LINE
  5
1B4F
  8
247
 10
-65.325990913146001
 20
6.0514964630721249
 30
0.0
 11
-65.417280433409672
 21
6.3409976532576717
 31
0.0
  0
ARC
  5
1B50
  8
247
 10
-64.866991279356924
 20
4.8477382233260391
 30
0.0
 40
1.2882993221282939
 50
110.8721834020772
 51
132.54194893738571
  0
ARC
  5
1B51
  8
247
 10
-66.056192634337407
 20
5.7874354889510391
 30
0.0
 40
0.3182875066995621
 50
1.7101213820643839
 51
163.9983983544484
  0
LINE
  5
1B52
  8
247
 10
-66.770681617491704
 20
4.4504680206893283
 30
0.0
 11
-66.36215042852686
 21
5.8751773407576859
 31
0.0
  0
ARC
  5
1B53
  8
247
 10
-66.464723823302251
 20
4.3627376129744757
 30
0.0
 40
0.3182872831821442
 50
164.0002730571839
 51
344.00027305718379
  0
LINE
  5
1B54
  8
247
 10
-66.158766029112797
 20
4.2750072052596391
 30
0.0
 11
-65.964113471739751
 21
4.9538363983748752
 31
0.0
  0
LINE
  5
1B55
  8
247
 10
-66.216387031310063
 20
4.9538363983748752
 30
0.0
 11
-65.964113471739751
 21
4.9538363983748752
 31
0.0
  0
LINE
  5
1B56
  8
247
 10
-66.216387031310063
 20
4.9538363983748752
 30
0.0
 11
-66.129469154112797
 21
5.2569675018905002
 31
0.0
  0
LINE
  5
1B57
  8
247
 10
-66.129469154112797
 20
5.2569675018905002
 30
0.0
 11
-65.246500251524907
 21
5.256967501890486
 31
0.0
  0
LINE
  5
1B58
  8
247
 10
-65.689798591368657
 20
3.7110076716063811
 30
0.0
 11
-65.246500251524907
 21
5.256967501890486
 31
0.0
  0
LINE
  5
1B59
  8
247
 10
-65.867616889708501
 20
3.888814525854428
 30
0.0
 11
-65.689798591368657
 21
3.7110076716063811
 31
0.0
  0
ARC
  5
1B5A
  8
247
 10
-66.432176826231938
 20
4.6961726715682257
 30
0.0
 40
0.9851760864257813
 50
163.99975070172729
 51
304.96387329163082
  0
ARC
  5
1B5B
  8
247
 10
-64.821466682188969
 20
4.6443767120955712
 30
0.0
 40
2.5780792236328121
 50
155.205177369842
 51
172.7948259620504
  0
ARC
  5
1B5C
  8
247
 10
-66.214876411192861
 20
5.4540004303572891
 30
0.0
 40
0.9851660728454588
 50
53.444012197055507
 51
164.0001843876851
  0
ARC
  5
1B5D
  8
247
 10
-64.866991279356924
 20
4.8477382233260391
 30
0.0
 40
1.5914275646209699
 50
110.22964506332001
 51
118.57168892371671
  0
LINE
  5
1B5E
  8
247
 10
-70.394510505431157
 20
6.4391650726912797
 30
0.0
 11
-70.481428382628422
 21
6.1360339691756547
 31
0.0
  0
LINE
  5
1B5F
  8
247
 10
-71.020513770812016
 20
6.4391650726912797
 30
0.0
 11
-70.394510505431157
 21
6.4391650726912797
 31
0.0
  0
LINE
  5
1B60
  8
247
 10
-71.020513770812016
 20
6.1360339691756547
 30
0.0
 11
-70.481428382628422
 21
6.1360339691756547
 31
0.0
  0
ARC
  5
1B61
  8
247
 10
-71.020513770812016
 20
4.8477382233260391
 30
0.0
 40
1.2882957458496089
 50
90.0
 51
270.0
  0
ARC
  5
1B62
  8
247
 10
-71.020513770812016
 20
4.8477382233260391
 30
0.0
 40
1.5914268493652339
 50
90.0
 51
270.0
  0
LINE
  5
1B63
  8
247
 10
-71.020513770812016
 20
3.2563110241343609
 30
0.0
 11
-64.866991279356924
 21
3.256311024134348
 31
0.0
  0
LINE
  5
1B64
  8
247
 10
-71.020513770812016
 20
3.5594421198485691
 30
0.0
 11
-64.866991279356924
 21
3.5594421198485531
 31
0.0
  0
ARC
  5
1B65
  8
247
 10
-64.866991279356924
 20
4.8477382233260391
 30
0.0
 40
1.5914268493652339
 50
270.0
 51
104.7707939660941
  0
ARC
  5
1B66
  8
247
 10
-64.866991279356924
 20
4.8477382233260391
 30
0.0
 40
1.2882957458496089
 50
270.0
 51
104.1274364964119
  0
LINE
  5
1B67
  8
247
 10
-65.181440589659672
 20
6.097078280699078
 30
0.0
 11
-65.272730109923359
 21
6.3865794708846249
 31
0.0
  0
LINE
  5
1B68
  8
247
 10
-68.007581947081547
 20
3.7110076716063811
 30
0.0
 11
-67.225298164122563
 21
6.4391650726912797
 31
0.0
  0
LINE
  5
1B69
  8
247
 10
-70.861452338927222
 20
3.7110076716063811
 30
0.0
 11
-70.166086433165859
 21
6.1360339691747736
 31
0.0
  0
LINE
  5
1B6A
  8
247
 10
-69.497491987949871
 20
4.5962308691631497
 30
0.0
 11
-68.503512312018444
 21
5.5902105450945783
 31
0.0
  0
LINE
  5
1B6B
  8
247
 10
-70.647759552906663
 20
4.45624211782666
 30
0.0
 11
-69.586670348646777
 21
5.5173313220865037
 31
0.0
  0
ARC
  5
1B6C
  8
247
 10
-69.594019172423359
 20
5.711652713072132
 30
0.0
 40
0.4546839594841005
 50
261.6626016879294
 51
66.338155095189762
  0
LINE
  5
1B6D
  8
247
 10
-69.615044837768352
 20
4.8154376238847458
 30
0.0
 11
-68.530296630168635
 21
5.9001858314844631
 31
0.0
  0
ARC
  5
1B6E
  8
247
 10
-69.255834815733891
 20
5.681348757994007
 30
0.0
 40
0.7578227519989014
 50
287.66957754739792
 51
90.236159842671626
  0
LINE
  5
1B6F
  8
247
 10
-70.512373931229661
 20
4.9283873440437258
 30
0.0
 11
-69.451289195676893
 21
5.9894720795964806
 31
0.0
  0
LINE
  5
1B70
  8
247
 10
-69.411536046855275
 20
6.1281108885171971
 30
0.0
 11
-69.659948578370262
 21
5.2617740444918004
 31
0.0
  0
LINE
  5
1B71
  8
247
 10
-68.68557572149561
 20
3.7110076716063811
 30
0.0
 11
-67.998895881407705
 21
6.1057300140975297
 31
0.0
  0
LINE
  5
1B72
  8
247
 10
-68.013658759825674
 20
6.4391650726912797
 30
0.0
 11
-67.225298164122563
 21
6.4391650726912797
 31
0.0
  0
LINE
  5
1B73
  8
247
 10
-69.347228909507066
 20
6.093532365766321
 30
0.0
 11
-69.034601429872737
 21
6.4061598454006514
 31
0.0
  0
LINE
  5
1B74
  8
247
 10
-69.187895623358799
 20
5.9161060473745133
 30
0.0
 11
-68.809913539815767
 21
6.294088130917542
 31
0.0
  0
LINE
  5
1B75
  8
247
 10
-70.236845252745439
 20
6.4391650726912797
 30
0.0
 11
-69.258958375560866
 21
6.4391650726911669
 31
0.0
  0
LINE
  5
1B76
  8
247
 10
-70.241602687875712
 20
5.8726777964778867
 30
0.0
 11
-69.675115411662347
 21
6.4391650726912228
 31
0.0
  0
LINE
  5
1B77
  8
247
 10
-70.323763129943217
 20
6.1360339691756547
 30
0.0
 11
-70.166086433165859
 21
6.1360339691747736
 31
0.0
  0
LINE
  5
1B78
  8
247
 10
-70.236845252745439
 20
6.4391650726912797
 30
0.0
 11
-70.323763129943217
 21
6.1360339691756547
 31
0.0
  0
LINE
  5
1B79
  8
247
 10
-70.315006119718049
 20
6.136033969175628
 30
0.0
 11
-70.011875016202424
 21
6.439165072691253
 31
0.0
  0
LINE
  5
1B7A
  8
247
 10
-69.149042822383279
 20
5.6181992438099542
 30
0.0
 11
-68.641782184817288
 21
6.1254598813759449
 31
0.0
  0
LINE
  5
1B7B
  8
247
 10
-70.376988309552672
 20
5.4005325702607934
 30
0.0
 11
-69.338355807122298
 21
6.4391650726911669
 31
0.0
  0
LINE
  5
1B7C
  8
247
 10
-68.109274146788565
 20
6.1057300140975297
 30
0.0
 11
-67.998895881407705
 21
6.1057300140975297
 31
0.0
  0
LINE
  5
1B7D
  8
247
 10
-68.109274146788565
 20
6.1057300140975297
 30
0.0
 11
-68.013658759825674
 21
6.4391650726912797
 31
0.0
  0
LINE
  5
1B7E
  8
247
 10
-70.045955580966563
 20
3.7110076716063811
 30
0.0
 11
-68.933698641108862
 21
4.823264611464082
 31
0.0
  0
ARC
  5
1B7F
  8
247
 10
-69.603517768614751
 20
4.468824343931507
 30
0.0
 40
0.7578163146972659
 50
270.0
 51
40.329840654168393
  0
LINE
  5
1B80
  8
247
 10
-69.709195976426443
 20
3.7110076716063531
 30
0.0
 11
-68.852217259067444
 21
4.5679863889653793
 31
0.0
  0
LINE
  5
1B81
  8
247
 10
-70.783145174583609
 20
3.984096891609596
 30
0.0
 11
-69.500565703161158
 21
5.2666763630320466
 31
0.0
  0
ARC
  5
1B82
  8
247
 10
-69.941702125304204
 20
4.4991397431014288
 30
0.0
 40
0.4546969681978227
 50
261.66285421114878
 51
66.338192159110065
  0
LINE
  5
1B83
  8
247
 10
-69.759215381810947
 20
4.9156105359999156
 30
0.0
 11
-70.007632000026007
 21
4.0492479955582592
 31
0.0
  0
LINE
  5
1B84
  8
247
 10
-70.719474790046732
 20
3.7110076716063811
 30
0.0
 11
-69.857442383363093
 21
4.5730400782900329
 31
0.0
  0
LINE
  5
1B85
  8
247
 10
-69.315618814374176
 20
3.7678252291185559
 30
0.0
 11
-68.90251865380182
 21
4.1809253896909118
 31
0.0
  0
LINE
  5
1B86
  8
247
 10
-70.861452338927222
 20
3.7110076716063811
 30
0.0
 11
-69.603517768614751
 21
3.7110076716063811
 31
0.0
  0
LINE
  5
1B87
  8
247
 10
-70.382715185506669
 20
3.7110076716063811
 30
0.0
 11
-69.992821029135001
 21
4.1009018279780491
 31
0.0
  0
LINE
  5
1B88
  8
247
 10
-68.68557572149561
 20
3.7110076716063811
 30
0.0
 11
-68.007581947081547
 21
3.7110076716063811
 31
0.0
  0
ENDBLK
  5
1B8B
  8
0
  0
ENDSEC
  0
SECTION
  2
ENTITIES
  0
TEXT
  5
1529
  8
241
 10
-175.0
 20
49.0
 30
0.0
 40
5.0
  1
ST16-CBY09016
  7
YOKO
  0
LINE
  5
19AB
  8
250
 10
0.3535533905932807
 20
-0.3535533905932668
 30
0.0
 11
10.606601717798419
 21
-10.606601717798
 31
0.0
  0
LINE
  5
19AC
  8
250
 10
0.3535533905932833
 20
0.3535533905932642
 30
0.0
 11
10.606601717798499
 21
10.60660171779792
 31
0.0
  0
ARC
  5
19AD
  8
250
 10
0.0
 20
0.0
 30
0.0
 40
14.0
 50
324.13607491042131
 51
35.863925089578323
  0
LINE
  5
19B1
  8
250
 10
-7.5000000000003411
 20
8.0000000000000266
 30
0.0
 11
22.0
 21
8.0000000000000195
 31
0.0
  0
LINE
  5
19B2
  8
250
 10
-7.500000000000397
 20
-7.9999999999999707
 30
0.0
 11
22.0
 21
-7.9999999999999813
 31
0.0
  0
LINE
  5
19B3
  8
250
 10
21.0
 20
5.7700000000000191
 30
0.0
 11
21.0
 21
-5.7699999999999783
 31
0.0
  0
LINE
  5
19B7
  8
250
 10
-178.49999999999989
 20
8.0000000000000124
 30
0.0
 11
-190.0
 21
8.0000000000000178
 31
0.0
  0
LINE
  5
19B8
  8
250
 10
-178.49999999999989
 20
-7.9999999999999991
 30
0.0
 11
-190.0
 21
-7.9999999999999956
 31
0.0
  0
LINE
  5
19B9
  8
250
 10
-189.0
 20
5.7700000000000182
 30
0.0
 11
-189.0
 21
-5.769999999999996
 31
0.0
  0
LINE
  5
19BD
  8
250
 10
-179.99999999999989
 20
7.3452994616207619
 30
0.0
 11
-179.99999999999989
 21
36.0
 31
0.0
  0
LINE
  5
19BE
  8
250
 10
0.0
 20
0.5
 30
0.0
 11
0.0000000000000022
 21
36.0
 31
0.0
  0
LINE
  5
19BF
  8
250
 10
-177.7699999999999
 20
35.0
 30
0.0
 11
-2.229999999999996
 21
35.0
 31
0.0
  0
TEXT
  5
19C3
  8
250
 10
-94.199999999999974
 20
36.0
 30
0.0
 40
2.799999999999998
  1
180
1001
ACAD
1000
MTEXTBEGIN
1070
    73
1070
     1
1070
    44
1040
1.0
1070
    74
1070
     0
1000
MTEXTEND
  0
LINE
  5
19C4
  8
250
 10
-2.229999999999996
 20
35.37166666666667
 30
0.0
 11
0.0000000000000021
 21
35.0
 31
0.0
  0
LINE
  5
19C5
  8
250
 10
-2.229999999999996
 20
34.62833333333333
 30
0.0
 11
0.0000000000000021
 21
35.0
 31
0.0
  0
LINE
  5
19C6
  8
250
 10
0.0000000000000021
 20
35.0
 30
0.0
 11
-2.229999999999996
 21
35.0
 31
0.0
  0
LINE
  5
19C7
  8
250
 10
-177.7699999999999
 20
34.62833333333333
 30
0.0
 11
-179.99999999999989
 21
35.0
 31
0.0
  0
LINE
  5
19C8
  8
250
 10
-177.7699999999999
 20
35.37166666666667
 30
0.0
 11
-179.99999999999989
 21
35.0
 31
0.0
  0
LINE
  5
19C9
  8
250
 10
-179.99999999999989
 20
35.0
 30
0.0
 11
-177.7699999999999
 21
35.0
 31
0.0
  0
TEXT
  5
19CA
  8
250
 10
-190.0
 20
-3.800000000000018
 30
0.0
 40
2.799999999999998
  1
\U+220516
 50
90.0
1001
ACAD
1000
MTEXTBEGIN
1070
    73
1070
     1
1070
    44
1040
1.0
1070
    74
1070
     0
1000
MTEXTEND
  0
LINE
  5
19CB
  8
250
 10
-188.6283333333333
 20
-5.7699999999999969
 30
0.0
 11
-189.0
 21
-7.9999999999999973
 31
0.0
  0
LINE
  5
19CC
  8
250
 10
-189.37166666666661
 20
-5.7699999999999969
 30
0.0
 11
-189.0
 21
-7.9999999999999973
 31
0.0
  0
LINE
  5
19CD
  8
250
 10
-189.0
 20
-7.9999999999999973
 30
0.0
 11
-189.0
 21
-5.7699999999999969
 31
0.0
  0
LINE
  5
19CE
  8
250
 10
-189.37166666666661
 20
5.7700000000000191
 30
0.0
 11
-189.0
 21
8.0000000000000178
 31
0.0
  0
LINE
  5
19CF
  8
250
 10
-188.6283333333333
 20
5.7700000000000191
 30
0.0
 11
-189.0
 21
8.0000000000000178
 31
0.0
  0
LINE
  5
19D0
  8
250
 10
-189.0
 20
8.0000000000000178
 30
0.0
 11
-189.0
 21
5.7700000000000191
 31
0.0
  0
TEXT
  5
19D1
  8
250
 10
20.0
 20
-3.7999999999999741
 30
0.0
 40
2.799999999999998
  1
\U+220516
 50
90.0
1001
ACAD
1000
MTEXTBEGIN
1070
    73
1070
     1
1070
    44
1040
1.0
1070
    74
1070
     0
1000
MTEXTEND
  0
LINE
  5
19D2
  8
250
 10
21.37166666666667
 20
-5.76999999999998
 30
0.0
 11
21.0
 21
-7.9999999999999778
 31
0.0
  0
LINE
  5
19D3
  8
250
 10
20.62833333333333
 20
-5.76999999999998
 30
0.0
 11
21.0
 21
-7.9999999999999778
 31
0.0
  0
LINE
  5
19D4
  8
250
 10
21.0
 20
-7.9999999999999778
 30
0.0
 11
21.0
 21
-5.76999999999998
 31
0.0
  0
LINE
  5
19D5
  8
250
 10
20.62833333333333
 20
5.77000000000002
 30
0.0
 11
21.0
 21
8.0000000000000195
 31
0.0
  0
LINE
  5
19D6
  8
250
 10
21.37166666666667
 20
5.77000000000002
 30
0.0
 11
21.0
 21
8.0000000000000195
 31
0.0
  0
LINE
  5
19D7
  8
250
 10
21.0
 20
8.0000000000000195
 30
0.0
 11
21.0
 21
5.77000000000002
 31
0.0
  0
TEXT
  5
19D8
  8
250
 10
12.999999999999989
 20
-4.5466666666667184
 30
0.0
 40
2.799999999999998
  1
90üï
 50
90.0
1001
ACAD
1000
MTEXTBEGIN
1070
    73
1070
     1
1070
    44
1040
1.0
1070
    74
1070
     0
1000
MTEXTEND
  0
LINE
  5
19D9
  8
250
 10
11.062845469261591
 20
7.961028622925534
 30
0.0
 11
9.8994949366119318
 21
9.8994949366113953
 31
0.0
  0
LINE
  5
19DA
  8
250
 10
11.62865343409757
 20
8.4431134612814187
 30
0.0
 11
9.8994949366119318
 21
9.8994949366113953
 31
0.0
  0
LINE
  5
19DB
  8
250
 10
9.8994949366119318
 20
9.8994949366113953
 30
0.0
 11
11.34574945167958
 21
8.2020710421034764
 31
0.0
  0
LINE
  5
19DC
  8
250
 10
11.62865343409751
 20
-8.4431134612815022
 30
0.0
 11
9.8994949366118572
 21
-9.8994949366114664
 31
0.0
  0
LINE
  5
19DD
  8
250
 10
11.06284546926153
 20
-7.9610286229256131
 30
0.0
 11
9.8994949366118572
 21
-9.8994949366114664
 31
0.0
  0
LINE
  5
19DE
  8
250
 10
9.8994949366118572
 20
-9.8994949366114664
 30
0.0
 11
11.34574945167952
 21
-8.2020710421035581
 31
0.0
  0
INSERT
  5
1B8C
  8
240
  2
A$C4604191F
 10
0.0
 20
0.0
 30
0.0
  0
VIEWPORT
  5
22
 67
     1
  8
0
 10
261.51769911504419
 20
148.5
 30
0.0
 40
523.0353982300885
 41
297.0
 68
     1
 69
     1
1001
ACAD
1000
MVIEW
1002
{
1070
    16
1010
0.0
1020
0.0
1030
0.0
1010
0.0
1020
0.0
1030
1.0
1040
0.0
1040
297.0
1040
261.51769911504419
1040
148.5
1040
50.0
1040
0.0
1040
0.0
1070
     0
1070
   100
1070
     1
1070
     1
1070
     0
1070
     0
1070
     0
1070
     0
1040
0.0
1040
0.0
1040
0.0
1040
1.0
1040
1.0
1040
10.0
1040
10.0
1070
     0
1002
{
1002
}
1002
}
1001
GENIUS_GENODEF_13
1002
{
1000
HIER
1070
     0
1002
}
1002
{
1000
MANEDIT
1070
     0
1002
}
1002
{
1000
NOSEL
1070
     0
1002
}
1002
{
1000
BEHIND
1070
     0
1002
}
1002
{
1000
OTHER
1070
     0
1002
}
1002
{
1000
REACTOR
1002
}
1001
GENIUS_GENOBJ-N-SDF_13
1002
{
1000
OWNER
1000
GEN
1002
}
1001
GENIUS_GENSCREG_15
1000
PF
1040
1.0
1000
DF
1040
1.0
1000
MIN
1011
0.0
1021
-0.0
1031
-0.0
1021
0.0
1031
0.0
1000
MAX
1011
523.0353982300885
1021
-0.0
1031
-0.0
1021
297.0
1031
0.0
1000
FLAGS
1070
     2
  0
ENDSEC
  0
EOF
