  0
SECTION
  2
HEADER
  9
$ACADVER
  1
AC1009
  9
$INSBASE
 10
0.0
 20
0.0
 30
0.0
  9
$EXTMIN
 10
-122.92592966030981
 20
-29.013030169286822
 30
-0.0000000349181948
  9
$EXTMAX
 10
17.74778308423458
 20
27.642153364113089
 30
0.0000000814935746
  9
$LIMMIN
 10
0.0
 20
0.0
  9
$LIMMAX
 10
297.0
 20
210.0
  9
$ORTHOMODE
 70
     0
  9
$REGENMODE
 70
     1
  9
$FILLMODE
 70
     1
  9
$QTEXTMODE
 70
     0
  9
$MIRRTEXT
 70
     1
  9
$DRAGMODE
 70
     2
  9
$LTSCALE
 40
10.0
  9
$OSMODE
 70
  2597
  9
$ATTMODE
 70
     1
  9
$TEXTSIZE
 40
3.0
  9
$TRACEWID
 40
1.0
  9
$TEXTSTYLE
  7
YOKO
  9
$CLAYER
  8
240
  9
$CELTYPE
  6
BYLAYER
  9
$CECOLOR
 62
   256
  9
$DIMSCALE
 40
1.0
  9
$DIMASZ
 40
2.2299999999999991
  9
$DIMEXO
 40
0.5
  9
$DIMDLI
 40
7.0
  9
$DIMRND
 40
0.0
  9
$DIMDLE
 40
0.0
  9
$DIMEXE
 40
1.0
  9
$DIMTP
 40
0.0
  9
$DIMTM
 40
0.01
  9
$DIMTXT
 40
2.7999999999999989
  9
$DIMCEN
 40
0.0
  9
$DIMTSZ
 40
0.0
  9
$DIMTOL
 70
     0
  9
$DIMLIM
 70
     0
  9
$DIMTIH
 70
     0
  9
$DIMTOH
 70
     0
  9
$DIMSE1
 70
     0
  9
$DIMSE2
 70
     0
  9
$DIMTAD
 70
     3
  9
$DIMZIN
 70
     9
  9
$DIMBLK
  1
OPEN
  9
$DIMASO
 70
     1
  9
$DIMSHO
 70
     1
  9
$DIMPOST
  1

  9
$DIMAPOST
  1

  9
$DIMALT
 70
     0
  9
$DIMALTD
 70
     2
  9
$DIMALTF
 40
25.399999999999999
  9
$DIMLFAC
 40
1.0
  9
$DIMTOFL
 70
     1
  9
$DIMTVP
 40
0.0
  9
$DIMTIX
 70
     1
  9
$DIMSOXD
 70
     0
  9
$DIMSAH
 70
     0
  9
$DIMBLK1
  1

  9
$DIMBLK2
  1

  9
$DIMSTYLE
  2
BIGT
  9
$DIMCLRD
 70
   256
  9
$DIMCLRE
 70
   256
  9
$DIMCLRT
 70
    40
  9
$DIMTFAC
 40
1.0
  9
$DIMGAP
 40
1.0
  9
$LUNITS
 70
     2
  9
$LUPREC
 70
     3
  9
$SKETCHINC
 40
1.0
  9
$FILLETRAD
 40
0.0
  9
$AUNITS
 70
     0
  9
$AUPREC
 70
     3
  9
$MENU
  1
.
  9
$ELEVATION
 40
0.0
  9
$PELEVATION
 40
0.0
  9
$THICKNESS
 40
0.0
  9
$LIMCHECK
 70
     0
  9
$BLIPMODE
 70
     0
  9
$CHAMFERA
 40
0.25
  9
$CHAMFERB
 40
0.25
  9
$SKPOLY
 70
     0
  9
$TDCREATE
 40
2454089.7913471991
  9
$TDUPDATE
 40
2454090.3735333448
  9
$TDINDWG
 40
0.0213246875
  9
$TDUSRTIMER
 40
0.0213246875
  9
$USRTIMER
 70
     1
  9
$ANGBASE
 50
0.0
  9
$ANGDIR
 70
     0
  9
$PDMODE
 70
     1
  9
$PDSIZE
 40
0.0
  9
$PLINEWID
 40
0.0
  9
$COORDS
 70
     0
  9
$SPLFRAME
 70
     0
  9
$SPLINETYPE
 70
     6
  9
$SPLINESEGS
 70
     4
  9
$ATTDIA
 70
     1
  9
$ATTREQ
 70
     1
  9
$HANDLING
 70
     1
  9
$HANDSEED
  5
1A2F
  9
$SURFTAB1
 70
     6
  9
$SURFTAB2
 70
     6
  9
$SURFTYPE
 70
     6
  9
$SURFU
 70
     6
  9
$SURFV
 70
     6
  9
$UCSNAME
  2

  9
$UCSORG
 10
0.0
 20
0.0
 30
0.0
  9
$UCSXDIR
 10
1.0
 20
0.0
 30
0.0
  9
$UCSYDIR
 10
0.0
 20
1.0
 30
0.0
  9
$PUCSNAME
  2

  9
$PUCSORG
 10
0.0
 20
0.0
 30
0.0
  9
$PUCSXDIR
 10
1.0
 20
0.0
 30
0.0
  9
$PUCSYDIR
 10
0.0
 20
1.0
 30
0.0
  9
$USERI1
 70
     1
  9
$USERI2
 70
     0
  9
$USERI3
 70
     0
  9
$USERI4
 70
     0
  9
$USERI5
 70
     0
  9
$USERR1
 40
0.0
  9
$USERR2
 40
0.0
  9
$USERR3
 40
0.0
  9
$USERR4
 40
0.0
  9
$USERR5
 40
0.0
  9
$WORLDVIEW
 70
     1
  9
$SHADEDGE
 70
     3
  9
$SHADEDIF
 70
    70
  9
$TILEMODE
 70
     1
  9
$MAXACTVP
 70
    16
  9
$PLIMCHECK
 70
     0
  9
$PEXTMIN
 10
1.0000000000000000E+020
 20
1.0000000000000000E+020
 30
1.0000000000000000E+020
  9
$PEXTMAX
 10
-1.0000000000000000E+020
 20
-1.0000000000000000E+020
 30
-1.0000000000000000E+020
  9
$PLIMMIN
 10
0.0
 20
0.0
  9
$PLIMMAX
 10
420.0
 20
297.0
  9
$UNITMODE
 70
     0
  9
$VISRETAIN
 70
     1
  9
$PLINEGEN
 70
     0
  9
$PSLTSCALE
 70
     1
  0
ENDSEC
  0
SECTION
  2
TABLES
  0
TABLE
  2
VPORT
 70
     3
  0
VPORT
  2
*ACTIVE
 70
     0
 10
0.0
 20
0.0
 11
1.0
 21
1.0
 12
-52.589073288037639
 22
-0.6854384025868683
 13
0.0
 23
0.0
 14
7.0
 24
7.0
 15
7.0
 25
7.0
 16
0.0
 26
0.0
 36
1.0
 17
0.0
 27
0.0
 37
0.0
 40
95.575535457054954
 41
1.4791666666666661
 42
50.0
 43
0.0
 44
0.0
 50
0.0
 51
0.0
 71
     0
 72
  2000
 73
     1
 74
     0
 75
     0
 76
     0
 77
     0
 78
     0
  0
ENDTAB
  0
TABLE
  2
LTYPE
 70
    15
  0
LTYPE
  2
CONTINUOUS
 70
     0
  3
Solid line
 72
    65
 73
     0
 40
0.0
  0
LTYPE
  2
CENTER2
 70
     0
  3
___ _ ___ _ ___ _ ___ _ ___ _ ___ _ ___ _ ___ _
 72
    65
 73
     4
 40
1.125
 49
0.75
 49
-0.125
 49
0.125
 49
-0.125
  0
LTYPE
  2
HIDDEN2
 70
     0
  3
_ _ _ _ _ _ _ _ _ _ _ _ _ _ _ _ _ _ _ _ _ _ _ _
 72
    65
 73
     2
 40
0.1875
 49
0.125
 49
-0.0625
  0
LTYPE
  2
PHANTOM2
 70
     0
  3
___ _ _ ___ _ _ ___ _ _ ___ _ _ ___ _ _ ___ _ _
 72
    65
 73
     6
 40
1.25
 49
0.625
 49
-0.125
 49
0.125
 49
-0.125
 49
0.125
 49
-0.125
  0
LTYPE
  2
CENTER
 70
     0
  3
____ _ ____ _ ____ _ ____ _ ____ _ ____ _ ____ 
 72
    65
 73
     4
 40
2.0
 49
1.25
 49
-0.25
 49
0.25
 49
-0.25
  0
LTYPE
  2
AM_ISO02W050
 70
     0
  3
__ __ __ __ __ __ __ __ __ __ __ __ __ __ __
 72
    65
 73
     2
 40
7.5
 49
6.0
 49
-1.5
  0
LTYPE
  2
AMCONSTR
 70
     0
  3
_______________________
 72
    65
 73
     2
 40
9999.0
 49
9999.0
 49
0.0
  0
LTYPE
  2
ACISOWELD
 70
     0
  3
_ _ _ _ _
 72
    65
 73
     2
 40
2.0
 49
2.0
 49
-1.0
  0
LTYPE
  2
ACISOTGB
 70
     0
  3
__ . . __ . .
 72
    65
 73
     6
 40
9.0
 49
4.0
 49
-1.0
 49
1.0
 49
-1.0
 49
1.0
 49
-1.0
  0
LTYPE
  2
ACISOTGL
 70
     0
  3
_ _ _ _ _
 72
    65
 73
     2
 40
3.0
 49
2.0
 49
-1.0
  0
LTYPE
  2
ACJISTGB
 70
     0
  3
__ . . __ . .
 72
    65
 73
     6
 40
9.0
 49
4.0
 49
-1.0
 49
1.0
 49
-1.0
 49
1.0
 49
-1.0
  0
LTYPE
  2
ACJISTGL
 70
     0
  3
_ _ _ _ _
 72
    65
 73
     2
 40
3.0
 49
2.0
 49
-1.0
  0
LTYPE
  2
HIDDEN
 70
     0
  3
Hidden __ __ __ __ __ __ __ __ __ __ __ __ __ _
 72
    65
 73
     2
 40
9.5249999999999986
 49
6.3499999999999988
 49
-3.1749999999999989
  0
ENDTAB
  0
TABLE
  2
LAYER
 70
     8
  0
LAYER
  2
0
 70
     0
 62
     7
  6
CONTINUOUS
  0
LAYER
  2
DEFPOINTS
 70
     0
 62
     7
  6
CONTINUOUS
  0
LAYER
  2
245
 70
     0
 62
     2
  6
CENTER2
  0
LAYER
  2
240
 70
     0
 62
     4
  6
CONTINUOUS
  0
LAYER
  2
241
 70
     0
 62
   211
  6
CONTINUOUS
  0
LAYER
  2
246
 70
     0
 62
     3
  6
PHANTOM2
  0
LAYER
  2
247
 70
     0
 62
    60
  6
CONTINUOUS
  0
LAYER
  2
250
 70
     0
 62
     3
  6
CONTINUOUS
  0
ENDTAB
  0
TABLE
  2
STYLE
 70
     8
  0
STYLE
  2
STANDARD
 70
     0
 40
0.0
 41
1.0
 50
0.0
 71
     0
 42
3.0
  3
romans.shx
  4
extfont.shx
  0
STYLE
  2
ACISOTS
 70
     0
 40
1.0
 41
1.0
 50
0.0
 71
     0
 42
3.0
  3
amgdt.shx
  4
extfont.shx
  0
STYLE
  2
ACISOGDT
 70
     0
 40
0.0
 41
1.0
 50
0.0
 71
     0
 42
3.0
  3
amgdt.shx
  4
extfont.shx
  0
STYLE
  2
ACJISTS
 70
     0
 40
1.0
 41
1.0
 50
0.0
 71
     0
 42
3.0
  3
amgdt.shx
  4
extfont.shx
  0
STYLE
  2
ACJISGDT
 70
     0
 40
0.0
 41
1.0
 50
0.0
 71
     0
 42
3.0
  3
amgdt.shx
  4
extfont.shx
  0
STYLE
  2
YOKO
 70
     0
 40
0.0
 41
1.0
 50
0.0
 71
     0
 42
3.0
  3
romans.shx
  4
extfont.shx
  0
ENDTAB
  0
TABLE
  2
VIEW
 70
     0
  0
ENDTAB
  0
TABLE
  2
UCS
 70
     0
  0
ENDTAB
  0
TABLE
  2
APPID
 70
    31
  0
APPID
  2
ACAD
 70
     0
  0
APPID
  2
GLOBAL
 70
     0
  0
APPID
  2
DETAIL
 70
     0
  0
APPID
  2
GRPNAME
 70
     0
  0
APPID
  2
GPARA
 70
     0
  0
APPID
  2
MCAD_NO_VIS
 70
     0
  0
APPID
  2
ACAD_TEMP_GRAPHIC
 70
     0
  0
APPID
  2
ACATTRIBSERVICES
 70
     0
  0
APPID
  2
GENIUS_GENSCREG_15
 70
     0
  0
APPID
  2
GENIUS_GENODEF_13
 70
     0
  0
APPID
  2
GENIUS_GENOBJ-N-SDF_13
 70
     0
  0
APPID
  2
GENIUS_GENREC_14
 70
     0
  0
APPID
  2
GENIUS_GENOBJ-N-REC_13
 70
     0
  0
APPID
  2
GENIUS_GENDIMSH_14
 70
     0
  0
APPID
  2
GENIUS_GENOBJ-N-DIM_13
 70
     0
  0
APPID
  2
GENIUS_GENDIM_13
 70
     0
  0
APPID
  2
GENIUS_GENDTOL_13
 70
     0
  0
APPID
  2
GENIUS_GENOLIS_13
 70
     0
  0
APPID
  2
GENIUS_GENOENT_13
 70
     0
  0
APPID
  2
GENIUS_GENOBJ-F-FEM_13
 70
     0
  0
APPID
  2
GENIUS_GENOREF_13
 70
     0
  0
APPID
  2
GENIUS_GEFFEM_13
 70
     0
  0
APPID
  2
GENIUS_GEFFEMP_13
 70
     0
  0
APPID
  2
AD_DRAW
 70
     0
  0
APPID
  2
DESIGNERASSEMBLIES
 70
     0
  0
APPID
  2
ACADM_DIM_EDIT
 70
     0
  0
APPID
  2
AMDT_DM_ADJ
 70
     0
  0
APPID
  2
GENIUS_GENOBJ-N-FIL_13
 70
     0
  0
APPID
  2
HATCH_TYPE
 70
     0
  0
APPID
  2
HATCH_DISPLAY
 70
     0
  0
APPID
  2
HATCH_DISTANCE
 70
     0
  0
ENDTAB
  0
TABLE
  2
DIMSTYLE
 70
    29
  0
DIMSTYLE
  2
BIGT
 70
     0
  3

  4

  5
OPEN
  6

  7

 40
1.0
 41
2.2299999999999991
 42
0.5
 43
7.0
 44
1.0
 45
0.0
 46
0.0
 47
0.0
 48
0.01
140
2.7999999999999989
141
0.0
142
0.0
143
25.399999999999999
144
1.0
145
0.0
146
1.0
147
1.0
 71
     0
 72
     0
 73
     0
 74
     0
 75
     0
 76
     0
 77
     3
 78
     9
170
     0
171
     2
172
     1
173
     0
174
     1
175
     0
176
   256
177
   256
178
    40
  0
DIMSTYLE
  2
AM_ISO
 70
     0
  3

  4
"
  5

  6

  7

 40
1.0
 41
2.5
 42
1.0
 43
10.0
 44
1.0
 45
0.0
 46
0.0
 47
0.1
 48
0.1
140
3.5
141
0.0
142
0.0
143
0.0393701
144
1.0
145
0.0
146
0.71
147
1.5
 71
     0
 72
     0
 73
     0
 74
     0
 75
     0
 76
     0
 77
     1
 78
     8
170
     0
171
     2
172
     1
173
     0
174
     0
175
     0
176
   256
177
   256
178
     2
  0
DIMSTYLE
  2
AM_ISO$3
 70
     0
  3

  4
"
  5

  6

  7

 40
1.0
 41
2.5
 42
1.0
 43
10.0
 44
1.0
 45
0.0
 46
0.0
 47
0.1
 48
0.1
140
3.5
141
0.0
142
0.0
143
0.0393701
144
1.0
145
0.0
146
0.71
147
1.5
 71
     0
 72
     0
 73
     0
 74
     1
 75
     0
 76
     0
 77
     1
 78
     8
170
     0
171
     2
172
     0
173
     0
174
     0
175
     0
176
   256
177
   256
178
     2
  0
DIMSTYLE
  2
AM_ISO$4
 70
     0
  3

  4
"
  5

  6

  7

 40
1.0
 41
2.5
 42
1.0
 43
10.0
 44
1.0
 45
0.0
 46
0.0
 47
0.1
 48
0.1
140
3.5
141
0.0
142
0.0
143
0.0393701
144
1.0
145
0.0
146
0.71
147
1.5
 71
     0
 72
     0
 73
     0
 74
     1
 75
     0
 76
     0
 77
     1
 78
     8
170
     0
171
     2
172
     0
173
     0
174
     0
175
     0
176
   256
177
   256
178
     2
  0
DIMSTYLE
  2
AM_ISO$6
 70
     0
  3

  4
"
  5

  6

  7

 40
1.0
 41
2.5
 42
1.0
 43
10.0
 44
1.0
 45
0.0
 46
0.0
 47
0.1
 48
0.1
140
3.5
141
0.0
142
0.0
143
0.0393701
144
1.0
145
0.0
146
0.71
147
1.5
 71
     0
 72
     0
 73
     0
 74
     0
 75
     0
 76
     0
 77
     0
 78
     8
170
     0
171
     2
172
     1
173
     0
174
     0
175
     0
176
   256
177
   256
178
     2
  0
DIMSTYLE
  2
AM_ISO$7
 70
     0
  3

  4
"
  5

  6

  7

 40
1.0
 41
2.5
 42
1.0
 43
10.0
 44
1.0
 45
0.0
 46
0.0
 47
0.1
 48
0.1
140
5.0
141
0.0
142
0.0
143
0.0393701
144
1.0
145
0.0
146
0.71
147
1.5
 71
     0
 72
     0
 73
     0
 74
     0
 75
     0
 76
     0
 77
     1
 78
     8
170
     0
171
     2
172
     1
173
     0
174
     0
175
     0
176
   256
177
   256
178
     2
  0
DIMSTYLE
  2
AM_ISO$SF
 70
     0
  3

  4
"
  5

  6

  7

 40
1.0
 41
2.5
 42
1.0
 43
10.0
 44
1.0
 45
0.0
 46
0.0
 47
0.1
 48
0.1
140
3.5
141
0.0
142
0.0
143
0.0393701
144
1.0
145
0.0
146
0.71
147
1.5
 71
     0
 72
     0
 73
     0
 74
     0
 75
     1
 76
     1
 77
     1
 78
     8
170
     0
171
     2
172
     1
173
     0
174
     0
175
     0
176
   256
177
   256
178
     2
  0
DIMSTYLE
  2
AM_ISO$SH
 70
     0
  3

  4
"
  5

  6
GENAXEH
  7

 40
1.0
 41
2.5
 42
1.0
 43
10.0
 44
1.0
 45
0.0
 46
0.0
 47
0.1
 48
0.1
140
3.5
141
0.0
142
0.0
143
0.0393701
144
2.0
145
0.0
146
0.71
147
1.5
 71
     0
 72
     0
 73
     0
 74
     0
 75
     1
 76
     1
 77
     1
 78
     8
170
     0
171
     2
172
     1
173
     1
174
     0
175
     0
176
   256
177
   256
178
     2
  0
DIMSTYLE
  2
BIGT$2
 70
     0
  3

  4

  5
OPEN
  6

  7

 40
1.0
 41
2.2299999999999991
 42
0.5
 43
7.0
 44
1.0
 45
0.0
 46
0.0
 47
0.0
 48
0.01
140
2.7999999999999989
141
0.0
142
0.0
143
25.399999999999999
144
1.0
145
0.0
146
1.0
147
1.0
 71
     0
 72
     0
 73
     0
 74
     0
 75
     0
 76
     0
 77
     3
 78
     9
170
     0
171
     2
172
     1
173
     0
174
     0
175
     0
176
   256
177
   256
178
    40
  0
DIMSTYLE
  2
BIGT$3
 70
     0
  3

  4

  5
OPEN
  6

  7

 40
1.0
 41
2.2299999999999991
 42
0.5
 43
2.5
 44
1.0
 45
0.0
 46
0.0
 47
0.0
 48
0.01
140
2.7999999999999989
141
0.0
142
0.0
143
25.399999999999999
144
1.0
145
0.0
146
1.0
147
1.0
 71
     0
 72
     0
 73
     0
 74
     0
 75
     0
 76
     0
 77
     3
 78
     9
170
     0
171
     2
172
     1
173
     0
174
     0
175
     0
176
   256
177
   256
178
    40
  0
DIMSTYLE
  2
BIGT$7
 70
     0
  3

  4

  5
OPEN
  6

  7

 40
0.0
 41
2.2299999999999991
 42
0.5
 43
7.0
 44
1.0
 45
0.0
 46
0.0
 47
0.0
 48
0.01
140
2.7999999999999989
141
0.0
142
0.0
143
25.399999999999999
144
1.0
145
0.0
146
1.0
147
1.0
 71
     0
 72
     0
 73
     0
 74
     0
 75
     0
 76
     0
 77
     3
 78
     9
170
     0
171
     2
172
     0
173
     0
174
     0
175
     0
176
   256
177
   256
178
    40
  0
DIMSTYLE
  2
BIGT$6
 70
     0
  3

  4

  5
OPEN
  6

  7

 40
1.0
 41
2.2299999999999991
 42
0.5
 43
2.5
 44
1.0
 45
0.0
 46
0.0
 47
0.0
 48
0.01
140
2.7999999999999989
141
0.0
142
0.0
143
25.399999999999999
144
1.0
145
0.0
146
1.0
147
1.0
 71
     0
 72
     0
 73
     0
 74
     0
 75
     0
 76
     0
 77
     3
 78
     9
170
     0
171
     2
172
     1
173
     0
174
     0
175
     0
176
   256
177
   256
178
    40
  0
DIMSTYLE
  2
BIGT$0
 70
     0
  3

  4

  5
OPEN
  6

  7

 40
1.0
 41
2.2299999999999991
 42
0.5
 43
7.0
 44
1.0
 45
0.0
 46
0.0
 47
0.0
 48
0.01
140
2.7999999999999989
141
0.0
142
0.0
143
25.399999999999999
144
1.0
145
0.0
146
1.0
147
1.0
 71
     0
 72
     0
 73
     0
 74
     0
 75
     0
 76
     0
 77
     3
 78
     9
170
     0
171
     2
172
     1
173
     0
174
     0
175
     0
176
   256
177
   256
178
    40
  0
DIMSTYLE
  2
BIGT$4
 70
     0
  3

  4

  5
OPEN
  6

  7

 40
1.0
 41
2.2299999999999991
 42
0.5
 43
2.5
 44
1.0
 45
0.0
 46
0.0
 47
0.0
 48
0.01
140
2.7999999999999989
141
0.0
142
0.0
143
25.399999999999999
144
1.0
145
0.0
146
1.0
147
1.0
 71
     0
 72
     0
 73
     0
 74
     0
 75
     0
 76
     0
 77
     3
 78
     9
170
     0
171
     2
172
     1
173
     0
174
     0
175
     0
176
   256
177
   256
178
    40
  0
DIMSTYLE
  2
BIGT$SH
 70
     0
  3

  4

  5
OPEN
  6

  7

 40
1.0
 41
2.2299999999999991
 42
0.5
 43
7.0
 44
1.0
 45
0.0
 46
0.0
 47
0.0
 48
0.0
140
2.7999999999999989
141
0.0
142
0.0
143
25.399999999999999
144
1.0
145
0.0
146
1.0
147
1.0
 71
     0
 72
     0
 73
     0
 74
     0
 75
     0
 76
     0
 77
     3
 78
     9
170
     0
171
     2
172
     1
173
     0
174
     0
175
     0
176
   256
177
   256
178
    40
  0
DIMSTYLE
  2
BIGT$SF
 70
     0
  3

  4

  5
OPEN
  6

  7

 40
1.0
 41
2.2299999999999991
 42
0.5
 43
7.0
 44
1.0
 45
0.0
 46
0.0
 47
0.0
 48
0.0
140
2.7999999999999989
141
0.0
142
0.0
143
25.399999999999999
144
1.0
145
0.0
146
1.0
147
1.0
 71
     0
 72
     0
 73
     0
 74
     0
 75
     0
 76
     0
 77
     3
 78
     9
170
     0
171
     2
172
     1
173
     0
174
     0
175
     0
176
   256
177
   256
178
    40
  0
DIMSTYLE
  2
TECHNICAL_OSAKA
 70
     0
  3

  4
"
  5
OPEN30
  6

  7

 40
1.0
 41
2.5
 42
1.0
 43
10.0
 44
1.0
 45
0.0
 46
0.0
 47
0.1
 48
0.1
140
2.7999999999999989
141
0.0
142
0.0
143
0.0393701
144
1.0
145
0.0
146
0.71
147
1.5
 71
     0
 72
     0
 73
     0
 74
     0
 75
     0
 76
     0
 77
     3
 78
     8
170
     0
171
     2
172
     1
173
     0
174
     0
175
     0
176
   256
177
   256
178
    40
  0
DIMSTYLE
  2
TECHNICAL_OSAKA$3
 70
     0
  3

  4
"
  5
OPEN30
  6

  7

 40
1.0
 41
2.5
 42
1.0
 43
10.0
 44
1.0
 45
0.0
 46
0.0
 47
0.1
 48
0.1
140
2.7999999999999989
141
0.0
142
0.0
143
0.0393701
144
1.0
145
0.0
146
0.71
147
1.5
 71
     0
 72
     0
 73
     0
 74
     1
 75
     0
 76
     0
 77
     3
 78
     8
170
     0
171
     2
172
     0
173
     0
174
     0
175
     0
176
   256
177
   256
178
    40
  0
DIMSTYLE
  2
TECHNICAL_OSAKA$4
 70
     0
  3

  4
"
  5
OPEN30
  6

  7

 40
1.0
 41
2.5
 42
1.0
 43
10.0
 44
1.0
 45
0.0
 46
0.0
 47
0.1
 48
0.1
140
2.7999999999999989
141
0.0
142
0.0
143
0.0393701
144
1.0
145
0.0
146
0.71
147
1.5
 71
     0
 72
     0
 73
     0
 74
     1
 75
     0
 76
     0
 77
     3
 78
     8
170
     0
171
     2
172
     0
173
     0
174
     0
175
     0
176
   256
177
   256
178
    40
  0
DIMSTYLE
  2
TECHNICAL_OSAKA$6
 70
     0
  3

  4
"
  5
OPEN30
  6

  7

 40
1.0
 41
2.5
 42
1.0
 43
10.0
 44
1.0
 45
0.0
 46
0.0
 47
0.1
 48
0.1
140
2.7999999999999989
141
0.0
142
0.0
143
0.0393701
144
1.0
145
0.0
146
0.71
147
1.5
 71
     0
 72
     0
 73
     0
 74
     0
 75
     0
 76
     0
 77
     0
 78
     8
170
     0
171
     2
172
     1
173
     0
174
     0
175
     0
176
   256
177
   256
178
    40
  0
DIMSTYLE
  2
TECHNICAL_OSAKA$7
 70
     0
  3

  4
"
  5
OPEN30
  6

  7

 40
1.0
 41
2.5
 42
1.0
 43
10.0
 44
1.0
 45
0.0
 46
0.0
 47
0.1
 48
0.1
140
2.7999999999999989
141
0.0
142
0.0
143
0.0393701
144
1.0
145
0.0
146
0.71
147
1.5
 71
     0
 72
     0
 73
     0
 74
     0
 75
     0
 76
     0
 77
     3
 78
     8
170
     0
171
     2
172
     1
173
     0
174
     0
175
     0
176
   256
177
   256
178
    40
  0
DIMSTYLE
  2
TECHNICAL_OSAKA$SF
 70
     0
  3

  4
"
  5
OPEN30
  6
OPEN30
  7
OPEN30
 40
1.0
 41
2.5
 42
1.0
 43
10.0
 44
1.0
 45
0.0
 46
0.0
 47
0.1
 48
0.1
140
3.5
141
0.0
142
0.0
143
0.0393701
144
1.0
145
0.0
146
0.71
147
1.5
 71
     0
 72
     0
 73
     0
 74
     0
 75
     1
 76
     1
 77
     3
 78
     8
170
     0
171
     2
172
     1
173
     0
174
     0
175
     0
176
   256
177
   256
178
    40
  0
DIMSTYLE
  2
TECHNICAL_OSAKA$SH
 70
     0
  3

  4
"
  5
OPEN30
  6
GENAXEH
  7
OPEN30
 40
1.0
 41
2.5
 42
1.0
 43
10.0
 44
1.0
 45
0.0
 46
0.0
 47
0.1
 48
0.1
140
3.5
141
0.0
142
0.0
143
0.0393701
144
2.0
145
0.0
146
0.71
147
1.5
 71
     0
 72
     0
 73
     0
 74
     0
 75
     1
 76
     1
 77
     3
 78
     8
170
     0
171
     2
172
     1
173
     1
174
     0
175
     0
176
   256
177
   256
178
    40
  0
ENDTAB
  0
ENDSEC
  0
SECTION
  2
BLOCKS
  0
BLOCK
  8
0
  2
$MODEL_SPACE
 70
     0
 10
0.0
 20
0.0
 30
0.0
  3
$MODEL_SPACE
  1

  0
ENDBLK
  5
1C
  8
0
  0
BLOCK
 67
     1
  8
0
  2
$PAPER_SPACE
 70
     0
 10
0.0
 20
0.0
 30
0.0
  3
$PAPER_SPACE
  1

  0
ENDBLK
  5
19
 67
     1
  8
0
  0
BLOCK
  8
0
  2
_OPEN
 70
     0
 10
0.0
 20
0.0
 30
0.0
  3
_OPEN
  1

  0
LINE
  5
1803
  8
0
  6
BYBLOCK
 62
     0
 10
-1.0
 20
0.1666666666666666
 30
0.0
 11
0.0
 21
0.0
 31
0.0
  0
LINE
  5
1804
  8
0
  6
BYBLOCK
 62
     0
 10
-1.0
 20
-0.1666666666666666
 30
0.0
 11
0.0
 21
0.0
 31
0.0
  0
LINE
  5
1805
  8
0
  6
BYBLOCK
 62
     0
 10
0.0
 20
0.0
 30
0.0
 11
-1.0
 21
0.0
 31
0.0
  0
ENDBLK
  5
1806
  8
0
  0
BLOCK
  8
0
  2
GENAXEH
 70
     0
 10
0.0
 20
0.0
 30
0.0
  3
GENAXEH
  1

  0
LINE
  5
182E
  8
0
 10
-1.0
 20
0.0
 30
0.0
 11
1.0
 21
0.0
 31
0.0
  0
ENDBLK
  5
182F
  8
0
  0
BLOCK
  8
0
  2
_OPEN30
 70
     0
 10
0.0
 20
0.0
 30
0.0
  3
_OPEN30
  1

  0
LINE
  5
1853
  8
0
  6
BYBLOCK
 62
     0
 10
-1.0
 20
0.26794919
 30
0.0
 11
0.0
 21
0.0
 31
0.0
  0
LINE
  5
1854
  8
0
  6
BYBLOCK
 62
     0
 10
0.0
 20
0.0
 30
0.0
 11
-1.0
 21
-0.26794919
 31
0.0
  0
LINE
  5
1855
  8
0
  6
BYBLOCK
 62
     0
 10
0.0
 20
0.0
 30
0.0
 11
-1.0
 21
0.0
 31
0.0
  0
ENDBLK
  5
1856
  8
0
  0
BLOCK
  8
0
  2
*X3
 70
     1
 10
0.0
 20
0.0
 30
0.0
  3
*X3
  1

  0
LINE
  5
168E
  8
0
 62
     0
 10
4.2731626460786947
 20
-5.8571670211471272
 30
0.0
 11
3.510115154589633
 21
-5.094119529658065
 31
0.0
  0
LINE
  5
168F
  8
0
 62
     0
 10
3.4940719416106631
 20
-5.336707692965879
 30
0.0
 11
3.1883917659254011
 21
-5.03102751728062
 31
0.0
  0
LINE
  5
1690
  8
0
 62
     0
 10
4.3362546584561468
 20
-6.1788904098113662
 30
0.0
 11
4.0305744827708789
 21
-5.8732102341260974
 31
0.0
  0
LINE
  5
1691
  8
0
 62
     0
 10
3.1614668723394019
 20
-5.2627339999814282
 30
0.0
 11
2.9403393877385029
 21
-5.0416065153805292
 31
0.0
  0
LINE
  5
1692
  8
0
 62
     0
 10
4.3383903626899851
 20
-6.4396574903320092
 30
0.0
 11
4.1045481757553324
 21
-6.2058153033973582
 31
0.0
  0
LINE
  5
1693
  8
0
 62
     0
 10
2.9211994892945921
 20
-5.281097993223403
 30
0.0
 11
2.7312050109658861
 21
-5.091103514894697
 31
0.0
  0
LINE
  5
1694
  8
0
 62
     0
 10
4.338390362689978
 20
-6.6982888666187881
 30
0.0
 11
4.1055856811814859
 21
-6.4654841851102969
 31
0.0
  0
LINE
  5
1695
  8
0
 62
     0
 10
2.7241461983551201
 20
-5.342676078570725
 30
0.0
 11
2.549611000613679
 21
-5.1681408808292844
 31
0.0
  0
LINE
  5
1696
  8
0
 62
     0
 10
4.338390362689978
 20
-6.9569202429055821
 30
0.0
 11
4.1055856811814859
 21
-6.7241155613970891
 31
0.0
  0
LINE
  5
1697
  8
0
 62
     0
 10
2.5574155323842751
 20
-5.4345767888866652
 30
0.0
 11
2.3904879894348241
 21
-5.2676492459372142
 31
0.0
  0
LINE
  5
1698
  8
0
 62
     0
 10
4.3383903626899851
 20
-7.2155516191923743
 30
0.0
 11
4.1055856811814859
 21
-6.982746937683876
 31
0.0
  0
LINE
  5
1699
  8
0
 62
     0
 10
2.4161255819181511
 20
-5.5519182147073352
 30
0.0
 11
2.2515077835827939
 21
-5.3873004163719713
 31
0.0
  0
LINE
  5
169A
  8
0
 62
     0
 10
4.3383903626899851
 20
-7.4741829954791612
 30
0.0
 11
4.105585681181493
 21
-7.2413783139706691
 31
0.0
  0
LINE
  5
169B
  8
0
 62
     0
 10
2.2989457159389901
 20
-5.6933697250149731
 30
0.0
 11
2.1319866093836382
 21
-5.5264106184596198
 31
0.0
  0
LINE
  5
169C
  8
0
 62
     0
 10
4.3383903626899851
 20
-7.7328143717659659
 30
0.0
 11
4.1055856811814788
 21
-7.5000096902574631
 31
0.0
  0
LINE
  5
169D
  8
0
 62
     0
 10
2.2072252078153962
 20
-5.8602805931781683
 30
0.0
 11
2.0326176602498318
 21
-5.6856730456126021
 31
0.0
  0
LINE
  5
169E
  8
0
 62
     0
 10
4.338390362689978
 20
-7.9914457480527474
 30
0.0
 11
4.1055856811814859
 21
-7.758641066544258
 31
0.0
  0
LINE
  5
169F
  8
0
 62
     0
 10
2.1458777492053529
 20
-6.0575645108549079
 30
0.0
 11
1.955742399326019
 21
-5.8674291609755747
 31
0.0
  0
LINE
  5
16A0
  8
0
 62
     0
 10
4.338390362689978
 20
-8.2500771243395334
 30
0.0
 11
4.1055856811814859
 21
-8.0172724428310431
 31
0.0
  0
LINE
  5
16A1
  8
0
 62
     0
 10
2.127884606905837
 20
-6.298202744842186
 30
0.0
 11
1.9064556573934921
 21
-6.0767737953298484
 31
0.0
  0
LINE
  5
16A2
  8
0
 62
     0
 10
4.3383903626899851
 20
-8.5087085006263337
 30
0.0
 11
4.1055856811814859
 21
-8.2759038191178362
 31
0.0
  0
LINE
  5
16A3
  8
0
 62
     0
 10
2.0859571237484991
 20
-6.5149066379716469
 30
0.0
 11
1.896203437136684
 21
-6.325152951359831
 31
0.0
  0
LINE
  5
16A4
  8
0
 62
     0
 10
4.338390362689978
 20
-8.7673398769131268
 30
0.0
 11
4.1055856811814859
 21
-8.5345351954046365
 31
0.0
  0
LINE
  5
16A5
  8
0
 62
     0
 10
4.338390362689978
 20
-9.0259712531999217
 30
0.0
 11
4.1055856811814859
 21
-8.7931665716914225
 31
0.0
  0
LINE
  5
16A6
  8
0
 62
     0
 10
4.338390362689978
 20
-9.2846026294867041
 30
0.0
 11
4.1055856811814859
 21
-9.0517979479782156
 31
0.0
  0
LINE
  5
16A7
  8
0
 62
     0
 10
4.338390362689978
 20
-9.5432340057735008
 30
0.0
 11
4.1055856811814859
 21
-9.3104293242649998
 31
0.0
  0
LINE
  5
16A8
  8
0
 62
     0
 10
4.3383903626899851
 20
-9.8018653820602903
 30
0.0
 11
4.1055856811814859
 21
-9.5690607005517911
 31
0.0
  0
LINE
  5
16A9
  8
0
 62
     0
 10
4.3383903626899851
 20
-10.06049675834708
 30
0.0
 11
4.105585681181493
 21
-9.8276920768385896
 31
0.0
  0
LINE
  5
16AA
  8
0
 62
     0
 10
4.338390362689978
 20
-10.31912813463388
 30
0.0
 11
4.1055856811814859
 21
-10.086323453125379
 31
0.0
  0
LINE
  5
16AB
  8
0
 62
     0
 10
4.338390362689978
 20
-10.577759510920661
 30
0.0
 11
4.1055856811814859
 21
-10.34495482941217
 31
0.0
  0
LINE
  5
16AC
  8
0
 62
     0
 10
4.338390362689978
 20
-10.836390887207459
 30
0.0
 11
4.1055856811814859
 21
-10.60358620569896
 31
0.0
  0
LINE
  5
16AD
  8
0
 62
     0
 10
4.3331743680063184
 20
-11.08980626881058
 30
0.0
 11
4.1055856811814859
 21
-10.862217581985741
 31
0.0
  0
LINE
  5
16AE
  8
0
 62
     0
 10
4.2927234683474307
 20
-11.30798674543848
 30
0.0
 11
4.0963826280125399
 21
-11.11164590510359
 31
0.0
  0
LINE
  5
16AF
  8
0
 62
     0
 10
4.2225300722551111
 20
-11.496424725632959
 30
0.0
 11
4.0447379717610357
 21
-11.31863262513888
 31
0.0
  0
LINE
  5
16B0
  8
0
 62
     0
 10
4.1288343457024572
 20
-11.661360375367099
 30
0.0
 11
3.9604188359354979
 21
-11.492944865600141
 31
0.0
  0
LINE
  5
16B1
  8
0
 62
     0
 10
4.0145495478446014
 20
-11.80570695379603
 30
0.0
 11
3.8497662771754819
 21
-11.640923683126911
 31
0.0
  0
LINE
  5
16B2
  8
0
 62
     0
 10
3.8807570971703012
 20
-11.93054587940852
 30
0.0
 11
3.7149104705198961
 21
-11.76469925275811
 31
0.0
  0
LINE
  5
16B3
  8
0
 62
     0
 10
3.7271431977453049
 20
-12.03556335627032
 30
0.0
 11
3.555244829520197
 21
-11.86366498804521
 31
0.0
  0
LINE
  5
16B4
  8
0
 62
     0
 10
2.1267631408982761
 20
-10.69381467571009
 30
0.0
 11
1.9433546960822801
 21
-10.51040623089408
 31
0.0
  0
LINE
  5
16B5
  8
0
 62
     0
 10
3.551878254361716
 20
-12.11892978917353
 30
0.0
 11
3.367040741413724
 21
-11.93409227622552
 31
0.0
  0
LINE
  5
16B6
  8
0
 62
     0
 10
2.1267631408982761
 20
-10.95244605199688
 30
0.0
 11
1.8939584533982821
 21
-10.719641364496891
 31
0.0
  0
LINE
  5
16B7
  8
0
 62
     0
 10
3.3508120748548631
 20
-12.17649498595347
 30
0.0
 11
3.1404436980890349
 21
-11.96612660918764
 31
0.0
  0
LINE
  5
16B8
  8
0
 62
     0
 10
2.1649602340683511
 20
-11.24927452145374
 30
0.0
 11
1.8939591030962699
 21
-10.978273390481659
 31
0.0
  0
LINE
  5
16B9
  8
0
 62
     0
 10
3.1149140586925621
 20
-12.19922834607795
 30
0.0
 11
2.84391292772048
 21
-11.928227215105871
 31
0.0
  0
LINE
  5
16BA
  8
0
 62
     0
 10
2.819806896892358
 20
-12.162752560564529
 30
0.0
 11
1.930434888609696
 21
-11.27338055228187
 31
0.0
  0
ENDBLK
  5
16BB
  8
0
  0
BLOCK
  8
0
  2
*X4
 70
     1
 10
0.0
 20
0.0
 30
0.0
  3
*X4
  1

  0
LINE
  5
16BE
  8
0
 62
     0
 10
3.9891833374314549
 20
-8.6767642279413906
 30
0.0
 11
3.9699999022341199
 21
-8.6575807927440565
 31
0.0
  0
LINE
  5
16BF
  8
0
 62
     0
 10
3.9891833374314549
 20
-8.9353956042281801
 30
0.0
 11
3.6073930521298849
 21
-8.5536053189266141
 31
0.0
  0
LINE
  5
16C0
  8
0
 62
     0
 10
3.9748178468112911
 20
-9.179661489894805
 30
0.0
 11
3.2447862020256362
 21
-8.4496298451091505
 31
0.0
  0
LINE
  5
16C1
  8
0
 62
     0
 10
3.61220957775957
 20
-9.0756845971298841
 30
0.0
 11
2.8821793519213941
 21
-8.3456543712917011
 31
0.0
  0
LINE
  5
16C2
  8
0
 62
     0
 10
3.249601308707851
 20
-8.9717077043649454
 30
0.0
 11
2.5195725018171511
 21
-8.2416788974742428
 31
0.0
  0
LINE
  5
16C3
  8
0
 62
     0
 10
2.886993039656117
 20
-8.8677308116000102
 30
0.0
 11
2.1569656517129001
 21
-8.1377034236567951
 31
0.0
  0
LINE
  5
16C4
  8
0
 62
     0
 10
2.5243847706043909
 20
-8.7637539188350786
 30
0.0
 11
1.8939584533982821
 21
-8.1333276016289702
 31
0.0
  0
LINE
  5
16C5
  8
0
 62
     0
 10
2.1617765015526582
 20
-8.659777026070131
 30
0.0
 11
1.8939584533982901
 21
-8.3919589779157633
 31
0.0
  0
LINE
  5
16C6
  8
0
 62
     0
 10
1.918015068738405
 20
-8.674646969542664
 30
0.0
 11
1.8939584533982821
 21
-8.6505903542025422
 31
0.0
  0
ENDBLK
  5
16C7
  8
0
  0
BLOCK
  8
0
  2
*X5
 70
     1
 10
0.0
 20
0.0
 30
0.0
  3
*X5
  1

  0
LINE
  5
16CA
  8
0
 62
     0
 10
3.8682112041804739
 20
-7.0040038369696571
 30
0.0
 11
3.6499603235052889
 21
-6.7857529562944654
 31
0.0
  0
LINE
  5
16CB
  8
0
 62
     0
 10
3.9856529491582999
 20
-7.380076958234282
 30
0.0
 11
3.2873524678243831
 21
-6.6817764769003682
 31
0.0
  0
LINE
  5
16CC
  8
0
 62
     0
 10
3.617185728354428
 20
-7.2702411137172032
 30
0.0
 11
2.924744612143483
 21
-6.5777999975062542
 31
0.0
  0
LINE
  5
16CD
  8
0
 62
     0
 10
3.9698966386926511
 20
-7.6229520240554223
 30
0.0
 11
3.6965801245195551
 21
-7.3496355098823241
 31
0.0
  0
LINE
  5
16CE
  8
0
 62
     0
 10
3.2412377906756031
 20
-7.1529245523251603
 30
0.0
 11
2.8018861877732841
 21
-6.7135729494228391
 31
0.0
  0
LINE
  5
16CF
  8
0
 62
     0
 10
3.8992580266775061
 20
-7.8109447883270624
 30
0.0
 11
3.6959786603753511
 21
-7.6076654220249154
 31
0.0
  0
LINE
  5
16D0
  8
0
 62
     0
 10
3.034690875273276
 20
-7.2050090132096241
 30
0.0
 11
2.8018861877732761
 21
-6.9722043257096251
 31
0.0
  0
LINE
  5
16D1
  8
0
 62
     0
 10
3.792131315773708
 20
-7.9624494537100619
 30
0.0
 11
3.5455738235496881
 21
-7.715891961486034
 31
0.0
  0
LINE
  5
16D2
  8
0
 62
     0
 10
2.2029885065044099
 20
-6.6319380207275591
 30
0.0
 11
2.1787499076577741
 21
-6.6076994218809233
 31
0.0
  0
LINE
  5
16D3
  8
0
 62
     0
 10
3.6531656331833759
 20
-8.082115147406526
 30
0.0
 11
3.2290805876554312
 21
-7.6580301018785786
 31
0.0
  0
LINE
  5
16D4
  8
0
 62
     0
 10
2.2677871082174681
 20
-6.9553679987274011
 30
0.0
 11
1.982121972154764
 21
-6.6697028626646979
 31
0.0
  0
LINE
  5
16D5
  8
0
 62
     0
 10
3.4804499382598579
 20
-8.168030828769794
 30
0.0
 11
2.8664723785437469
 21
-7.5540532690536812
 31
0.0
  0
LINE
  5
16D6
  8
0
 62
     0
 10
2.1576583608831101
 20
-7.1038706276798393
 30
0.0
 11
1.98333579740042
 21
-6.9295480641971476
 31
0.0
  0
LINE
  5
16D7
  8
0
 62
     0
 10
3.262962952369413
 20
-8.2091752191661413
 30
0.0
 11
2.5038641694320689
 21
-7.4500764362287981
 31
0.0
  0
LINE
  5
16D8
  8
0
 62
     0
 10
2.9676848492862362
 20
-8.1725284923697501
 30
0.0
 11
1.912955328823172
 21
-7.1177989719066872
 31
0.0
  0
LINE
  5
16D9
  8
0
 62
     0
 10
2.6231897125881769
 20
-8.0866647319584857
 30
0.0
 11
1.8976699797883041
 21
-7.3611449991586113
 31
0.0
  0
ENDBLK
  5
16DA
  8
0
  0
BLOCK
  8
0
  2
A$C58D80CA3
 70
     0
 10
0.0
 20
0.0
 30
0.0
  3
A$C58D80CA3
  1

  0
TEXT
  5
16DC
  8
247
 10
-93.76646104032875
 20
-5.6457642626350468
 30
0.0
 40
2.0
  1
ST16-C0916-60-40
 41
0.7
  7
YOKO
 11
-93.76646104032875
 21
-5.6457642626350468
 31
0.0
 73
     1
  0
INSERT
  5
16DD
  8
247
  6
CONTINUOUS
  2
*X3
 10
-89.766461040328551
 20
-1.6041626238693061
 30
0.0
 50
270.0
1001
ACAD
1000
HATCH
1002
{
1070
    19
1000
ANSI31
1040
0.0576
1040
6.2831853071795853
1002
}
  0
INSERT
  5
16DE
  8
247
  6
CONTINUOUS
  2
*X4
 10
-89.766461040328551
 20
-1.6041626238693061
 30
0.0
 50
270.0
1001
ACAD
1000
HATCH
1002
{
1070
    19
1000
ANSI31
1040
0.0576
1040
6.2831853071795853
1002
}
  0
INSERT
  5
16DF
  8
247
  6
CONTINUOUS
  2
*X5
 10
-89.766461040328551
 20
-1.6041626238693061
 30
0.0
 50
270.0
1001
ACAD
1000
HATCH
1002
{
1070
    19
1000
ANSI31
1040
0.0576
1040
6.2831853071795853
1002
}
  0
LINE
  5
16E0
  8
247
 10
-98.434209567354515
 20
-3.4981210772675828
 30
0.0
 11
-97.828748629854516
 21
-3.4981210772675828
 31
0.0
  0
POLYLINE
  5
16E1
  8
247
 66
     1
 10
0.0
 20
0.0
 30
0.0
 70
     1
1001
HATCH_DISTANCE
1040
1.0
1001
HATCH_DISPLAY
1070
     0
1001
HATCH_TYPE
1070
     7
  0
VERTEX
  5
16E2
  8
247
 10
-98.434209567354515
 20
-3.4981210772675899
 30
0.0
  0
VERTEX
  5
16E3
  8
247
 10
-98.507642184542021
 20
-3.7541992022675781
 30
0.0
  0
VERTEX
  5
16E4
  8
247
 10
-98.422871676729528
 20
-3.7541992022675781
 30
0.0
  0
VERTEX
  5
16E5
  8
247
 10
-98.950241793917044
 20
-5.593345961300761
 30
0.0
  0
VERTEX
  5
16E6
  8
247
 10
-98.429542575167034
 20
-5.593345961300761
 30
0.0
  0
VERTEX
  5
16E7
  8
247
 10
-97.828748629854516
 20
-3.4981210772675899
 30
0.0
  0
SEQEND
  5
16E8
  8
247
  0
POLYLINE
  5
16E9
  8
247
 66
     1
 10
0.0
 20
0.0
 30
0.0
 70
     1
  0
VERTEX
  5
16EA
  8
247
 10
-98.434209567354515
 20
-3.4981210772675899
 30
0.0
  0
VERTEX
  5
16EB
  8
247
 10
-98.507642184542021
 20
-3.7541992022675781
 30
0.0
  0
VERTEX
  5
16EC
  8
247
 10
-98.422871676729528
 20
-3.7541992022675781
 30
0.0
  0
VERTEX
  5
16ED
  8
247
 10
-98.950241793917044
 20
-5.593345961300761
 30
0.0
  0
VERTEX
  5
16EE
  8
247
 10
-98.429542575167034
 20
-5.593345961300761
 30
0.0
  0
VERTEX
  5
16EF
  8
247
 10
-97.828748629854516
 20
-3.4981210772675899
 30
0.0
  0
SEQEND
  5
16F0
  8
247
  0
LINE
  5
16F1
  8
247
 10
-98.429542575167034
 20
-5.5933459613007548
 30
0.0
 11
-97.828748629854516
 21
-3.4981210772675828
 31
0.0
  0
LINE
  5
16F2
  8
247
 10
-100.74347421579201
 20
-5.942552986559277
 30
0.0
 11
-96.017568942354529
 21
-5.9425529865592841
 31
0.0
  0
LINE
  5
16F3
  8
247
 10
-100.74347421579201
 20
-5.7097483050507796
 30
0.0
 11
-96.017568942354529
 21
-5.7097483050507867
 31
0.0
  0
ARC
  5
16F4
  8
247
 10
-97.219631442354526
 20
-4.8367392413300836
 30
0.0
 40
0.756615234375
 50
163.99975070172931
 51
304.96387329163008
  0
ARC
  5
16F5
  8
247
 10
-100.74347421579201
 20
-4.7203368975800881
 30
0.0
 40
0.9894111328124999
 50
89.999999999999986
 51
270.0
  0
ARC
  5
16F6
  8
247
 10
-100.74347421579201
 20
-4.7203368975800881
 30
0.0
 40
1.2222158203124971
 50
89.999999999999986
 51
270.0
  0
LINE
  5
16F7
  8
247
 10
-98.950241793917044
 20
-5.5933459613007548
 30
0.0
 11
-98.429542575167034
 21
-5.5933459613007548
 31
0.0
  0
LINE
  5
16F8
  8
247
 10
-99.434114889247752
 20
-5.5497100771314223
 30
0.0
 11
-99.116853965928186
 21
-5.2324491538118556
 31
0.0
  0
LINE
  5
16F9
  8
247
 10
-100.5122762785642
 20
-5.5933459613007548
 30
0.0
 11
-99.850235390231234
 21
-4.9313050729677883
 31
0.0
  0
LINE
  5
16FA
  8
247
 10
-100.2536449022775
 20
-5.5933459613007548
 30
0.0
 11
-99.954206190184024
 21
-5.2939072492073498
 31
0.0
  0
LINE
  5
16FB
  8
247
 10
-99.736382149703914
 20
-5.5933459613007841
 30
0.0
 11
-99.078222494772177
 21
-4.9351863063690606
 31
0.0
  0
LINE
  5
16FC
  8
247
 10
-99.774797053039194
 20
-4.6682109614465466
 30
0.0
 11
-99.965581015828377
 21
-5.3335773925057453
 31
0.0
  0
ARC
  5
16FD
  8
247
 10
-99.914946872042037
 20
-4.9880605303925636
 30
0.0
 40
0.3492072715759277
 50
261.66285421114787
 51
66.338192159113575
  0
LINE
  5
16FE
  8
247
 10
-99.995013525990714
 20
-5.5933459613007548
 30
0.0
 11
-99.140800196179981
 21
-4.739132631490107
 31
0.0
  0
LINE
  5
16FF
  8
247
 10
-100.62131503610451
 20
-5.5933459613007548
 30
0.0
 11
-99.655221286104521
 21
-5.5933459613007548
 31
0.0
  0
LINE
  5
1700
  8
247
 10
-100.5611751338886
 20
-5.3836134403383218
 30
0.0
 11
-99.576154099836145
 21
-4.3985924062858848
 31
0.0
  0
LINE
  5
1701
  8
247
 10
-100.45719897644059
 20
-5.0210059066036328
 30
0.0
 11
-99.642282467569117
 21
-4.206089397732014
 31
0.0
  0
ARC
  5
1702
  8
247
 10
-99.655221286104521
 20
-5.0113427569551066
 30
0.0
 40
0.5820029296875
 50
270.0
 51
40.329840654167477
  0
LINE
  5
1703
  8
247
 10
-99.573793486553882
 20
-4.9134945455771941
 30
0.0
 11
-98.810417095438581
 21
-4.1501181544618504
 31
0.0
  0
LINE
  5
1704
  8
247
 10
-98.507642184542021
 20
-3.754199202267571
 30
0.0
 11
-98.434209567354515
 21
-3.4981210772675828
 31
0.0
  0
LINE
  5
1705
  8
247
 10
-98.507642184542021
 20
-3.754199202267571
 30
0.0
 11
-98.422871676729528
 21
-3.754199202267571
 31
0.0
  0
LINE
  5
1706
  8
247
 10
-99.458391442309818
 20
-3.7635669961859568
 30
0.0
 11
-99.218293537950643
 21
-3.523469091826783
 31
0.0
  0
LINE
  5
1707
  8
247
 10
-100.20164433975179
 20
-3.7309257647676328
 30
0.0
 11
-99.96883965225183
 21
-3.4981210772676401
 31
0.0
  0
LINE
  5
1708
  8
247
 10
-100.2627037079795
 20
-3.4981210772675828
 30
0.0
 11
-100.32945663766699
 21
-3.730925764767576
 31
0.0
  0
LINE
  5
1709
  8
247
 10
-100.1416167939168
 20
-3.4981210772675828
 30
0.0
 11
-100.2083697236047
 21
-3.730925764767576
 31
0.0
  0
LINE
  5
170A
  8
247
 10
-100.1416167939168
 20
-3.4981210772675828
 30
0.0
 11
-99.390599672239105
 21
-3.4981210772676681
 31
0.0
  0
LINE
  5
170B
  8
247
 10
-100.74347421579201
 20
-3.4981210772675828
 30
0.0
 11
-100.2627037079795
 21
-3.4981210772675828
 31
0.0
  0
LINE
  5
170C
  8
247
 10
-99.336023478547943
 20
-3.899830408710911
 30
0.0
 11
-99.045733238386873
 21
-3.6095401685497701
 31
0.0
  0
LINE
  5
170D
  8
247
 10
-100.2083697236047
 20
-3.730925764767576
 30
0.0
 11
-100.0872740204797
 21
-3.7309257647683149
 31
0.0
  0
LINE
  5
170E
  8
247
 10
-100.74347421579201
 20
-3.730925764767576
 30
0.0
 11
-100.32945663766699
 21
-3.730925764767576
 31
0.0
  0
LINE
  5
170F
  8
247
 10
-100.1452705040969
 20
-3.933183305399452
 30
0.0
 11
-99.710208275965073
 21
-3.4981210772676401
 31
0.0
  0
LINE
  5
1710
  8
247
 10
-99.306184527398756
 20
-4.1286228338484667
 30
0.0
 11
-98.916608357748075
 21
-3.739046664197744
 31
0.0
  0
ARC
  5
1711
  8
247
 10
-99.388200778292045
 20
-4.0801240069550806
 30
0.0
 40
0.5820078735351563
 50
287.669577547399
 51
90.236159842671427
  0
LINE
  5
1712
  8
247
 10
-100.2492466615448
 20
-4.2957908391341979
 30
0.0
 11
-99.451576899678315
 21
-3.4981210772676681
 31
0.0
  0
LINE
  5
1713
  8
247
 10
-99.664074075214472
 20
-4.7451437579510261
 30
0.0
 11
-98.830987451777901
 21
-3.9120571345143982
 31
0.0
  0
LINE
  5
1714
  8
247
 10
-98.950241793917044
 20
-5.5933459613007548
 30
0.0
 11
-98.422871676729528
 21
-3.754199202267571
 31
0.0
  0
LINE
  5
1715
  8
247
 10
-99.507779323793244
 20
-3.7370106907132898
 30
0.0
 11
-99.698560147996716
 21
-4.4023573869248329
 31
0.0
  0
ARC
  5
1716
  8
247
 10
-99.647926364229534
 20
-4.056850569455114
 30
0.0
 40
0.349197280883789
 50
261.66260168792923
 51
66.338155095189919
  0
LINE
  5
1717
  8
247
 10
-100.35322281899271
 20
-4.6583983728688869
 30
0.0
 11
-99.538309742088245
 21
-3.8434852959644128
 31
0.0
  0
LINE
  5
1718
  8
247
 10
-100.62131503610451
 20
-5.5933459613007548
 30
0.0
 11
-100.0872740204797
 21
-3.7309257647683149
 31
0.0
  0
ARC
  5
1719
  8
247
 10
-96.017568942354529
 20
-4.7203368975800881
 30
0.0
 40
1.2222158203124971
 50
270.0
 51
104.77079396609309
  0
ARC
  5
171A
  8
247
 10
-96.017568942354529
 20
-4.7203368975800881
 30
0.0
 40
0.9894111328124999
 50
270.0
 51
104.12743649641099
  0
LINE
  5
171B
  8
247
 10
-97.009651950167054
 20
-5.1601943194550719
 30
0.0
 11
-96.860158786104535
 21
-4.6388534991425772
 31
0.0
  0
LINE
  5
171C
  8
247
 10
-97.053904879854514
 20
-4.6388534991425701
 30
0.0
 11
-96.860158786104535
 21
-4.6388534991425772
 31
0.0
  0
LINE
  5
171D
  8
247
 10
-96.786049411104528
 20
-5.4567902972383058
 30
0.0
 11
-96.649484957979524
 21
-5.5933459613007619
 31
0.0
  0
LINE
  5
171E
  8
247
 10
-97.053904879854514
 20
-4.6388534991425701
 30
0.0
 11
-96.987151950167032
 21
-4.4060488116425773
 31
0.0
  0
LINE
  5
171F
  8
247
 10
-96.987151950167032
 20
-4.4060488116425773
 30
0.0
 11
-96.309031832979514
 21
-4.4060488116425844
 31
0.0
  0
LINE
  5
1720
  8
247
 10
-96.649484957979524
 20
-5.5933459613007619
 30
0.0
 11
-96.309031832979514
 21
-4.4060488116425844
 31
0.0
  0
POLYLINE
  5
1721
  8
247
 66
     1
 10
0.0
 20
0.0
 30
0.0
 70
     1
1001
HATCH_DISTANCE
1040
1.0
1001
HATCH_DISPLAY
1070
     0
1001
HATCH_TYPE
1070
     7
  0
VERTEX
  5
1722
  8
247
 10
-96.259066012667034
 20
-3.7608437335175822
 30
0.0
  0
VERTEX
  5
1723
  8
247
 10
-96.329176364229539
 20
-3.538506819455101
 30
0.0
  0
VERTEX
  5
1724
  8
247
 10
-96.329176364229539
 20
-3.538506819455101
 30
0.0
  0
VERTEX
  5
1725
  8
247
 10
-96.259066012667034
 20
-3.7608437335175822
 30
0.0
  0
SEQEND
  5
1726
  8
247
  0
POLYLINE
  5
1727
  8
247
 66
     1
 10
0.0
 20
0.0
 30
0.0
 70
     1
  0
VERTEX
  5
1728
  8
247
 10
-96.259066012667034
 20
-3.7608437335175822
 30
0.0
  0
VERTEX
  5
1729
  8
247
 10
-96.329176364229539
 20
-3.538506819455101
 30
0.0
  0
VERTEX
  5
172A
  8
247
 10
-96.329176364229539
 20
-3.538506819455101
 30
0.0
  0
VERTEX
  5
172B
  8
247
 10
-96.259066012667034
 20
-3.7608437335175822
 30
0.0
  0
SEQEND
  5
172C
  8
247
  0
LINE
  5
172D
  8
247
 10
-96.259066012667034
 20
-3.7608437335175822
 30
0.0
 11
-96.329176364229539
 21
-3.538506819455101
 31
0.0
  0
POLYLINE
  5
172E
  8
247
 66
     1
 10
0.0
 20
0.0
 30
0.0
 70
     1
1001
HATCH_DISTANCE
1040
1.0
1001
HATCH_DISPLAY
1070
     0
1001
HATCH_TYPE
1070
     7
  0
VERTEX
  5
172F
  8
247
 10
-96.259066012667034
 20
-3.7608437335175822
 30
0.0
  0
VERTEX
  5
1730
  8
247
 10
-96.329176364229539
 20
-3.538506819455101
 30
0.0
  0
VERTEX
  5
1731
  8
247
 10
-96.329176364229539
 20
-3.538506819455101
 30
0.0
  0
VERTEX
  5
1732
  8
247
 10
-96.259066012667034
 20
-3.7608437335175822
 30
0.0
  0
SEQEND
  5
1733
  8
247
  0
POLYLINE
  5
1734
  8
247
 66
     1
 10
0.0
 20
0.0
 30
0.0
 70
     1
  0
VERTEX
  5
1735
  8
247
 10
-96.259066012667034
 20
-3.7608437335175822
 30
0.0
  0
VERTEX
  5
1736
  8
247
 10
-96.329176364229539
 20
-3.538506819455101
 30
0.0
  0
VERTEX
  5
1737
  8
247
 10
-96.329176364229539
 20
-3.538506819455101
 30
0.0
  0
VERTEX
  5
1738
  8
247
 10
-96.259066012667034
 20
-3.7608437335175822
 30
0.0
  0
SEQEND
  5
1739
  8
247
  0
LINE
  5
173A
  8
247
 10
-96.370080661104524
 20
-3.7958505694550899
 30
0.0
 11
-96.440191012667015
 21
-3.5735136553925519
 31
0.0
  0
ARC
  5
173B
  8
247
 10
-96.017568942354529
 20
-4.7203368975800881
 30
0.0
 40
1.222216369628905
 50
110.22964506332001
 51
118.57168892371639
  0
ARC
  5
173C
  8
247
 10
-96.930875582979525
 20
-3.9986493975800879
 30
0.0
 40
0.2444448051452637
 50
1.7101213820627339
 51
163.998398354447
  0
ARC
  5
173D
  8
247
 10
-96.017568942354529
 20
-4.7203368975800881
 30
0.0
 40
0.9894138793945311
 50
110.8721834020735
 51
132.54194893738719
  0
ARC
  5
173E
  8
247
 10
-95.982606051729533
 20
-4.8765185382050813
 30
0.0
 40
1.9799648437499999
 50
155.20517736984061
 51
172.79482596205219
  0
ARC
  5
173F
  8
247
 10
-97.244627536104531
 20
-5.0928173663300997
 30
0.0
 40
0.2444446334838867
 50
164.00027305718231
 51
344.00027305718243
  0
LINE
  5
1740
  8
247
 10
-97.479603122042022
 20
-5.0254404132050894
 30
0.0
 11
-97.165851168917015
 21
-3.9312636553925842
 31
0.0
  0
ARC
  5
1741
  8
247
 10
-97.052744723604519
 20
-4.254727522580076
 30
0.0
 40
0.7566075439453125
 50
53.444012197057731
 51
164.00018438768549
  0
LINE
  5
1742
  8
245
 10
-108.4372630910357
 20
0.0
 30
0.0
 11
2.5147309211932329
 21
0.0
 31
0.0
  0
LINE
  5
1743
  8
241
 10
-40.647161141321639
 20
0.0
 30
0.0
 11
-40.647161141321639
 21
8.0000000000000568
 31
0.0
  0
LINE
  5
1744
  8
241
 10
-40.166776383592321
 20
-7.7999999999999678
 30
0.0
 11
-40.166776383592321
 21
7.8000000000000247
 31
0.0
  0
LINE
  5
1745
  8
240
 10
-105.3007509798078
 20
0.0
 30
0.0
 11
-105.3007509798078
 21
7.000000000000056
 31
0.0
  0
LINE
  5
1746
  8
240
 10
-104.3007509798078
 20
-7.9999999999999707
 30
0.0
 11
-40.647161141321639
 21
-7.9999999999999707
 31
0.0
  0
LINE
  5
1747
  8
240
 10
-105.3007509798078
 20
-6.9999999999999432
 30
0.0
 11
-105.3007509798078
 21
0.0
 31
0.0
  0
ARC
  5
1748
  8
240
 10
-104.3007509798078
 20
-6.9999999999999281
 30
0.0
 40
1.0
 50
180.0
 51
270.0
  0
LINE
  5
1749
  8
240
 10
-40.166776383592321
 20
-7.7999999999999821
 30
0.0
 11
-9.3115964892030547
 21
-7.7999999999999821
 31
0.0
  0
LINE
  5
174A
  8
241
 10
-40.647161141321639
 20
-7.9999999999999707
 30
0.0
 11
-40.647161141321639
 21
0.0
 31
0.0
  0
ARC
  5
174B
  8
240
 10
-40.166776383592321
 20
-8.2999999999999687
 30
0.0
 40
0.5
 50
90.0
 51
120.0000000000033
  0
LINE
  5
174C
  8
240
 10
-40.647161141321639
 20
-7.9999999999999707
 30
0.0
 11
-40.416776383592321
 21
-7.8669872981077731
 31
0.0
  0
LINE
  5
174D
  8
240
 10
-8.4981232030514207
 20
-7.62709091528518
 30
0.0
 11
-5.8006115093518238
 21
-6.426081330294906
 31
0.0
  0
ARC
  5
174E
  8
240
 10
-9.3115964892030547
 20
-5.7999999999999972
 30
0.0
 40
2.0000000000000089
 50
270.0
 51
294.00000000000119
  0
LINE
  5
174F
  8
240
 10
-5.8006115093518238
 20
-6.426081330294906
 30
0.0
 11
-4.7289470413622894
 21
-4.2288435546920828
 31
0.0
  0
LINE
  5
1750
  8
240
 10
-40.647161141321639
 20
8.0000000000000568
 30
0.0
 11
-104.3007509798078
 21
8.0000000000000568
 31
0.0
  0
ARC
  5
1751
  8
240
 10
-104.3007509798078
 20
7.0000000000000711
 30
0.0
 40
1.0
 50
90.0
 51
180.0
  0
LINE
  5
1752
  8
240
 10
-9.3115964892030547
 20
7.8000000000000114
 30
0.0
 11
-40.166776383592321
 21
7.8000000000000114
 31
0.0
  0
ARC
  5
1753
  8
240
 10
-40.166776383592321
 20
8.3000000000000256
 30
0.0
 40
0.5
 50
239.9999999999967
 51
270.0
  0
LINE
  5
1754
  8
240
 10
-40.416776383592321
 20
7.8669872981078006
 30
0.0
 11
-40.647161141321639
 21
8.0000000000000568
 31
0.0
  0
ARC
  5
1755
  8
240
 10
-9.3115964892030547
 20
5.8000000000000247
 30
0.0
 40
2.0
 50
80.209948807288399
 51
90.0
  0
CIRCLE
  5
1756
  8
246
 10
-6.315500588856195
 20
1.934498889927176
 30
0.0
 40
4.9999995494399716
  0
ARC
  5
1757
  8
241
 10
-12.43100102032332
 20
0.9421401985361796
 30
0.0
 40
0.2
 50
150.00000240802481
 51
194.99999999999949
1001
GENIUS_GENOBJ-N-FIL_13
1002
{
1000
OWNER
1000
GEN
1002
}
1001
GENIUS_GENODEF_13
1002
{
1000
HIER
1070
     0
1002
}
1002
{
1000
MANEDIT
1070
     0
1002
}
1002
{
1000
NOSEL
1070
     0
1002
}
1002
{
1000
BEHIND
1070
     0
1002
}
1002
{
1000
OTHER
1070
     0
1002
}
1002
{
1000
REACTOR
1002
}
  0
ARC
  5
1758
  8
241
 10
-12.10785846131165
 20
-0.2638442497834532
 30
0.0
 40
0.2
 50
195.00000000059089
 51
239.9999999999998
1001
GENIUS_GENOBJ-N-FIL_13
1002
{
1000
OWNER
1000
GEN
1002
}
1001
GENIUS_GENODEF_13
1002
{
1000
HIER
1070
     0
1002
}
1002
{
1000
MANEDIT
1070
     0
1002
}
1002
{
1000
NOSEL
1070
     0
1002
}
1002
{
1000
BEHIND
1070
     0
1002
}
1002
{
1000
OTHER
1070
     0
1002
}
1002
{
1000
REACTOR
1002
}
  0
ARC
  5
1759
  8
241
 10
-5.3231417009026236
 20
-4.181002297780771
 30
0.0
 40
0.2
 50
239.9999999999998
 51
285.00000000000119
1001
GENIUS_GENOBJ-N-FIL_13
1002
{
1000
OWNER
1000
GEN
1002
}
1001
GENIUS_GENODEF_13
1002
{
1000
HIER
1070
     0
1002
}
1002
{
1000
MANEDIT
1070
     0
1002
}
1002
{
1000
NOSEL
1070
     0
1002
}
1002
{
1000
BEHIND
1070
     0
1002
}
1002
{
1000
OTHER
1070
     0
1002
}
1002
{
1000
REACTOR
1002
}
  0
ARC
  5
175A
  8
240
 10
-4.1171580783317259
 20
-3.8578599600277879
 30
0.0
 40
0.2
 50
285.00000000000119
 51
329.9999991766947
1001
GENIUS_GENOBJ-N-FIL_13
1002
{
1000
OWNER
1000
GEN
1002
}
1001
GENIUS_GENODEF_13
1002
{
1000
HIER
1070
     0
1002
}
1002
{
1000
MANEDIT
1070
     0
1002
}
1002
{
1000
NOSEL
1070
     0
1002
}
1002
{
1000
BEHIND
1070
     0
1002
}
1002
{
1000
OTHER
1070
     0
1002
}
1002
{
1000
REACTOR
1002
}
  0
ARC
  5
175B
  8
240
 10
-0.1999999999999886
 20
2.9268566276221359
 30
0.0
 40
0.2
 50
330.00002878713468
 51
14.999999999999559
1001
GENIUS_GENODEF_13
1002
{
1000
HIER
1070
     0
1002
}
1002
{
1000
MANEDIT
1070
     0
1002
}
1002
{
1000
NOSEL
1070
     0
1002
}
1002
{
1000
BEHIND
1070
     0
1002
}
1002
{
1000
OTHER
1070
     0
1002
}
1002
{
1000
REACTOR
1002
}
1001
GENIUS_GENOBJ-N-FIL_13
1002
{
1000
OWNER
1000
GEN
1002
}
  0
ARC
  5
175C
  8
240
 10
-0.5231426494289622
 20
4.1328414133833604
 30
0.0
 40
0.2
 50
14.999999999999559
 51
59.999997892978982
1001
GENIUS_GENODEF_13
1002
{
1000
HIER
1070
     0
1002
}
1002
{
1000
MANEDIT
1070
     0
1002
}
1002
{
1000
NOSEL
1070
     0
1002
}
1002
{
1000
BEHIND
1070
     0
1002
}
1002
{
1000
OTHER
1070
     0
1002
}
1002
{
1000
REACTOR
1002
}
1001
GENIUS_GENOBJ-N-FIL_13
1002
{
1000
OWNER
1000
GEN
1002
}
  0
ARC
  5
175D
  8
240
 10
-7.307859766548062
 20
8.0499999999999972
 30
0.0
 40
0.2
 50
59.999997892978982
 51
105.00000000000109
1001
GENIUS_GENOBJ-N-FIL_13
1002
{
1000
OWNER
1000
GEN
1002
}
1001
GENIUS_GENODEF_13
1002
{
1000
HIER
1070
     0
1002
}
1002
{
1000
MANEDIT
1070
     0
1002
}
1002
{
1000
NOSEL
1070
     0
1002
}
1002
{
1000
BEHIND
1070
     0
1002
}
1002
{
1000
OTHER
1070
     0
1002
}
1002
{
1000
REACTOR
1002
}
  0
ARC
  5
175E
  8
240
 10
-8.5138428654614682
 20
7.7268578025605734
 30
0.0
 40
0.2
 50
105.00000000000109
 51
150.00000240802481
1001
GENIUS_GENOBJ-N-FIL_13
1002
{
1000
OWNER
1000
GEN
1002
}
1001
GENIUS_GENODEF_13
1002
{
1000
HIER
1070
     0
1002
}
1002
{
1000
MANEDIT
1070
     0
1002
}
1002
{
1000
NOSEL
1070
     0
1002
}
1002
{
1000
BEHIND
1070
     0
1002
}
1002
{
1000
OTHER
1070
     0
1002
}
1002
{
1000
REACTOR
1002
}
  0
LINE
  5
175F
  8
240
 10
-4.0653942693112413
 20
-4.051045125285583
 30
0.0
 11
-4.7289470413622317
 21
-4.2288435546920757
 31
0.0
  0
LINE
  5
1760
  8
240
 10
-7.3596235755685484
 20
8.2431851652578132
 30
0.0
 11
-8.5656066744819555
 21
7.9200429678183752
 31
0.0
  0
LINE
  5
1761
  8
240
 10
-0.0068148347421584
 20
2.9786204366426432
 30
0.0
 11
-0.3299574841711887
 21
4.1846052224038601
 31
0.0
  0
LINE
  5
1762
  8
240
 10
-3.9439529990117981
 20
-3.9578599625166069
 30
0.0
 11
-0.0267949207454876
 21
2.8268566251710681
 31
0.0
  0
LINE
  5
1763
  8
240
 10
-0.4231426430594638
 20
4.3060464904628191
 30
0.0
 11
-7.2078597601785068
 21
8.2232050770794558
 31
0.0
  0
LINE
  5
1764
  8
241
 10
-12.62418618558115
 20
0.8903763895156657
 30
0.0
 11
-12.301043626568971
 21
-0.3156080588059851
 31
0.0
  0
LINE
  5
1765
  8
241
 10
-12.20785846131162
 20
-0.4370493305403614
 30
0.0
 11
-5.4231417009025904
 21
-4.3542073785376649
 31
0.0
  0
LINE
  5
1766
  8
240
 10
-8.6870479504211175
 20
7.8268577952811142
 30
0.0
 11
-8.7712076179658425
 21
7.6810889609973279
 31
0.0
  0
POLYLINE
  8
241
  5
186D
  66
     1
 10
0.000000
 20
0.000000
 30
0.000000
  70
     8
  0
VERTEX
  8
241
  5
186E
 10
-9.03527
 20
7.22373
 30
0.000000
  70
    32
  0
VERTEX
  8
241
  5
186F
 10
-9.09780
 20
7.22088
 30
0.000000
  70
    32
  0
VERTEX
  8
241
  5
1870
 10
-9.16033
 20
7.21800
 30
0.000000
  70
    32
  0
VERTEX
  8
241
  5
1871
 10
-9.22285
 20
7.21507
 30
0.000000
  70
    32
  0
VERTEX
  8
241
  5
1872
 10
-9.28537
 20
7.21208
 30
0.000000
  70
    32
  0
VERTEX
  8
241
  5
1873
 10
-9.34788
 20
7.20903
 30
0.000000
  70
    32
  0
VERTEX
  8
241
  5
1874
 10
-9.41038
 20
7.20592
 30
0.000000
  70
    32
  0
VERTEX
  8
241
  5
1875
 10
-9.47287
 20
7.20273
 30
0.000000
  70
    32
  0
VERTEX
  8
241
  5
1876
 10
-9.53535
 20
7.19945
 30
0.000000
  70
    32
  0
VERTEX
  8
241
  5
1877
 10
-9.59782
 20
7.19609
 30
0.000000
  70
    32
  0
VERTEX
  8
241
  5
1878
 10
-9.66028
 20
7.19263
 30
0.000000
  70
    32
  0
VERTEX
  8
241
  5
1879
 10
-9.72272
 20
7.18907
 30
0.000000
  70
    32
  0
VERTEX
  8
241
  5
187A
 10
-9.78515
 20
7.18540
 30
0.000000
  70
    32
  0
VERTEX
  8
241
  5
187B
 10
-9.84757
 20
7.18162
 30
0.000000
  70
    32
  0
VERTEX
  8
241
  5
187C
 10
-9.90998
 20
7.17771
 30
0.000000
  70
    32
  0
VERTEX
  8
241
  5
187D
 10
-9.97236
 20
7.17367
 30
0.000000
  70
    32
  0
VERTEX
  8
241
  5
187E
 10
-10.0347
 20
7.16949
 30
0.000000
  70
    32
  0
VERTEX
  8
241
  5
187F
 10
-10.0971
 20
7.16517
 30
0.000000
  70
    32
  0
VERTEX
  8
241
  5
1880
 10
-10.1594
 20
7.16070
 30
0.000000
  70
    32
  0
VERTEX
  8
241
  5
1881
 10
-10.2217
 20
7.15607
 30
0.000000
  70
    32
  0
VERTEX
  8
241
  5
1882
 10
-10.2840
 20
7.15127
 30
0.000000
  70
    32
  0
VERTEX
  8
241
  5
1883
 10
-10.3463
 20
7.14630
 30
0.000000
  70
    32
  0
VERTEX
  8
241
  5
1884
 10
-10.4086
 20
7.14116
 30
0.000000
  70
    32
  0
VERTEX
  8
241
  5
1885
 10
-10.4708
 20
7.13582
 30
0.000000
  70
    32
  0
VERTEX
  8
241
  5
1886
 10
-10.5330
 20
7.13030
 30
0.000000
  70
    32
  0
VERTEX
  8
241
  5
1887
 10
-10.5952
 20
7.12458
 30
0.000000
  70
    32
  0
VERTEX
  8
241
  5
1888
 10
-10.6573
 20
7.11864
 30
0.000000
  70
    32
  0
VERTEX
  8
241
  5
1889
 10
-10.7194
 20
7.11250
 30
0.000000
  70
    32
  0
VERTEX
  8
241
  5
188A
 10
-10.7815
 20
7.10614
 30
0.000000
  70
    32
  0
VERTEX
  8
241
  5
188B
 10
-10.8436
 20
7.09955
 30
0.000000
  70
    32
  0
VERTEX
  8
241
  5
188C
 10
-10.9057
 20
7.09272
 30
0.000000
  70
    32
  0
VERTEX
  8
241
  5
188D
 10
-10.9677
 20
7.08565
 30
0.000000
  70
    32
  0
VERTEX
  8
241
  5
188E
 10
-11.0297
 20
7.07834
 30
0.000000
  70
    32
  0
VERTEX
  8
241
  5
188F
 10
-11.0916
 20
7.07077
 30
0.000000
  70
    32
  0
VERTEX
  8
241
  5
1890
 10
-11.1535
 20
7.06294
 30
0.000000
  70
    32
  0
VERTEX
  8
241
  5
1891
 10
-11.2154
 20
7.05484
 30
0.000000
  70
    32
  0
VERTEX
  8
241
  5
1892
 10
-11.2773
 20
7.04646
 30
0.000000
  70
    32
  0
VERTEX
  8
241
  5
1893
 10
-11.3391
 20
7.03781
 30
0.000000
  70
    32
  0
VERTEX
  8
241
  5
1894
 10
-11.4009
 20
7.02886
 30
0.000000
  70
    32
  0
VERTEX
  8
241
  5
1895
 10
-11.4626
 20
7.01962
 30
0.000000
  70
    32
  0
VERTEX
  8
241
  5
1896
 10
-11.5243
 20
7.01007
 30
0.000000
  70
    32
  0
VERTEX
  8
241
  5
1897
 10
-11.5860
 20
7.00023
 30
0.000000
  70
    32
  0
VERTEX
  8
241
  5
1898
 10
-11.6476
 20
6.99007
 30
0.000000
  70
    32
  0
VERTEX
  8
241
  5
1899
 10
-11.7092
 20
6.97960
 30
0.000000
  70
    32
  0
VERTEX
  8
241
  5
189A
 10
-11.7707
 20
6.96882
 30
0.000000
  70
    32
  0
VERTEX
  8
241
  5
189B
 10
-11.8322
 20
6.95771
 30
0.000000
  70
    32
  0
VERTEX
  8
241
  5
189C
 10
-11.8936
 20
6.94628
 30
0.000000
  70
    32
  0
VERTEX
  8
241
  5
189D
 10
-11.9550
 20
6.93451
 30
0.000000
  70
    32
  0
VERTEX
  8
241
  5
189E
 10
-12.0163
 20
6.92241
 30
0.000000
  70
    32
  0
VERTEX
  8
241
  5
189F
 10
-12.0775
 20
6.90997
 30
0.000000
  70
    32
  0
VERTEX
  8
241
  5
18A0
 10
-12.1387
 20
6.89718
 30
0.000000
  70
    32
  0
VERTEX
  8
241
  5
18A1
 10
-12.1998
 20
6.88405
 30
0.000000
  70
    32
  0
VERTEX
  8
241
  5
18A2
 10
-12.2609
 20
6.87056
 30
0.000000
  70
    32
  0
VERTEX
  8
241
  5
18A3
 10
-12.3219
 20
6.85671
 30
0.000000
  70
    32
  0
VERTEX
  8
241
  5
18A4
 10
-12.3828
 20
6.84251
 30
0.000000
  70
    32
  0
VERTEX
  8
241
  5
18A5
 10
-12.4436
 20
6.82793
 30
0.000000
  70
    32
  0
VERTEX
  8
241
  5
18A6
 10
-12.5044
 20
6.81298
 30
0.000000
  70
    32
  0
VERTEX
  8
241
  5
18A7
 10
-12.5651
 20
6.79766
 30
0.000000
  70
    32
  0
VERTEX
  8
241
  5
18A8
 10
-12.6256
 20
6.78196
 30
0.000000
  70
    32
  0
VERTEX
  8
241
  5
18A9
 10
-12.6862
 20
6.76587
 30
0.000000
  70
    32
  0
VERTEX
  8
241
  5
18AA
 10
-12.7466
 20
6.74939
 30
0.000000
  70
    32
  0
VERTEX
  8
241
  5
18AB
 10
-12.8069
 20
6.73252
 30
0.000000
  70
    32
  0
VERTEX
  8
241
  5
18AC
 10
-12.8672
 20
6.71525
 30
0.000000
  70
    32
  0
VERTEX
  8
241
  5
18AD
 10
-12.9273
 20
6.69758
 30
0.000000
  70
    32
  0
VERTEX
  8
241
  5
18AE
 10
-12.9874
 20
6.67950
 30
0.000000
  70
    32
  0
VERTEX
  8
241
  5
18AF
 10
-13.0473
 20
6.66101
 30
0.000000
  70
    32
  0
VERTEX
  8
241
  5
18B0
 10
-13.1072
 20
6.64209
 30
0.000000
  70
    32
  0
VERTEX
  8
241
  5
18B1
 10
-13.1669
 20
6.62272
 30
0.000000
  70
    32
  0
VERTEX
  8
241
  5
18B2
 10
-13.2264
 20
6.60287
 30
0.000000
  70
    32
  0
VERTEX
  8
241
  5
18B3
 10
-13.2858
 20
6.58252
 30
0.000000
  70
    32
  0
VERTEX
  8
241
  5
18B4
 10
-13.3450
 20
6.56165
 30
0.000000
  70
    32
  0
VERTEX
  8
241
  5
18B5
 10
-13.4040
 20
6.54022
 30
0.000000
  70
    32
  0
VERTEX
  8
241
  5
18B6
 10
-13.4628
 20
6.51822
 30
0.000000
  70
    32
  0
VERTEX
  8
241
  5
18B7
 10
-13.5213
 20
6.49561
 30
0.000000
  70
    32
  0
VERTEX
  8
241
  5
18B8
 10
-13.5795
 20
6.47238
 30
0.000000
  70
    32
  0
VERTEX
  8
241
  5
18B9
 10
-13.6374
 20
6.44850
 30
0.000000
  70
    32
  0
VERTEX
  8
241
  5
18BA
 10
-13.6950
 20
6.42394
 30
0.000000
  70
    32
  0
VERTEX
  8
241
  5
18BB
 10
-13.7523
 20
6.39867
 30
0.000000
  70
    32
  0
VERTEX
  8
241
  5
18BC
 10
-13.8092
 20
6.37268
 30
0.000000
  70
    32
  0
VERTEX
  8
241
  5
18BD
 10
-13.8658
 20
6.34594
 30
0.000000
  70
    32
  0
VERTEX
  8
241
  5
18BE
 10
-13.9219
 20
6.31842
 30
0.000000
  70
    32
  0
VERTEX
  8
241
  5
18BF
 10
-13.9776
 20
6.29009
 30
0.000000
  70
    32
  0
VERTEX
  8
241
  5
18C0
 10
-14.0329
 20
6.26094
 30
0.000000
  70
    32
  0
VERTEX
  8
241
  5
18C1
 10
-14.0877
 20
6.23093
 30
0.000000
  70
    32
  0
VERTEX
  8
241
  5
18C2
 10
-14.1420
 20
6.20005
 30
0.000000
  70
    32
  0
VERTEX
  8
241
  5
18C3
 10
-14.1958
 20
6.16826
 30
0.000000
  70
    32
  0
VERTEX
  8
241
  5
18C4
 10
-14.2491
 20
6.13555
 30
0.000000
  70
    32
  0
VERTEX
  8
241
  5
18C5
 10
-14.3019
 20
6.10191
 30
0.000000
  70
    32
  0
VERTEX
  8
241
  5
18C6
 10
-14.3541
 20
6.06737
 30
0.000000
  70
    32
  0
VERTEX
  8
241
  5
18C7
 10
-14.4058
 20
6.03194
 30
0.000000
  70
    32
  0
VERTEX
  8
241
  5
18C8
 10
-14.4568
 20
5.99563
 30
0.000000
  70
    32
  0
VERTEX
  8
241
  5
18C9
 10
-14.5074
 20
5.95847
 30
0.000000
  70
    32
  0
VERTEX
  8
241
  5
18CA
 10
-14.5573
 20
5.92047
 30
0.000000
  70
    32
  0
VERTEX
  8
241
  5
18CB
 10
-14.6066
 20
5.88164
 30
0.000000
  70
    32
  0
VERTEX
  8
241
  5
18CC
 10
-14.6553
 20
5.84201
 30
0.000000
  70
    32
  0
VERTEX
  8
241
  5
18CD
 10
-14.7034
 20
5.80160
 30
0.000000
  70
    32
  0
VERTEX
  8
241
  5
18CE
 10
-14.7509
 20
5.76041
 30
0.000000
  70
    32
  0
VERTEX
  8
241
  5
18CF
 10
-14.7978
 20
5.71846
 30
0.000000
  70
    32
  0
VERTEX
  8
241
  5
18D0
 10
-14.8440
 20
5.67578
 30
0.000000
  70
    32
  0
VERTEX
  8
241
  5
18D1
 10
-14.8895
 20
5.63238
 30
0.000000
  70
    32
  0
VERTEX
  8
241
  5
18D2
 10
-14.9344
 20
5.58827
 30
0.000000
  70
    32
  0
VERTEX
  8
241
  5
18D3
 10
-14.9786
 20
5.54348
 30
0.000000
  70
    32
  0
VERTEX
  8
241
  5
18D4
 10
-15.0221
 20
5.49801
 30
0.000000
  70
    32
  0
VERTEX
  8
241
  5
18D5
 10
-15.0649
 20
5.45189
 30
0.000000
  70
    32
  0
VERTEX
  8
241
  5
18D6
 10
-15.1070
 20
5.40514
 30
0.000000
  70
    32
  0
VERTEX
  8
241
  5
18D7
 10
-15.1484
 20
5.35777
 30
0.000000
  70
    32
  0
VERTEX
  8
241
  5
18D8
 10
-15.1891
 20
5.30979
 30
0.000000
  70
    32
  0
VERTEX
  8
241
  5
18D9
 10
-15.2291
 20
5.26123
 30
0.000000
  70
    32
  0
VERTEX
  8
241
  5
18DA
 10
-15.2683
 20
5.21210
 30
0.000000
  70
    32
  0
VERTEX
  8
241
  5
18DB
 10
-15.3067
 20
5.16241
 30
0.000000
  70
    32
  0
VERTEX
  8
241
  5
18DC
 10
-15.3444
 20
5.11219
 30
0.000000
  70
    32
  0
VERTEX
  8
241
  5
18DD
 10
-15.3813
 20
5.06145
 30
0.000000
  70
    32
  0
VERTEX
  8
241
  5
18DE
 10
-15.4176
 20
5.01020
 30
0.000000
  70
    32
  0
VERTEX
  8
241
  5
18DF
 10
-15.4531
 20
4.95845
 30
0.000000
  70
    32
  0
VERTEX
  8
241
  5
18E0
 10
-15.4878
 20
4.90623
 30
0.000000
  70
    32
  0
VERTEX
  8
241
  5
18E1
 10
-15.5219
 20
4.85354
 30
0.000000
  70
    32
  0
VERTEX
  8
241
  5
18E2
 10
-15.5552
 20
4.80039
 30
0.000000
  70
    32
  0
VERTEX
  8
241
  5
18E3
 10
-15.5879
 20
4.74682
 30
0.000000
  70
    32
  0
VERTEX
  8
241
  5
18E4
 10
-15.6199
 20
4.69281
 30
0.000000
  70
    32
  0
VERTEX
  8
241
  5
18E5
 10
-15.6511
 20
4.63840
 30
0.000000
  70
    32
  0
VERTEX
  8
241
  5
18E6
 10
-15.6818
 20
4.58360
 30
0.000000
  70
    32
  0
VERTEX
  8
241
  5
18E7
 10
-15.7117
 20
4.52842
 30
0.000000
  70
    32
  0
VERTEX
  8
241
  5
18E8
 10
-15.7410
 20
4.47287
 30
0.000000
  70
    32
  0
VERTEX
  8
241
  5
18E9
 10
-15.7696
 20
4.41697
 30
0.000000
  70
    32
  0
VERTEX
  8
241
  5
18EA
 10
-15.7976
 20
4.36073
 30
0.000000
  70
    32
  0
VERTEX
  8
241
  5
18EB
 10
-15.8249
 20
4.30417
 30
0.000000
  70
    32
  0
VERTEX
  8
241
  5
18EC
 10
-15.8516
 20
4.24731
 30
0.000000
  70
    32
  0
VERTEX
  8
241
  5
18ED
 10
-15.8777
 20
4.19015
 30
0.000000
  70
    32
  0
VERTEX
  8
241
  5
18EE
 10
-15.9032
 20
4.13271
 30
0.000000
  70
    32
  0
VERTEX
  8
241
  5
18EF
 10
-15.9280
 20
4.07500
 30
0.000000
  70
    32
  0
VERTEX
  8
241
  5
18F0
 10
-15.9523
 20
4.01705
 30
0.000000
  70
    32
  0
VERTEX
  8
241
  5
18F1
 10
-15.9760
 20
3.95885
 30
0.000000
  70
    32
  0
VERTEX
  8
241
  5
18F2
 10
-15.9991
 20
3.90044
 30
0.000000
  70
    32
  0
VERTEX
  8
241
  5
18F3
 10
-16.0216
 20
3.84182
 30
0.000000
  70
    32
  0
VERTEX
  8
241
  5
18F4
 10
-16.0435
 20
3.78300
 30
0.000000
  70
    32
  0
VERTEX
  8
241
  5
18F5
 10
-16.0649
 20
3.72401
 30
0.000000
  70
    32
  0
VERTEX
  8
241
  5
18F6
 10
-16.0857
 20
3.66485
 30
0.000000
  70
    32
  0
VERTEX
  8
241
  5
18F7
 10
-16.1059
 20
3.60554
 30
0.000000
  70
    32
  0
VERTEX
  8
241
  5
18F8
 10
-16.1257
 20
3.54610
 30
0.000000
  70
    32
  0
VERTEX
  8
241
  5
18F9
 10
-16.1448
 20
3.48652
 30
0.000000
  70
    32
  0
VERTEX
  8
241
  5
18FA
 10
-16.1635
 20
3.42681
 30
0.000000
  70
    32
  0
VERTEX
  8
241
  5
18FB
 10
-16.1816
 20
3.36698
 30
0.000000
  70
    32
  0
VERTEX
  8
241
  5
18FC
 10
-16.1993
 20
3.30702
 30
0.000000
  70
    32
  0
VERTEX
  8
241
  5
18FD
 10
-16.2164
 20
3.24694
 30
0.000000
  70
    32
  0
VERTEX
  8
241
  5
18FE
 10
-16.2330
 20
3.18673
 30
0.000000
  70
    32
  0
VERTEX
  8
241
  5
18FF
 10
-16.2491
 20
3.12642
 30
0.000000
  70
    32
  0
VERTEX
  8
241
  5
1900
 10
-16.2648
 20
3.06598
 30
0.000000
  70
    32
  0
VERTEX
  8
241
  5
1901
 10
-16.2799
 20
3.00544
 30
0.000000
  70
    32
  0
VERTEX
  8
241
  5
1902
 10
-16.2946
 20
2.94478
 30
0.000000
  70
    32
  0
VERTEX
  8
241
  5
1903
 10
-16.3088
 20
2.88402
 30
0.000000
  70
    32
  0
VERTEX
  8
241
  5
1904
 10
-16.3226
 20
2.82315
 30
0.000000
  70
    32
  0
VERTEX
  8
241
  5
1905
 10
-16.3359
 20
2.76217
 30
0.000000
  70
    32
  0
VERTEX
  8
241
  5
1906
 10
-16.3488
 20
2.70110
 30
0.000000
  70
    32
  0
VERTEX
  8
241
  5
1907
 10
-16.3612
 20
2.63993
 30
0.000000
  70
    32
  0
VERTEX
  8
241
  5
1908
 10
-16.3732
 20
2.57866
 30
0.000000
  70
    32
  0
VERTEX
  8
241
  5
1909
 10
-16.3848
 20
2.51730
 30
0.000000
  70
    32
  0
VERTEX
  8
241
  5
190A
 10
-16.3960
 20
2.45584
 30
0.000000
  70
    32
  0
VERTEX
  8
241
  5
190B
 10
-16.4067
 20
2.39430
 30
0.000000
  70
    32
  0
VERTEX
  8
241
  5
190C
 10
-16.4171
 20
2.33267
 30
0.000000
  70
    32
  0
VERTEX
  8
241
  5
190D
 10
-16.4270
 20
2.27096
 30
0.000000
  70
    32
  0
VERTEX
  8
241
  5
190E
 10
-16.4366
 20
2.20917
 30
0.000000
  70
    32
  0
VERTEX
  8
241
  5
190F
 10
-16.4458
 20
2.14729
 30
0.000000
  70
    32
  0
VERTEX
  8
241
  5
1910
 10
-16.4546
 20
2.08534
 30
0.000000
  70
    32
  0
VERTEX
  8
241
  5
1911
 10
-16.4630
 20
2.02332
 30
0.000000
  70
    32
  0
VERTEX
  8
241
  5
1912
 10
-16.4711
 20
1.96122
 30
0.000000
  70
    32
  0
VERTEX
  8
241
  5
1913
 10
-16.4789
 20
1.89905
 30
0.000000
  70
    32
  0
VERTEX
  8
241
  5
1914
 10
-16.4862
 20
1.83682
 30
0.000000
  70
    32
  0
VERTEX
  8
241
  5
1915
 10
-16.4933
 20
1.77452
 30
0.000000
  70
    32
  0
VERTEX
  8
241
  5
1916
 10
-16.5000
 20
1.71216
 30
0.000000
  70
    32
  0
VERTEX
  8
241
  5
1917
 10
-16.5064
 20
1.64973
 30
0.000000
  70
    32
  0
VERTEX
  8
241
  5
1918
 10
-16.5125
 20
1.58725
 30
0.000000
  70
    32
  0
VERTEX
  8
241
  5
1919
 10
-16.5182
 20
1.52472
 30
0.000000
  70
    32
  0
VERTEX
  8
241
  5
191A
 10
-16.5237
 20
1.46213
 30
0.000000
  70
    32
  0
VERTEX
  8
241
  5
191B
 10
-16.5289
 20
1.39949
 30
0.000000
  70
    32
  0
VERTEX
  8
241
  5
191C
 10
-16.5337
 20
1.33680
 30
0.000000
  70
    32
  0
VERTEX
  8
241
  5
191D
 10
-16.5383
 20
1.27406
 30
0.000000
  70
    32
  0
VERTEX
  8
241
  5
191E
 10
-16.5426
 20
1.21128
 30
0.000000
  70
    32
  0
VERTEX
  8
241
  5
191F
 10
-16.5467
 20
1.14846
 30
0.000000
  70
    32
  0
VERTEX
  8
241
  5
1920
 10
-16.5504
 20
1.08561
 30
0.000000
  70
    32
  0
VERTEX
  8
241
  5
1921
 10
-16.5540
 20
1.02271
 30
0.000000
  70
    32
  0
VERTEX
  8
241
  5
1922
 10
-16.5572
 20
0.959781
 30
0.000000
  70
    32
  0
VERTEX
  8
241
  5
1923
 10
-16.5603
 20
0.896820
 30
0.000000
  70
    32
  0
VERTEX
  8
241
  5
1924
 10
-16.5631
 20
0.833829
 30
0.000000
  70
    32
  0
VERTEX
  8
241
  5
1925
 10
-16.5656
 20
0.770812
 30
0.000000
  70
    32
  0
VERTEX
  8
241
  5
1926
 10
-16.5680
 20
0.707770
 30
0.000000
  70
    32
  0
VERTEX
  8
241
  5
1927
 10
-16.5701
 20
0.644706
 30
0.000000
  70
    32
  0
VERTEX
  8
241
  5
1928
 10
-16.5720
 20
0.581621
 30
0.000000
  70
    32
  0
VERTEX
  8
241
  5
1929
 10
-16.5738
 20
0.518520
 30
0.000000
  70
    32
  0
VERTEX
  8
241
  5
192A
 10
-16.5753
 20
0.455403
 30
0.000000
  70
    32
  0
VERTEX
  8
241
  5
192B
 10
-16.5767
 20
0.392273
 30
0.000000
  70
    32
  0
VERTEX
  8
241
  5
192C
 10
-16.5778
 20
0.329133
 30
0.000000
  70
    32
  0
VERTEX
  8
241
  5
192D
 10
-16.5788
 20
0.265985
 30
0.000000
  70
    32
  0
VERTEX
  8
241
  5
192E
 10
-16.5797
 20
0.202832
 30
0.000000
  70
    32
  0
VERTEX
  8
241
  5
192F
 10
-16.5803
 20
0.139675
 30
0.000000
  70
    32
  0
VERTEX
  8
241
  5
1930
 10
-16.5809
 20
0.0765175
 30
0.000000
  70
    32
  0
VERTEX
  8
241
  5
1931
 10
-16.5812
 20
0.0133615
 30
0.000000
  70
    32
  0
VERTEX
  8
241
  5
1932
 10
-16.5815
 20
-0.0497907
 30
0.000000
  70
    32
  0
VERTEX
  8
241
  5
1933
 10
-16.5816
 20
-0.112937
 30
0.000000
  70
    32
  0
VERTEX
  8
241
  5
1934
 10
-16.5815
 20
-0.176075
 30
0.000000
  70
    32
  0
VERTEX
  8
241
  5
1935
 10
-16.5813
 20
-0.239204
 30
0.000000
  70
    32
  0
VERTEX
  8
241
  5
1936
 10
-16.5810
 20
-0.302321
 30
0.000000
  70
    32
  0
VERTEX
  8
241
  5
1937
 10
-16.5804
 20
-0.365424
 30
0.000000
  70
    32
  0
VERTEX
  8
241
  5
1938
 10
-16.5797
 20
-0.428512
 30
0.000000
  70
    32
  0
VERTEX
  8
241
  5
1939
 10
-16.5788
 20
-0.491583
 30
0.000000
  70
    32
  0
VERTEX
  8
241
  5
193A
 10
-16.5777
 20
-0.554634
 30
0.000000
  70
    32
  0
VERTEX
  8
241
  5
193B
 10
-16.5763
 20
-0.617664
 30
0.000000
  70
    32
  0
VERTEX
  8
241
  5
193C
 10
-16.5748
 20
-0.680671
 30
0.000000
  70
    32
  0
VERTEX
  8
241
  5
193D
 10
-16.5730
 20
-0.743653
 30
0.000000
  70
    32
  0
VERTEX
  8
241
  5
193E
 10
-16.5710
 20
-0.806608
 30
0.000000
  70
    32
  0
VERTEX
  8
241
  5
193F
 10
-16.5688
 20
-0.869535
 30
0.000000
  70
    32
  0
VERTEX
  8
241
  5
1940
 10
-16.5663
 20
-0.932430
 30
0.000000
  70
    32
  0
VERTEX
  8
241
  5
1941
 10
-16.5636
 20
-0.995293
 30
0.000000
  70
    32
  0
VERTEX
  8
241
  5
1942
 10
-16.5606
 20
-1.05812
 30
0.000000
  70
    32
  0
VERTEX
  8
241
  5
1943
 10
-16.5573
 20
-1.12091
 30
0.000000
  70
    32
  0
VERTEX
  8
241
  5
1944
 10
-16.5538
 20
-1.18367
 30
0.000000
  70
    32
  0
VERTEX
  8
241
  5
1945
 10
-16.5499
 20
-1.24638
 30
0.000000
  70
    32
  0
VERTEX
  8
241
  5
1946
 10
-16.5458
 20
-1.30905
 30
0.000000
  70
    32
  0
VERTEX
  8
241
  5
1947
 10
-16.5414
 20
-1.37168
 30
0.000000
  70
    32
  0
VERTEX
  8
241
  5
1948
 10
-16.5366
 20
-1.43426
 30
0.000000
  70
    32
  0
VERTEX
  8
241
  5
1949
 10
-16.5315
 20
-1.49679
 30
0.000000
  70
    32
  0
VERTEX
  8
241
  5
194A
 10
-16.5261
 20
-1.55928
 30
0.000000
  70
    32
  0
VERTEX
  8
241
  5
194B
 10
-16.5204
 20
-1.62171
 30
0.000000
  70
    32
  0
VERTEX
  8
241
  5
194C
 10
-16.5143
 20
-1.68408
 30
0.000000
  70
    32
  0
VERTEX
  8
241
  5
194D
 10
-16.5079
 20
-1.74641
 30
0.000000
  70
    32
  0
VERTEX
  8
241
  5
194E
 10
-16.5011
 20
-1.80867
 30
0.000000
  70
    32
  0
VERTEX
  8
241
  5
194F
 10
-16.4939
 20
-1.87088
 30
0.000000
  70
    32
  0
VERTEX
  8
241
  5
1950
 10
-16.4864
 20
-1.93302
 30
0.000000
  70
    32
  0
VERTEX
  8
241
  5
1951
 10
-16.4785
 20
-1.99510
 30
0.000000
  70
    32
  0
VERTEX
  8
241
  5
1952
 10
-16.4701
 20
-2.05712
 30
0.000000
  70
    32
  0
VERTEX
  8
241
  5
1953
 10
-16.4614
 20
-2.11907
 30
0.000000
  70
    32
  0
VERTEX
  8
241
  5
1954
 10
-16.4523
 20
-2.18095
 30
0.000000
  70
    32
  0
VERTEX
  8
241
  5
1955
 10
-16.4427
 20
-2.24276
 30
0.000000
  70
    32
  0
VERTEX
  8
241
  5
1956
 10
-16.4328
 20
-2.30449
 30
0.000000
  70
    32
  0
VERTEX
  8
241
  5
1957
 10
-16.4223
 20
-2.36616
 30
0.000000
  70
    32
  0
VERTEX
  8
241
  5
1958
 10
-16.4115
 20
-2.42774
 30
0.000000
  70
    32
  0
VERTEX
  8
241
  5
1959
 10
-16.4002
 20
-2.48925
 30
0.000000
  70
    32
  0
VERTEX
  8
241
  5
195A
 10
-16.3884
 20
-2.55068
 30
0.000000
  70
    32
  0
VERTEX
  8
241
  5
195B
 10
-16.3762
 20
-2.61202
 30
0.000000
  70
    32
  0
VERTEX
  8
241
  5
195C
 10
-16.3635
 20
-2.67328
 30
0.000000
  70
    32
  0
VERTEX
  8
241
  5
195D
 10
-16.3503
 20
-2.73445
 30
0.000000
  70
    32
  0
VERTEX
  8
241
  5
195E
 10
-16.3366
 20
-2.79554
 30
0.000000
  70
    32
  0
VERTEX
  8
241
  5
195F
 10
-16.3225
 20
-2.85654
 30
0.000000
  70
    32
  0
VERTEX
  8
241
  5
1960
 10
-16.3078
 20
-2.91744
 30
0.000000
  70
    32
  0
VERTEX
  8
241
  5
1961
 10
-16.2926
 20
-2.97825
 30
0.000000
  70
    32
  0
VERTEX
  8
241
  5
1962
 10
-16.2769
 20
-3.03897
 30
0.000000
  70
    32
  0
VERTEX
  8
241
  5
1963
 10
-16.2606
 20
-3.09958
 30
0.000000
  70
    32
  0
VERTEX
  8
241
  5
1964
 10
-16.2438
 20
-3.16010
 30
0.000000
  70
    32
  0
VERTEX
  8
241
  5
1965
 10
-16.2265
 20
-3.22052
 30
0.000000
  70
    32
  0
VERTEX
  8
241
  5
1966
 10
-16.2086
 20
-3.28083
 30
0.000000
  70
    32
  0
VERTEX
  8
241
  5
1967
 10
-16.1901
 20
-3.34104
 30
0.000000
  70
    32
  0
VERTEX
  8
241
  5
1968
 10
-16.1711
 20
-3.40114
 30
0.000000
  70
    32
  0
VERTEX
  8
241
  5
1969
 10
-16.1515
 20
-3.46114
 30
0.000000
  70
    32
  0
VERTEX
  8
241
  5
196A
 10
-16.1313
 20
-3.52102
 30
0.000000
  70
    32
  0
VERTEX
  8
241
  5
196B
 10
-16.1105
 20
-3.58079
 30
0.000000
  70
    32
  0
VERTEX
  8
241
  5
196C
 10
-16.0891
 20
-3.64044
 30
0.000000
  70
    32
  0
VERTEX
  8
241
  5
196D
 10
-16.0671
 20
-3.69998
 30
0.000000
  70
    32
  0
VERTEX
  8
241
  5
196E
 10
-16.0444
 20
-3.75939
 30
0.000000
  70
    32
  0
VERTEX
  8
241
  5
196F
 10
-16.0212
 20
-3.81868
 30
0.000000
  70
    32
  0
VERTEX
  8
241
  5
1970
 10
-15.9973
 20
-3.87781
 30
0.000000
  70
    32
  0
VERTEX
  8
241
  5
1971
 10
-15.9728
 20
-3.93678
 30
0.000000
  70
    32
  0
VERTEX
  8
241
  5
1972
 10
-15.9477
 20
-3.99555
 30
0.000000
  70
    32
  0
VERTEX
  8
241
  5
1973
 10
-15.9220
 20
-4.05413
 30
0.000000
  70
    32
  0
VERTEX
  8
241
  5
1974
 10
-15.8956
 20
-4.11247
 30
0.000000
  70
    32
  0
VERTEX
  8
241
  5
1975
 10
-15.8686
 20
-4.17058
 30
0.000000
  70
    32
  0
VERTEX
  8
241
  5
1976
 10
-15.8411
 20
-4.22843
 30
0.000000
  70
    32
  0
VERTEX
  8
241
  5
1977
 10
-15.8129
 20
-4.28600
 30
0.000000
  70
    32
  0
VERTEX
  8
241
  5
1978
 10
-15.7841
 20
-4.34327
 30
0.000000
  70
    32
  0
VERTEX
  8
241
  5
1979
 10
-15.7546
 20
-4.40023
 30
0.000000
  70
    32
  0
VERTEX
  8
241
  5
197A
 10
-15.7246
 20
-4.45686
 30
0.000000
  70
    32
  0
VERTEX
  8
241
  5
197B
 10
-15.6939
 20
-4.51314
 30
0.000000
  70
    32
  0
VERTEX
  8
241
  5
197C
 10
-15.6627
 20
-4.56905
 30
0.000000
  70
    32
  0
VERTEX
  8
241
  5
197D
 10
-15.6308
 20
-4.62457
 30
0.000000
  70
    32
  0
VERTEX
  8
241
  5
197E
 10
-15.5984
 20
-4.67969
 30
0.000000
  70
    32
  0
VERTEX
  8
241
  5
197F
 10
-15.5653
 20
-4.73439
 30
0.000000
  70
    32
  0
VERTEX
  8
241
  5
1980
 10
-15.5316
 20
-4.78865
 30
0.000000
  70
    32
  0
VERTEX
  8
241
  5
1981
 10
-15.4973
 20
-4.84245
 30
0.000000
  70
    32
  0
VERTEX
  8
241
  5
1982
 10
-15.4624
 20
-4.89577
 30
0.000000
  70
    32
  0
VERTEX
  8
241
  5
1983
 10
-15.4269
 20
-4.94860
 30
0.000000
  70
    32
  0
VERTEX
  8
241
  5
1984
 10
-15.3908
 20
-5.00092
 30
0.000000
  70
    32
  0
VERTEX
  8
241
  5
1985
 10
-15.3541
 20
-5.05270
 30
0.000000
  70
    32
  0
VERTEX
  8
241
  5
1986
 10
-15.3168
 20
-5.10394
 30
0.000000
  70
    32
  0
VERTEX
  8
241
  5
1987
 10
-15.2789
 20
-5.15461
 30
0.000000
  70
    32
  0
VERTEX
  8
241
  5
1988
 10
-15.2404
 20
-5.20469
 30
0.000000
  70
    32
  0
VERTEX
  8
241
  5
1989
 10
-15.2013
 20
-5.25417
 30
0.000000
  70
    32
  0
VERTEX
  8
241
  5
198A
 10
-15.1616
 20
-5.30304
 30
0.000000
  70
    32
  0
VERTEX
  8
241
  5
198B
 10
-15.1213
 20
-5.35126
 30
0.000000
  70
    32
  0
VERTEX
  8
241
  5
198C
 10
-15.0805
 20
-5.39882
 30
0.000000
  70
    32
  0
VERTEX
  8
241
  5
198D
 10
-15.0390
 20
-5.44571
 30
0.000000
  70
    32
  0
VERTEX
  8
241
  5
198E
 10
-14.9969
 20
-5.49191
 30
0.000000
  70
    32
  0
VERTEX
  8
241
  5
198F
 10
-14.9543
 20
-5.53739
 30
0.000000
  70
    32
  0
VERTEX
  8
241
  5
1990
 10
-14.9110
 20
-5.58215
 30
0.000000
  70
    32
  0
VERTEX
  8
241
  5
1991
 10
-14.8672
 20
-5.62615
 30
0.000000
  70
    32
  0
VERTEX
  8
241
  5
1992
 10
-14.8227
 20
-5.66939
 30
0.000000
  70
    32
  0
VERTEX
  8
241
  5
1993
 10
-14.7777
 20
-5.71185
 30
0.000000
  70
    32
  0
VERTEX
  8
241
  5
1994
 10
-14.7321
 20
-5.75351
 30
0.000000
  70
    32
  0
VERTEX
  8
241
  5
1995
 10
-14.6859
 20
-5.79435
 30
0.000000
  70
    32
  0
VERTEX
  8
241
  5
1996
 10
-14.6391
 20
-5.83434
 30
0.000000
  70
    32
  0
VERTEX
  8
241
  5
1997
 10
-14.5918
 20
-5.87349
 30
0.000000
  70
    32
  0
VERTEX
  8
241
  5
1998
 10
-14.5438
 20
-5.91175
 30
0.000000
  70
    32
  0
VERTEX
  8
241
  5
1999
 10
-14.4953
 20
-5.94914
 30
0.000000
  70
    32
  0
VERTEX
  8
241
  5
199A
 10
-14.4462
 20
-5.98565
 30
0.000000
  70
    32
  0
VERTEX
  8
241
  5
199B
 10
-14.3965
 20
-6.02131
 30
0.000000
  70
    32
  0
VERTEX
  8
241
  5
199C
 10
-14.3463
 20
-6.05612
 30
0.000000
  70
    32
  0
VERTEX
  8
241
  5
199D
 10
-14.2956
 20
-6.09010
 30
0.000000
  70
    32
  0
VERTEX
  8
241
  5
199E
 10
-14.2443
 20
-6.12326
 30
0.000000
  70
    32
  0
VERTEX
  8
241
  5
199F
 10
-14.1925
 20
-6.15562
 30
0.000000
  70
    32
  0
VERTEX
  8
241
  5
19A0
 10
-14.1402
 20
-6.18718
 30
0.000000
  70
    32
  0
VERTEX
  8
241
  5
19A1
 10
-14.0875
 20
-6.21797
 30
0.000000
  70
    32
  0
VERTEX
  8
241
  5
19A2
 10
-14.0342
 20
-6.24800
 30
0.000000
  70
    32
  0
VERTEX
  8
241
  5
19A3
 10
-13.9804
 20
-6.27728
 30
0.000000
  70
    32
  0
VERTEX
  8
241
  5
19A4
 10
-13.9262
 20
-6.30583
 30
0.000000
  70
    32
  0
VERTEX
  8
241
  5
19A5
 10
-13.8715
 20
-6.33365
 30
0.000000
  70
    32
  0
VERTEX
  8
241
  5
19A6
 10
-13.8164
 20
-6.36076
 30
0.000000
  70
    32
  0
VERTEX
  8
241
  5
19A7
 10
-13.7609
 20
-6.38718
 30
0.000000
  70
    32
  0
VERTEX
  8
241
  5
19A8
 10
-13.7049
 20
-6.41292
 30
0.000000
  70
    32
  0
VERTEX
  8
241
  5
19A9
 10
-13.6485
 20
-6.43799
 30
0.000000
  70
    32
  0
VERTEX
  8
241
  5
19AA
 10
-13.5917
 20
-6.46240
 30
0.000000
  70
    32
  0
VERTEX
  8
241
  5
19AB
 10
-13.5346
 20
-6.48618
 30
0.000000
  70
    32
  0
VERTEX
  8
241
  5
19AC
 10
-13.4770
 20
-6.50933
 30
0.000000
  70
    32
  0
VERTEX
  8
241
  5
19AD
 10
-13.4191
 20
-6.53187
 30
0.000000
  70
    32
  0
VERTEX
  8
241
  5
19AE
 10
-13.3608
 20
-6.55381
 30
0.000000
  70
    32
  0
VERTEX
  8
241
  5
19AF
 10
-13.3022
 20
-6.57516
 30
0.000000
  70
    32
  0
VERTEX
  8
241
  5
19B0
 10
-13.2432
 20
-6.59595
 30
0.000000
  70
    32
  0
VERTEX
  8
241
  5
19B1
 10
-13.1839
 20
-6.61617
 30
0.000000
  70
    32
  0
VERTEX
  8
241
  5
19B2
 10
-13.1243
 20
-6.63585
 30
0.000000
  70
    32
  0
VERTEX
  8
241
  5
19B3
 10
-13.0643
 20
-6.65500
 30
0.000000
  70
    32
  0
VERTEX
  8
241
  5
19B4
 10
-13.0041
 20
-6.67363
 30
0.000000
  70
    32
  0
VERTEX
  8
241
  5
19B5
 10
-12.9436
 20
-6.69176
 30
0.000000
  70
    32
  0
VERTEX
  8
241
  5
19B6
 10
-12.8828
 20
-6.70940
 30
0.000000
  70
    32
  0
VERTEX
  8
241
  5
19B7
 10
-12.8218
 20
-6.72656
 30
0.000000
  70
    32
  0
VERTEX
  8
241
  5
19B8
 10
-12.7605
 20
-6.74326
 30
0.000000
  70
    32
  0
VERTEX
  8
241
  5
19B9
 10
-12.6990
 20
-6.75951
 30
0.000000
  70
    32
  0
VERTEX
  8
241
  5
19BA
 10
-12.6372
 20
-6.77533
 30
0.000000
  70
    32
  0
VERTEX
  8
241
  5
19BB
 10
-12.5752
 20
-6.79072
 30
0.000000
  70
    32
  0
VERTEX
  8
241
  5
19BC
 10
-12.5130
 20
-6.80571
 30
0.000000
  70
    32
  0
VERTEX
  8
241
  5
19BD
 10
-12.4506
 20
-6.82030
 30
0.000000
  70
    32
  0
VERTEX
  8
241
  5
19BE
 10
-12.3880
 20
-6.83451
 30
0.000000
  70
    32
  0
VERTEX
  8
241
  5
19BF
 10
-12.3252
 20
-6.84836
 30
0.000000
  70
    32
  0
VERTEX
  8
241
  5
19C0
 10
-12.2622
 20
-6.86185
 30
0.000000
  70
    32
  0
VERTEX
  8
241
  5
19C1
 10
-12.1991
 20
-6.87500
 30
0.000000
  70
    32
  0
VERTEX
  8
241
  5
19C2
 10
-12.1359
 20
-6.88783
 30
0.000000
  70
    32
  0
VERTEX
  8
241
  5
19C3
 10
-12.0725
 20
-6.90034
 30
0.000000
  70
    32
  0
VERTEX
  8
241
  5
19C4
 10
-12.0089
 20
-6.91256
 30
0.000000
  70
    32
  0
VERTEX
  8
241
  5
19C5
 10
-11.9453
 20
-6.92449
 30
0.000000
  70
    32
  0
VERTEX
  8
241
  5
19C6
 10
-11.8816
 20
-6.93615
 30
0.000000
  70
    32
  0
VERTEX
  8
241
  5
19C7
 10
-11.8177
 20
-6.94755
 30
0.000000
  70
    32
  0
VERTEX
  8
241
  5
19C8
 10
-11.7538
 20
-6.95871
 30
0.000000
  70
    32
  0
VERTEX
  8
241
  5
19C9
 10
-11.6898
 20
-6.96963
 30
0.000000
  70
    32
  0
VERTEX
  8
241
  5
19CA
 10
-11.6257
 20
-6.98035
 30
0.000000
  70
    32
  0
VERTEX
  8
241
  5
19CB
 10
-11.5616
 20
-6.99085
 30
0.000000
  70
    32
  0
VERTEX
  8
241
  5
19CC
 10
-11.4974
 20
-7.00117
 30
0.000000
  70
    32
  0
VERTEX
  8
241
  5
19CD
 10
-11.4332
 20
-7.01131
 30
0.000000
  70
    32
  0
VERTEX
  8
241
  5
19CE
 10
-11.3690
 20
-7.02129
 30
0.000000
  70
    32
  0
VERTEX
  8
241
  5
19CF
 10
-11.3048
 20
-7.03113
 30
0.000000
  70
    32
  0
VERTEX
  8
241
  5
19D0
 10
-11.2405
 20
-7.04082
 30
0.000000
  70
    32
  0
VERTEX
  8
241
  5
19D1
 10
-11.1763
 20
-7.05040
 30
0.000000
  70
    32
  0
VERTEX
  8
241
  5
19D2
 10
-11.1121
 20
-7.05987
 30
0.000000
  70
    32
  0
VERTEX
  8
241
  5
19D3
 10
-11.0479
 20
-7.06924
 30
0.000000
  70
    32
  0
VERTEX
  8
241
  5
19D4
 10
-10.9838
 20
-7.07854
 30
0.000000
  70
    32
  0
VERTEX
  8
241
  5
19D5
 10
-10.9197
 20
-7.08777
 30
0.000000
  70
    32
  0
VERTEX
  8
241
  5
19D6
 10
-10.8557
 20
-7.09694
 30
0.000000
  70
    32
  0
VERTEX
  8
241
  5
19D7
 10
-10.7918
 20
-7.10608
 30
0.000000
  70
    32
  0
VERTEX
  8
241
  5
19D8
 10
-10.7279
 20
-7.11517
 30
0.000000
  70
    32
  0
VERTEX
  8
241
  5
19D9
 10
-10.6641
 20
-7.12420
 30
0.000000
  70
    32
  0
VERTEX
  8
241
  5
19DA
 10
-10.6004
 20
-7.13314
 30
0.000000
  70
    32
  0
VERTEX
  8
241
  5
19DB
 10
-10.5368
 20
-7.14196
 30
0.000000
  70
    32
  0
VERTEX
  8
241
  5
19DC
 10
-10.4732
 20
-7.15064
 30
0.000000
  70
    32
  0
VERTEX
  8
241
  5
19DD
 10
-10.4098
 20
-7.15915
 30
0.000000
  70
    32
  0
VERTEX
  8
241
  5
19DE
 10
-10.3464
 20
-7.16748
 30
0.000000
  70
    32
  0
VERTEX
  8
241
  5
19DF
 10
-10.2832
 20
-7.17558
 30
0.000000
  70
    32
  0
VERTEX
  8
241
  5
19E0
 10
-10.2200
 20
-7.18345
 30
0.000000
  70
    32
  0
VERTEX
  8
241
  5
19E1
 10
-10.1569
 20
-7.19105
 30
0.000000
  70
    32
  0
VERTEX
  8
241
  5
19E2
 10
-10.0939
 20
-7.19835
 30
0.000000
  70
    32
  0
VERTEX
  8
241
  5
19E3
 10
-10.0309
 20
-7.20534
 30
0.000000
  70
    32
  0
VERTEX
  8
241
  5
19E4
 10
-9.96813
 20
-7.21199
 30
0.000000
  70
    32
  0
VERTEX
  8
241
  5
19E5
 10
-9.90540
 20
-7.21827
 30
0.000000
  70
    32
  0
VERTEX
  8
241
  5
19E6
 10
-9.84278
 20
-7.22415
 30
0.000000
  70
    32
  0
VERTEX
  8
241
  5
19E7
 10
-9.78024
 20
-7.22962
 30
0.000000
  70
    32
  0
VERTEX
  8
241
  5
19E8
 10
-9.71781
 20
-7.23464
 30
0.000000
  70
    32
  0
VERTEX
  8
241
  5
19E9
 10
-9.65548
 20
-7.23920
 30
0.000000
  70
    32
  0
VERTEX
  8
241
  5
19EA
 10
-9.59324
 20
-7.24326
 30
0.000000
  70
    32
  0
VERTEX
  8
241
  5
19EB
 10
-9.53111
 20
-7.24681
 30
0.000000
  70
    32
  0
VERTEX
  8
241
  5
19EC
 10
-9.46908
 20
-7.24981
 30
0.000000
  70
    32
  0
VERTEX
  8
241
  5
19ED
 10
-9.40716
 20
-7.25224
 30
0.000000
  70
    32
  0
VERTEX
  8
241
  5
19EE
 10
-9.34534
 20
-7.25408
 30
0.000000
  70
    32
  0
VERTEX
  8
241
  5
19EF
 10
-9.28363
 20
-7.25529
 30
0.000000
  70
    32
  0
VERTEX
  8
241
  5
19F0
 10
-9.22202
 20
-7.25587
 30
0.000000
  70
    32
  0
VERTEX
  8
241
  5
19F1
 10
-9.16053
 20
-7.25577
 30
0.000000
  70
    32
  0
VERTEX
  8
241
  5
19F2
 10
-9.09914
 20
-7.25498
 30
0.000000
  70
    32
  0
VERTEX
  8
241
  5
19F3
 10
-9.03787
 20
-7.25347
 30
0.000000
  70
    32
  0
VERTEX
  8
241
  5
19F4
 10
-8.97670
 20
-7.25121
 30
0.000000
  70
    32
  0
VERTEX
  8
241
  5
19F5
 10
-8.91565
 20
-7.24818
 30
0.000000
  70
    32
  0
VERTEX
  8
241
  5
19F6
 10
-8.85472
 20
-7.24436
 30
0.000000
  70
    32
  0
VERTEX
  8
241
  5
19F7
 10
-8.79390
 20
-7.23972
 30
0.000000
  70
    32
  0
VERTEX
  8
241
  5
19F8
 10
-8.73320
 20
-7.23423
 30
0.000000
  70
    32
  0
VERTEX
  8
241
  5
19F9
 10
-8.67262
 20
-7.22787
 30
0.000000
  70
    32
  0
VERTEX
  8
241
  5
19FA
 10
-8.61215
 20
-7.22063
 30
0.000000
  70
    32
  0
VERTEX
  8
241
  5
19FB
 10
-8.55181
 20
-7.21252
 30
0.000000
  70
    32
  0
VERTEX
  8
241
  5
19FC
 10
-8.49157
 20
-7.20357
 30
0.000000
  70
    32
  0
VERTEX
  8
241
  5
19FD
 10
-8.43145
 20
-7.19379
 30
0.000000
  70
    32
  0
VERTEX
  8
241
  5
19FE
 10
-8.37143
 20
-7.18320
 30
0.000000
  70
    32
  0
VERTEX
  8
241
  5
19FF
 10
-8.31152
 20
-7.17181
 30
0.000000
  70
    32
  0
VERTEX
  8
241
  5
1A00
 10
-8.25172
 20
-7.15964
 30
0.000000
  70
    32
  0
VERTEX
  8
241
  5
1A01
 10
-8.19202
 20
-7.14671
 30
0.000000
  70
    32
  0
VERTEX
  8
241
  5
1A02
 10
-8.13242
 20
-7.13303
 30
0.000000
  70
    32
  0
VERTEX
  8
241
  5
1A03
 10
-8.07291
 20
-7.11863
 30
0.000000
  70
    32
  0
VERTEX
  8
241
  5
1A04
 10
-8.01351
 20
-7.10351
 30
0.000000
  70
    32
  0
VERTEX
  8
241
  5
1A05
 10
-7.95419
 20
-7.08770
 30
0.000000
  70
    32
  0
VERTEX
  8
241
  5
1A06
 10
-7.89497
 20
-7.07121
 30
0.000000
  70
    32
  0
VERTEX
  8
241
  5
1A07
 10
-7.83583
 20
-7.05406
 30
0.000000
  70
    32
  0
VERTEX
  8
241
  5
1A08
 10
-7.77678
 20
-7.03627
 30
0.000000
  70
    32
  0
VERTEX
  8
241
  5
1A09
 10
-7.71782
 20
-7.01785
 30
0.000000
  70
    32
  0
VERTEX
  8
241
  5
1A0A
 10
-7.65894
 20
-6.99882
 30
0.000000
  70
    32
  0
VERTEX
  8
241
  5
1A0B
 10
-7.60013
 20
-6.97920
 30
0.000000
  70
    32
  0
VERTEX
  8
241
  5
1A0C
 10
-7.54140
 20
-6.95900
 30
0.000000
  70
    32
  0
VERTEX
  8
241
  5
1A0D
 10
-7.48275
 20
-6.93824
 30
0.000000
  70
    32
  0
VERTEX
  8
241
  5
1A0E
 10
-7.42417
 20
-6.91694
 30
0.000000
  70
    32
  0
VERTEX
  8
241
  5
1A0F
 10
-7.36567
 20
-6.89511
 30
0.000000
  70
    32
  0
VERTEX
  8
241
  5
1A10
 10
-7.30723
 20
-6.87278
 30
0.000000
  70
    32
  0
VERTEX
  8
241
  5
1A11
 10
-7.24885
 20
-6.84995
 30
0.000000
  70
    32
  0
VERTEX
  8
241
  5
1A12
 10
-7.19054
 20
-6.82666
 30
0.000000
  70
    32
  0
VERTEX
  8
241
  5
1A13
 10
-7.13229
 20
-6.80290
 30
0.000000
  70
    32
  0
VERTEX
  8
241
  5
1A14
 10
-7.07410
 20
-6.77870
 30
0.000000
  70
    32
  0
VERTEX
  8
241
  5
1A15
 10
-7.01597
 20
-6.75408
 30
0.000000
  70
    32
  0
VERTEX
  8
241
  5
1A16
 10
-6.95789
 20
-6.72905
 30
0.000000
  70
    32
  0
VERTEX
  8
241
  5
1A17
 10
-6.89986
 20
-6.70364
 30
0.000000
  70
    32
  0
VERTEX
  8
241
  5
1A18
 10
-6.84189
 20
-6.67785
 30
0.000000
  70
    32
  0
VERTEX
  8
241
  5
1A19
 10
-6.78396
 20
-6.65170
 30
0.000000
  70
    32
  0
VERTEX
  8
241
  5
1A1A
 10
-6.72608
 20
-6.62522
 30
0.000000
  70
    32
  0
VERTEX
  8
241
  5
1A1B
 10
-6.66823
 20
-6.59841
 30
0.000000
  70
    32
  0
VERTEX
  8
241
  5
1A1C
 10
-6.61044
 20
-6.57130
 30
0.000000
  70
    32
  0
VERTEX
  8
241
  5
1A1D
 10
-6.55267
 20
-6.54390
 30
0.000000
  70
    32
  0
VERTEX
  8
241
  5
1A1E
 10
-6.49495
 20
-6.51623
 30
0.000000
  70
    32
  0
VERTEX
  8
241
  5
1A1F
 10
-6.43726
 20
-6.48831
 30
0.000000
  70
    32
  0
VERTEX
  8
241
  5
1A20
 10
-6.37960
 20
-6.46015
 30
0.000000
  70
    32
  0
VERTEX
  8
241
  5
1A21
 10
-6.32197
 20
-6.43177
 30
0.000000
  70
    32
  0
VERTEX
  8
241
  5
1A22
 10
-6.26437
 20
-6.40318
 30
0.000000
  70
    32
  0
VERTEX
  8
241
  5
1A23
 10
-6.20679
 20
-6.37441
 30
0.000000
  70
    32
  0
VERTEX
  8
241
  5
1A24
 10
-6.14924
 20
-6.34547
 30
0.000000
  70
    32
  0
VERTEX
  8
241
  5
1A25
 10
-6.09171
 20
-6.31638
 30
0.000000
  70
    32
  0
VERTEX
  8
241
  5
1A26
 10
-6.03419
 20
-6.28715
 30
0.000000
  70
    32
  0
VERTEX
  8
241
  5
1A27
 10
-5.97669
 20
-6.25780
 30
0.000000
  70
    32
  0
VERTEX
  8
241
  5
1A28
 10
-5.91921
 20
-6.22835
 30
0.000000
  70
    32
  0
VERTEX
  8
241
  5
1A29
 10
-5.86173
 20
-6.19882
 30
0.000000
  70
    32
  0
VERTEX
  8
241
  5
1A2A
 10
-5.80427
 20
-6.16922
 30
0.000000
  70
    32
  0
VERTEX
  8
241
  5
1A2B
 10
-5.74681
 20
-6.13957
 30
0.000000
  70
    32
  0
VERTEX
  8
241
  5
1A2C
 10
-5.68936
 20
-6.10988
 30
0.000000
  70
    32
  0
VERTEX
  8
241
  5
1A2D
 10
-5.63190
 20
-6.08018
 30
0.000000
  70
    32
  0
SEQEND
  8
241
  5
1A2E
  0
LINE
  5
1768
  8
240
 10
-8.9715197073600734
 20
7.770874877421555
 30
0.0
 11
-8.7712076179658425
 21
7.6810889609973501
 31
0.0
  0
LINE
  5
1769
  8
241
 10
-8.7712076179658425
 20
7.6810889609973279
 30
0.0
 11
-12.604206105282969
 21
1.0421401912567201
 31
0.0
  0
LINE
  5
176A
  8
241
 10
-4.7289470413622317
 20
-4.2288435546920757
 30
0.0
 11
-5.2713778918820822
 21
-4.3741874630385658
 31
0.0
  0
ENDBLK
  5
176D
  8
0
  0
ENDSEC
  0
SECTION
  2
ENTITIES
  0
TEXT
  5
13E9
  8
241
 10
-106.3418130692943
 20
24.64066678495681
 30
0.0
 40
3.0
  1
ST16-C0916-60-40
  7
YOKO
 11
-106.3418130692943
 21
24.64066678495681
 31
0.0
 73
     1
  0
LINE
  5
163E
  8
250
 10
-104.8007509798078
 20
-7.9999999999999707
 30
0.0
 11
-120.0
 21
-7.9999999999999671
 31
0.0
  0
LINE
  5
163F
  8
250
 10
-104.8007509798078
 20
8.0000000000000568
 30
0.0
 11
-120.0
 21
8.0000000000000622
 31
0.0
  0
LINE
  5
1640
  8
250
 10
-119.0
 20
-5.7699999999999667
 30
0.0
 11
-119.0
 21
5.7700000000000609
 31
0.0
  0
LINE
  5
1644
  8
250
 10
-105.3007509798078
 20
-7.4999999999999281
 30
0.0
 11
-105.3007509798078
 21
-29.0
 31
0.0
  0
LINE
  5
1645
  8
250
 10
0.0
 20
2.4410677100270979
 30
0.0
 11
-0.000000000000002
 21
-29.0
 31
0.0
  0
LINE
  5
1646
  8
250
 10
-103.0707509798078
 20
-28.0
 30
0.0
 11
-2.2300000000000009
 21
-28.0
 31
0.0
  0
LINE
  5
164A
  8
250
 10
-40.166776383592321
 20
-8.2999999999999687
 30
0.0
 11
-40.166776383592321
 21
-22.0
 31
0.0
  0
LINE
  5
164B
  8
250
 10
0.0
 20
2.4410677100270979
 30
0.0
 11
-0.0000000000000015
 21
-22.0
 31
0.0
  0
LINE
  5
164C
  8
250
 10
-37.936776383592331
 20
-21.0
 30
0.0
 11
-2.2300000000000009
 21
-21.0
 31
0.0
  0
LINE
  5
1650
  8
250
 10
-6.3212572590025502
 20
8.0000000000000071
 30
0.0
 11
17.726280391667739
 21
8.0
 31
0.0
  0
LINE
  5
1651
  8
250
 10
16.726280391667729
 20
5.7699999999999987
 30
0.0
 11
16.726280391667729
 21
-4.7857142857142918
 31
0.0
  0
LINE
  5
1654
  8
250
 10
-0.259079947353996
 20
4.5
 30
0.0
 11
10.72628039166773
 21
4.4999999999999956
 31
0.0
  0
LINE
  5
1655
  8
250
 10
9.7262803916677267
 20
2.269999999999996
 30
0.0
 11
9.7262803916677267
 21
-3.2857142857142878
 31
0.0
  0
LINE
  5
1658
  8
250
 10
0.0000000000000004
 20
4.5617449508390324
 30
0.0
 11
0.0000000000000009
 21
18.281866863746501
 31
0.0
  0
LINE
  5
1659
  8
250
 10
-7.640872452877109
 20
8.4732050930032692
 30
0.0
 11
-12.3149865600209
 21
11.17180636016986
 31
0.0
  0
ARC
  5
165A
  8
250
 10
0.0000000000000002
 20
4.0617449508390333
 30
0.0
 40
13.220121912907461
 50
99.676276514765405
 51
140.3237213782127
  0
TEXT
  5
165E
  8
250
 10
-10.763946081195471
 20
15.36209085680391
 30
0.0
 40
3.0
  1
60üï
 50
25.14272220281687
  0
LINE
  5
165F
  8
250
 10
-9.8699987196107877
 20
12.28980313819879
 30
0.0
 11
-11.448961174623699
 21
10.671806328322241
 31
0.0
  0
LINE
  5
1660
  8
250
 10
-10.4801037636255
 20
12.714439782533979
 30
0.0
 11
-11.448961174623699
 21
10.671806328322241
 31
0.0
  0
LINE
  5
1661
  8
250
 10
-11.448961174623699
 20
10.671806328322241
 30
0.0
 11
-10.17505124161814
 21
12.50212146036638
 31
0.0
  0
LINE
  5
1662
  8
250
 10
-2.253401160763846
 20
17.464128543150739
 30
0.0
 11
0.0000000000000009
 21
17.281866863746501
 31
0.0
  0
LINE
  5
1663
  8
250
 10
-2.1907075886374461
 20
16.723443751583851
 30
0.0
 11
0.0000000000000009
 21
17.281866863746501
 31
0.0
  0
LINE
  5
1664
  8
250
 10
0.0000000000000009
 20
17.281866863746501
 30
0.0
 11
-2.222054374700646
 21
17.0937861473673
 31
0.0
  0
TEXT
  5
1665
  8
250
 10
8.7262803916677267
 20
-2.5714285714285721
 30
0.0
 40
3.0
  1
\U+2205
 50
90.0
  0
TEXT
  5
1666
  8
250
 10
8.7262803916677267
 20
0.1428571428571415
 30
0.0
 40
3.0
  1
9
 50
90.0
  0
LINE
  5
1667
  8
250
 10
9.3546137250010624
 20
2.2699999999999969
 30
0.0
 11
9.7262803916677285
 21
4.4999999999999973
 31
0.0
  0
LINE
  5
1668
  8
250
 10
10.097947058334389
 20
2.2699999999999969
 30
0.0
 11
9.7262803916677285
 21
4.4999999999999973
 31
0.0
  0
LINE
  5
1669
  8
250
 10
9.7262803916677285
 20
4.4999999999999973
 30
0.0
 11
9.7262803916677285
 21
2.2699999999999969
 31
0.0
  0
TEXT
  5
166A
  8
250
 10
15.72628039166773
 20
-4.0714285714285747
 30
0.0
 40
3.0
  1
\U+2205
 50
90.0
  0
TEXT
  5
166B
  8
250
 10
15.72628039166773
 20
-1.357142857142861
 30
0.0
 40
3.0
  1
16
 50
90.0
  0
LINE
  5
166C
  8
250
 10
16.354613725001069
 20
5.7699999999999987
 30
0.0
 11
16.726280391667729
 21
8.0
 31
0.0
  0
LINE
  5
166D
  8
250
 10
17.097947058334402
 20
5.7699999999999987
 30
0.0
 11
16.726280391667729
 21
8.0
 31
0.0
  0
LINE
  5
166E
  8
250
 10
16.726280391667729
 20
8.0
 30
0.0
 11
16.726280391667729
 21
5.7699999999999987
 31
0.0
  0
TEXT
  5
166F
  8
250
 10
-22.750054858462828
 20
-20.0
 30
0.0
 40
2.7999999999999989
  1
40
  0
LINE
  5
1670
  8
250
 10
-2.2300000000000009
 20
-20.62833333333333
 30
0.0
 11
-0.0000000000000015
 21
-21.0
 31
0.0
  0
LINE
  5
1671
  8
250
 10
-2.2300000000000009
 20
-21.37166666666667
 30
0.0
 11
-0.0000000000000015
 21
-21.0
 31
0.0
  0
LINE
  5
1672
  8
250
 10
-0.0000000000000015
 20
-21.0
 30
0.0
 11
-2.2300000000000009
 21
-21.0
 31
0.0
  0
LINE
  5
1673
  8
250
 10
-37.936776383592331
 20
-21.37166666666667
 30
0.0
 11
-40.166776383592321
 21
-21.0
 31
0.0
  0
LINE
  5
1674
  8
250
 10
-37.936776383592331
 20
-20.62833333333333
 30
0.0
 11
-40.166776383592321
 21
-21.0
 31
0.0
  0
LINE
  5
1675
  8
250
 10
-40.166776383592321
 20
-21.0
 30
0.0
 11
-37.936776383592331
 21
-21.0
 31
0.0
  0
TEXT
  5
1676
  8
250
 10
-56.850375489903932
 20
-27.0
 30
0.0
 40
2.7999999999999989
  1
105
  0
LINE
  5
1677
  8
250
 10
-2.2300000000000009
 20
-27.62833333333333
 30
0.0
 11
-0.0000000000000019
 21
-28.0
 31
0.0
  0
LINE
  5
1678
  8
250
 10
-2.2300000000000009
 20
-28.371666666666659
 30
0.0
 11
-0.0000000000000019
 21
-28.0
 31
0.0
  0
LINE
  5
1679
  8
250
 10
-0.0000000000000019
 20
-28.0
 30
0.0
 11
-2.2300000000000009
 21
-28.0
 31
0.0
  0
LINE
  5
167A
  8
250
 10
-103.0707509798078
 20
-28.371666666666659
 30
0.0
 11
-105.3007509798078
 21
-28.0
 31
0.0
  0
LINE
  5
167B
  8
250
 10
-103.0707509798078
 20
-27.62833333333333
 30
0.0
 11
-105.3007509798078
 21
-28.0
 31
0.0
  0
LINE
  5
167C
  8
250
 10
-105.3007509798078
 20
-28.0
 30
0.0
 11
-103.0707509798078
 21
-28.0
 31
0.0
  0
TEXT
  5
167D
  8
250
 10
-120.0
 20
-3.8952380952380659
 30
0.0
 40
3.0
  1
\U+2205
 50
90.0
  0
TEXT
  5
167E
  8
250
 10
-120.09999999999999
 20
-1.1809523809523521
 30
0.0
 40
2.7999999999999989
  1
16
 50
90.0
  0
LINE
  5
167F
  8
250
 10
-119.3716666666666
 20
5.7700000000000609
 30
0.0
 11
-119.0
 21
8.0000000000000622
 31
0.0
  0
LINE
  5
1680
  8
250
 10
-118.6283333333333
 20
5.7700000000000609
 30
0.0
 11
-119.0
 21
8.0000000000000622
 31
0.0
  0
LINE
  5
1681
  8
250
 10
-119.0
 20
8.0000000000000622
 30
0.0
 11
-119.0
 21
5.7700000000000609
 31
0.0
  0
LINE
  5
1682
  8
250
 10
-118.6283333333333
 20
-5.7699999999999667
 30
0.0
 11
-119.0
 21
-7.9999999999999671
 31
0.0
  0
LINE
  5
1683
  8
250
 10
-119.3716666666666
 20
-5.7699999999999667
 30
0.0
 11
-119.0
 21
-7.9999999999999671
 31
0.0
  0
LINE
  5
1684
  8
250
 10
-119.0
 20
-7.9999999999999671
 30
0.0
 11
-119.0
 21
-5.7699999999999667
 31
0.0
  0
INSERT
  5
176E
  8
240
  2
A$C58D80CA3
 10
0.0
 20
0.0
 30
0.0
  0
VIEWPORT
  5
22
 67
     1
  8
0
 10
261.51769911504419
 20
148.5
 30
0.0
 40
523.0353982300885
 41
297.0
 68
     1
 69
     1
1001
ACAD
1000
MVIEW
1002
{
1070
    16
1010
0.0
1020
0.0
1030
0.0
1010
0.0
1020
0.0
1030
1.0
1040
0.0
1040
297.0
1040
261.51769911504419
1040
148.5
1040
50.0
1040
0.0
1040
0.0
1070
     0
1070
   100
1070
     1
1070
     1
1070
     0
1070
     0
1070
     0
1070
     0
1040
0.0
1040
0.0
1040
0.0
1040
1.0
1040
1.0
1040
10.0
1040
10.0
1070
     0
1002
{
1002
}
1002
}
1001
GENIUS_GENODEF_13
1002
{
1000
HIER
1070
     0
1002
}
1002
{
1000
MANEDIT
1070
     0
1002
}
1002
{
1000
NOSEL
1070
     0
1002
}
1002
{
1000
BEHIND
1070
     0
1002
}
1002
{
1000
OTHER
1070
     0
1002
}
1002
{
1000
REACTOR
1002
}
1001
GENIUS_GENOBJ-N-SDF_13
1002
{
1000
OWNER
1000
GEN
1002
}
1001
GENIUS_GENSCREG_15
1000
PF
1040
1.0
1000
DF
1040
1.0
1000
MIN
1011
0.0
1021
0.0
1031
0.0
1021
0.0
1031
0.0
1000
MAX
1011
523.0353982300885
1021
0.0
1031
0.0
1021
297.0
1031
0.0
1000
FLAGS
1070
     2
  0
ENDSEC
  0
EOF
