  0
SECTION
  2
HEADER
  9
$ACADVER
  1
AC1009
  9
$INSBASE
 10
0.0
 20
0.0
 30
0.0
  9
$EXTMIN
 10
-136.50055516508351
 20
-28.377611138547881
 30
0.0
  9
$EXTMAX
 10
14.499445763951281
 20
33.000000000000007
 30
0.0
  9
$LIMMIN
 10
0.0
 20
0.0
  9
$LIMMAX
 10
297.0
 20
210.0
  9
$ORTHOMODE
 70
     0
  9
$REGENMODE
 70
     1
  9
$FILLMODE
 70
     1
  9
$QTEXTMODE
 70
     0
  9
$MIRRTEXT
 70
     1
  9
$DRAGMODE
 70
     2
  9
$LTSCALE
 40
10.0
  9
$OSMODE
 70
  2799
  9
$ATTMODE
 70
     1
  9
$TEXTSIZE
 40
3.0
  9
$TRACEWID
 40
1.0
  9
$TEXTSTYLE
  7
YOKO
  9
$CLAYER
  8
245
  9
$CELTYPE
  6
BYLAYER
  9
$CECOLOR
 62
   256
  9
$DIMSCALE
 40
1.0
  9
$DIMASZ
 40
2.2299999999999991
  9
$DIMEXO
 40
0.5
  9
$DIMDLI
 40
7.0
  9
$DIMRND
 40
0.0
  9
$DIMDLE
 40
0.0
  9
$DIMEXE
 40
1.0
  9
$DIMTP
 40
0.0
  9
$DIMTM
 40
0.01
  9
$DIMTXT
 40
2.7999999999999989
  9
$DIMCEN
 40
0.0
  9
$DIMTSZ
 40
0.0
  9
$DIMTOL
 70
     0
  9
$DIMLIM
 70
     0
  9
$DIMTIH
 70
     0
  9
$DIMTOH
 70
     0
  9
$DIMSE1
 70
     0
  9
$DIMSE2
 70
     0
  9
$DIMTAD
 70
     3
  9
$DIMZIN
 70
     9
  9
$DIMBLK
  1
OPEN
  9
$DIMASO
 70
     1
  9
$DIMSHO
 70
     1
  9
$DIMPOST
  1

  9
$DIMAPOST
  1

  9
$DIMALT
 70
     0
  9
$DIMALTD
 70
     2
  9
$DIMALTF
 40
25.399999999999999
  9
$DIMLFAC
 40
1.0
  9
$DIMTOFL
 70
     1
  9
$DIMTVP
 40
0.0
  9
$DIMTIX
 70
     1
  9
$DIMSOXD
 70
     0
  9
$DIMSAH
 70
     0
  9
$DIMBLK1
  1

  9
$DIMBLK2
  1

  9
$DIMSTYLE
  2
BIGT
  9
$DIMCLRD
 70
   256
  9
$DIMCLRE
 70
   256
  9
$DIMCLRT
 70
    40
  9
$DIMTFAC
 40
1.0
  9
$DIMGAP
 40
1.0
  9
$LUNITS
 70
     2
  9
$LUPREC
 70
     3
  9
$SKETCHINC
 40
1.0
  9
$FILLETRAD
 40
0.2
  9
$AUNITS
 70
     0
  9
$AUPREC
 70
     3
  9
$MENU
  1
.
  9
$ELEVATION
 40
0.0
  9
$PELEVATION
 40
0.0
  9
$THICKNESS
 40
0.0
  9
$LIMCHECK
 70
     0
  9
$BLIPMODE
 70
     0
  9
$CHAMFERA
 40
0.25
  9
$CHAMFERB
 40
0.25
  9
$SKPOLY
 70
     0
  9
$TDCREATE
 40
2454809.4157438078
  9
$TDUPDATE
 40
2454809.4335429282
  9
$TDINDWG
 40
0.0136091319
  9
$TDUSRTIMER
 40
0.0136091319
  9
$USRTIMER
 70
     1
  9
$ANGBASE
 50
0.0
  9
$ANGDIR
 70
     0
  9
$PDMODE
 70
     1
  9
$PDSIZE
 40
0.0
  9
$PLINEWID
 40
0.0
  9
$COORDS
 70
     0
  9
$SPLFRAME
 70
     0
  9
$SPLINETYPE
 70
     6
  9
$SPLINESEGS
 70
     4
  9
$ATTDIA
 70
     1
  9
$ATTREQ
 70
     1
  9
$HANDLING
 70
     1
  9
$HANDSEED
  5
1BD6
  9
$SURFTAB1
 70
     6
  9
$SURFTAB2
 70
     6
  9
$SURFTYPE
 70
     6
  9
$SURFU
 70
     6
  9
$SURFV
 70
     6
  9
$UCSNAME
  2

  9
$UCSORG
 10
0.0
 20
0.0
 30
0.0
  9
$UCSXDIR
 10
1.0
 20
0.0
 30
0.0
  9
$UCSYDIR
 10
0.0
 20
1.0
 30
0.0
  9
$PUCSNAME
  2

  9
$PUCSORG
 10
0.0
 20
0.0
 30
0.0
  9
$PUCSXDIR
 10
1.0
 20
0.0
 30
0.0
  9
$PUCSYDIR
 10
0.0
 20
1.0
 30
0.0
  9
$USERI1
 70
     1
  9
$USERI2
 70
     0
  9
$USERI3
 70
     0
  9
$USERI4
 70
     0
  9
$USERI5
 70
     0
  9
$USERR1
 40
0.0
  9
$USERR2
 40
0.0
  9
$USERR3
 40
0.0
  9
$USERR4
 40
0.0
  9
$USERR5
 40
0.0
  9
$WORLDVIEW
 70
     1
  9
$SHADEDGE
 70
     3
  9
$SHADEDIF
 70
    70
  9
$TILEMODE
 70
     1
  9
$MAXACTVP
 70
    16
  9
$PLIMCHECK
 70
     0
  9
$PEXTMIN
 10
1.0000000000000000E+020
 20
1.0000000000000000E+020
 30
1.0000000000000000E+020
  9
$PEXTMAX
 10
-1.0000000000000000E+020
 20
-1.0000000000000000E+020
 30
-1.0000000000000000E+020
  9
$PLIMMIN
 10
0.0
 20
0.0
  9
$PLIMMAX
 10
420.0
 20
297.0
  9
$UNITMODE
 70
     0
  9
$VISRETAIN
 70
     1
  9
$PLINEGEN
 70
     0
  9
$PSLTSCALE
 70
     1
  0
ENDSEC
  0
SECTION
  2
TABLES
  0
TABLE
  2
VPORT
 70
     3
  0
VPORT
  2
*ACTIVE
 70
     0
 10
0.0
 20
0.0
 11
1.0
 21
1.0
 12
-60.996573954234577
 22
2.316742312764716
 13
0.0
 23
0.0
 14
7.0
 24
7.0
 15
7.0
 25
7.0
 16
0.0
 26
0.0
 36
1.0
 17
0.0
 27
0.0
 37
0.0
 40
97.905201130404905
 41
1.5487804878048781
 42
50.0
 43
0.0
 44
0.0
 50
0.0
 51
0.0
 71
     0
 72
  2000
 73
     1
 74
     0
 75
     0
 76
     1
 77
     0
 78
     0
  0
ENDTAB
  0
TABLE
  2
LTYPE
 70
    13
  0
LTYPE
  2
CONTINUOUS
 70
     0
  3
Solid line
 72
    65
 73
     0
 40
0.0
  0
LTYPE
  2
CENTER2
 70
     0
  3
___ _ ___ _ ___ _ ___ _ ___ _ ___ _ ___ _ ___ _
 72
    65
 73
     4
 40
1.125
 49
0.75
 49
-0.125
 49
0.125
 49
-0.125
  0
LTYPE
  2
HIDDEN2
 70
     0
  3
_ _ _ _ _ _ _ _ _ _ _ _ _ _ _ _ _ _ _ _ _ _ _ _
 72
    65
 73
     2
 40
0.1875
 49
0.125
 49
-0.0625
  0
LTYPE
  2
PHANTOM2
 70
     0
  3
___ _ _ ___ _ _ ___ _ _ ___ _ _ ___ _ _ ___ _ _
 72
    65
 73
     6
 40
1.25
 49
0.625
 49
-0.125
 49
0.125
 49
-0.125
 49
0.125
 49
-0.125
  0
LTYPE
  2
CENTER
 70
     0
  3
____ _ ____ _ ____ _ ____ _ ____ _ ____ _ ____ 
 72
    65
 73
     4
 40
2.0
 49
1.25
 49
-0.25
 49
0.25
 49
-0.25
  0
LTYPE
  2
AM_ISO02W050
 70
     0
  3
__ __ __ __ __ __ __ __ __ __ __ __ __ __ __
 72
    65
 73
     2
 40
7.5
 49
6.0
 49
-1.5
  0
LTYPE
  2
AMCONSTR
 70
     0
  3
_______________________
 72
    65
 73
     2
 40
9999.0
 49
9999.0
 49
0.0
  0
LTYPE
  2
ACISOWELD
 70
     0
  3
_ _ _ _ _
 72
    65
 73
     2
 40
2.0
 49
2.0
 49
-1.0
  0
LTYPE
  2
ACISOTGB
 70
     0
  3
__ . . __ . .
 72
    65
 73
     6
 40
9.0
 49
4.0
 49
-1.0
 49
1.0
 49
-1.0
 49
1.0
 49
-1.0
  0
LTYPE
  2
ACISOTGL
 70
     0
  3
_ _ _ _ _
 72
    65
 73
     2
 40
3.0
 49
2.0
 49
-1.0
  0
LTYPE
  2
ACJISTGB
 70
     0
  3
__ . . __ . .
 72
    65
 73
     6
 40
9.0
 49
4.0
 49
-1.0
 49
1.0
 49
-1.0
 49
1.0
 49
-1.0
  0
LTYPE
  2
ACJISTGL
 70
     0
  3
_ _ _ _ _
 72
    65
 73
     2
 40
3.0
 49
2.0
 49
-1.0
  0
LTYPE
  2
HIDDEN
 70
     0
  3
Hidden __ __ __ __ __ __ __ __ __ __ __ __ __ _
 72
    65
 73
     2
 40
9.5249999999999986
 49
6.3499999999999988
 49
-3.1749999999999989
  0
ENDTAB
  0
TABLE
  2
LAYER
 70
     8
  0
LAYER
  2
0
 70
     0
 62
     7
  6
CONTINUOUS
  0
LAYER
  2
DEFPOINTS
 70
     0
 62
     7
  6
CONTINUOUS
  0
LAYER
  2
245
 70
     0
 62
     2
  6
CENTER2
  0
LAYER
  2
240
 70
     0
 62
     4
  6
CONTINUOUS
  0
LAYER
  2
241
 70
     0
 62
   211
  6
CONTINUOUS
  0
LAYER
  2
246
 70
     0
 62
     3
  6
PHANTOM2
  0
LAYER
  2
247
 70
     0
 62
    60
  6
CONTINUOUS
  0
LAYER
  2
250
 70
     0
 62
     3
  6
CONTINUOUS
  0
ENDTAB
  0
TABLE
  2
STYLE
 70
     6
  0
STYLE
  2
STANDARD
 70
     0
 40
0.0
 41
1.0
 50
0.0
 71
     0
 42
3.0
  3
romans.shx
  4
extfont.shx
  0
STYLE
  2
ACISOTS
 70
     0
 40
1.0
 41
1.0
 50
0.0
 71
     0
 42
3.0
  3
amgdt.shx
  4
extfont.shx
  0
STYLE
  2
ACISOGDT
 70
     0
 40
0.0
 41
1.0
 50
0.0
 71
     0
 42
3.0
  3
amgdt.shx
  4
extfont.shx
  0
STYLE
  2
ACJISTS
 70
     0
 40
1.0
 41
1.0
 50
0.0
 71
     0
 42
3.0
  3
amgdt.shx
  4
extfont.shx
  0
STYLE
  2
ACJISGDT
 70
     0
 40
0.0
 41
1.0
 50
0.0
 71
     0
 42
3.0
  3
amgdt.shx
  4
extfont.shx
  0
STYLE
  2
YOKO
 70
     0
 40
0.0
 41
1.0
 50
0.0
 71
     0
 42
3.0
  3
romans.shx
  4
extfont.shx
  0
ENDTAB
  0
TABLE
  2
VIEW
 70
     0
  0
ENDTAB
  0
TABLE
  2
UCS
 70
     0
  0
ENDTAB
  0
TABLE
  2
APPID
 70
    31
  0
APPID
  2
ACAD
 70
     0
  0
APPID
  2
GLOBAL
 70
     0
  0
APPID
  2
DETAIL
 70
     0
  0
APPID
  2
GRPNAME
 70
     0
  0
APPID
  2
GPARA
 70
     0
  0
APPID
  2
MCAD_NO_VIS
 70
     0
  0
APPID
  2
ACAD_TEMP_GRAPHIC
 70
     0
  0
APPID
  2
ACATTRIBSERVICES
 70
     0
  0
APPID
  2
GENIUS_GENSCREG_15
 70
     0
  0
APPID
  2
GENIUS_GENODEF_13
 70
     0
  0
APPID
  2
GENIUS_GENOBJ-N-SDF_13
 70
     0
  0
APPID
  2
GENIUS_GENREC_14
 70
     0
  0
APPID
  2
GENIUS_GENOBJ-N-REC_13
 70
     0
  0
APPID
  2
GENIUS_GENDIMSH_14
 70
     0
  0
APPID
  2
GENIUS_GENOBJ-N-DIM_13
 70
     0
  0
APPID
  2
GENIUS_GENDIM_13
 70
     0
  0
APPID
  2
GENIUS_GENDTOL_13
 70
     0
  0
APPID
  2
GENIUS_GENOLIS_13
 70
     0
  0
APPID
  2
GENIUS_GENOENT_13
 70
     0
  0
APPID
  2
GENIUS_GENOBJ-F-FEM_13
 70
     0
  0
APPID
  2
GENIUS_GENOREF_13
 70
     0
  0
APPID
  2
GENIUS_GEFFEM_13
 70
     0
  0
APPID
  2
GENIUS_GEFFEMP_13
 70
     0
  0
APPID
  2
AD_DRAW
 70
     0
  0
APPID
  2
DESIGNERASSEMBLIES
 70
     0
  0
APPID
  2
ACADM_DIM_EDIT
 70
     0
  0
APPID
  2
AMDT_DM_ADJ
 70
     0
  0
APPID
  2
GENIUS_GENOBJ-N-FIL_13
 70
     0
  0
APPID
  2
HATCH_TYPE
 70
     0
  0
APPID
  2
HATCH_DISPLAY
 70
     0
  0
APPID
  2
HATCH_DISTANCE
 70
     0
  0
ENDTAB
  0
TABLE
  2
DIMSTYLE
 70
    23
  0
DIMSTYLE
  2
BIGT
 70
     0
  3

  4

  5
OPEN
  6

  7

 40
1.0
 41
2.2299999999999991
 42
0.5
 43
7.0
 44
1.0
 45
0.0
 46
0.0
 47
0.0
 48
0.01
140
2.7999999999999989
141
0.0
142
0.0
143
25.399999999999999
144
1.0
145
0.0
146
1.0
147
1.0
 71
     0
 72
     0
 73
     0
 74
     0
 75
     0
 76
     0
 77
     3
 78
     9
170
     0
171
     2
172
     1
173
     0
174
     1
175
     0
176
   256
177
   256
178
    40
  0
DIMSTYLE
  2
AM_ISO
 70
     0
  3

  4
"
  5

  6

  7

 40
1.0
 41
2.5
 42
1.0
 43
10.0
 44
1.0
 45
0.0
 46
0.0
 47
0.1
 48
0.1
140
3.5
141
0.0
142
0.0
143
0.0393701
144
1.0
145
0.0
146
0.71
147
1.5
 71
     0
 72
     0
 73
     0
 74
     0
 75
     0
 76
     0
 77
     1
 78
     8
170
     0
171
     2
172
     1
173
     0
174
     0
175
     0
176
   256
177
   256
178
     2
  0
DIMSTYLE
  2
AM_ISO$3
 70
     0
  3

  4
"
  5

  6

  7

 40
1.0
 41
2.5
 42
1.0
 43
10.0
 44
1.0
 45
0.0
 46
0.0
 47
0.1
 48
0.1
140
3.5
141
0.0
142
0.0
143
0.0393701
144
1.0
145
0.0
146
0.71
147
1.5
 71
     0
 72
     0
 73
     0
 74
     1
 75
     0
 76
     0
 77
     1
 78
     8
170
     0
171
     2
172
     0
173
     0
174
     0
175
     0
176
   256
177
   256
178
     2
  0
DIMSTYLE
  2
AM_ISO$4
 70
     0
  3

  4
"
  5

  6

  7

 40
1.0
 41
2.5
 42
1.0
 43
10.0
 44
1.0
 45
0.0
 46
0.0
 47
0.1
 48
0.1
140
3.5
141
0.0
142
0.0
143
0.0393701
144
1.0
145
0.0
146
0.71
147
1.5
 71
     0
 72
     0
 73
     0
 74
     1
 75
     0
 76
     0
 77
     1
 78
     8
170
     0
171
     2
172
     0
173
     0
174
     0
175
     0
176
   256
177
   256
178
     2
  0
DIMSTYLE
  2
AM_ISO$6
 70
     0
  3

  4
"
  5

  6

  7

 40
1.0
 41
2.5
 42
1.0
 43
10.0
 44
1.0
 45
0.0
 46
0.0
 47
0.1
 48
0.1
140
3.5
141
0.0
142
0.0
143
0.0393701
144
1.0
145
0.0
146
0.71
147
1.5
 71
     0
 72
     0
 73
     0
 74
     0
 75
     0
 76
     0
 77
     0
 78
     8
170
     0
171
     2
172
     1
173
     0
174
     0
175
     0
176
   256
177
   256
178
     2
  0
DIMSTYLE
  2
AM_ISO$7
 70
     0
  3

  4
"
  5

  6

  7

 40
1.0
 41
2.5
 42
1.0
 43
10.0
 44
1.0
 45
0.0
 46
0.0
 47
0.1
 48
0.1
140
5.0
141
0.0
142
0.0
143
0.0393701
144
1.0
145
0.0
146
0.71
147
1.5
 71
     0
 72
     0
 73
     0
 74
     0
 75
     0
 76
     0
 77
     1
 78
     8
170
     0
171
     2
172
     1
173
     0
174
     0
175
     0
176
   256
177
   256
178
     2
  0
DIMSTYLE
  2
AM_ISO$SF
 70
     0
  3

  4
"
  5

  6

  7

 40
1.0
 41
2.5
 42
1.0
 43
10.0
 44
1.0
 45
0.0
 46
0.0
 47
0.1
 48
0.1
140
3.5
141
0.0
142
0.0
143
0.0393701
144
1.0
145
0.0
146
0.71
147
1.5
 71
     0
 72
     0
 73
     0
 74
     0
 75
     1
 76
     1
 77
     1
 78
     8
170
     0
171
     2
172
     1
173
     0
174
     0
175
     0
176
   256
177
   256
178
     2
  0
DIMSTYLE
  2
AM_ISO$SH
 70
     0
  3

  4
"
  5

  6
GENAXEH
  7

 40
1.0
 41
2.5
 42
1.0
 43
10.0
 44
1.0
 45
0.0
 46
0.0
 47
0.1
 48
0.1
140
3.5
141
0.0
142
0.0
143
0.0393701
144
2.0
145
0.0
146
0.71
147
1.5
 71
     0
 72
     0
 73
     0
 74
     0
 75
     1
 76
     1
 77
     1
 78
     8
170
     0
171
     2
172
     1
173
     1
174
     0
175
     0
176
   256
177
   256
178
     2
  0
DIMSTYLE
  2
BIGT$2
 70
     0
  3

  4

  5
OPEN
  6

  7

 40
1.0
 41
2.2299999999999991
 42
0.5
 43
7.0
 44
1.0
 45
0.0
 46
0.0
 47
0.0
 48
0.01
140
2.7999999999999989
141
0.0
142
0.0
143
25.399999999999999
144
1.0
145
0.0
146
1.0
147
1.0
 71
     0
 72
     0
 73
     0
 74
     0
 75
     0
 76
     0
 77
     3
 78
     9
170
     0
171
     2
172
     1
173
     0
174
     0
175
     0
176
   256
177
   256
178
    40
  0
DIMSTYLE
  2
BIGT$3
 70
     0
  3

  4

  5
OPEN
  6

  7

 40
1.0
 41
2.2299999999999991
 42
0.5
 43
2.5
 44
1.0
 45
0.0
 46
0.0
 47
0.0
 48
0.01
140
2.7999999999999989
141
0.0
142
0.0
143
25.399999999999999
144
1.0
145
0.0
146
1.0
147
1.0
 71
     0
 72
     0
 73
     0
 74
     0
 75
     0
 76
     0
 77
     3
 78
     9
170
     0
171
     2
172
     1
173
     0
174
     0
175
     0
176
   256
177
   256
178
    40
  0
DIMSTYLE
  2
BIGT$7
 70
     0
  3

  4

  5
OPEN
  6

  7

 40
0.0
 41
2.2299999999999991
 42
0.5
 43
7.0
 44
1.0
 45
0.0
 46
0.0
 47
0.0
 48
0.01
140
2.7999999999999989
141
0.0
142
0.0
143
25.399999999999999
144
1.0
145
0.0
146
1.0
147
1.0
 71
     0
 72
     0
 73
     0
 74
     0
 75
     0
 76
     0
 77
     3
 78
     9
170
     0
171
     2
172
     0
173
     0
174
     0
175
     0
176
   256
177
   256
178
    40
  0
DIMSTYLE
  2
BIGT$6
 70
     0
  3

  4

  5
OPEN
  6

  7

 40
1.0
 41
2.2299999999999991
 42
0.5
 43
2.5
 44
1.0
 45
0.0
 46
0.0
 47
0.0
 48
0.01
140
2.7999999999999989
141
0.0
142
0.0
143
25.399999999999999
144
1.0
145
0.0
146
1.0
147
1.0
 71
     0
 72
     0
 73
     0
 74
     0
 75
     0
 76
     0
 77
     3
 78
     9
170
     0
171
     2
172
     1
173
     0
174
     0
175
     0
176
   256
177
   256
178
    40
  0
DIMSTYLE
  2
BIGT$0
 70
     0
  3

  4

  5
OPEN
  6

  7

 40
1.0
 41
2.2299999999999991
 42
0.5
 43
7.0
 44
1.0
 45
0.0
 46
0.0
 47
0.0
 48
0.01
140
2.7999999999999989
141
0.0
142
0.0
143
25.399999999999999
144
1.0
145
0.0
146
1.0
147
1.0
 71
     0
 72
     0
 73
     0
 74
     0
 75
     0
 76
     0
 77
     3
 78
     9
170
     0
171
     2
172
     1
173
     0
174
     0
175
     0
176
   256
177
   256
178
    40
  0
DIMSTYLE
  2
BIGT$4
 70
     0
  3

  4

  5
OPEN
  6

  7

 40
1.0
 41
2.2299999999999991
 42
0.5
 43
2.5
 44
1.0
 45
0.0
 46
0.0
 47
0.0
 48
0.01
140
2.7999999999999989
141
0.0
142
0.0
143
25.399999999999999
144
1.0
145
0.0
146
1.0
147
1.0
 71
     0
 72
     0
 73
     0
 74
     0
 75
     0
 76
     0
 77
     3
 78
     9
170
     0
171
     2
172
     1
173
     0
174
     0
175
     0
176
   256
177
   256
178
    40
  0
DIMSTYLE
  2
BIGT$SH
 70
     0
  3

  4

  5
OPEN
  6

  7

 40
1.0
 41
2.2299999999999991
 42
0.5
 43
7.0
 44
1.0
 45
0.0
 46
0.0
 47
0.0
 48
0.0
140
2.7999999999999989
141
0.0
142
0.0
143
25.399999999999999
144
1.0
145
0.0
146
1.0
147
1.0
 71
     0
 72
     0
 73
     0
 74
     0
 75
     0
 76
     0
 77
     3
 78
     9
170
     0
171
     2
172
     1
173
     0
174
     0
175
     0
176
   256
177
   256
178
    40
  0
DIMSTYLE
  2
BIGT$SF
 70
     0
  3

  4

  5
OPEN
  6

  7

 40
1.0
 41
2.2299999999999991
 42
0.5
 43
7.0
 44
1.0
 45
0.0
 46
0.0
 47
0.0
 48
0.0
140
2.7999999999999989
141
0.0
142
0.0
143
25.399999999999999
144
1.0
145
0.0
146
1.0
147
1.0
 71
     0
 72
     0
 73
     0
 74
     0
 75
     0
 76
     0
 77
     3
 78
     9
170
     0
171
     2
172
     1
173
     0
174
     0
175
     0
176
   256
177
   256
178
    40
  0
DIMSTYLE
  2
TECHNICAL_OSAKA
 70
     0
  3

  4
"
  5
OPEN30
  6

  7

 40
1.0
 41
2.5
 42
1.0
 43
10.0
 44
1.0
 45
0.0
 46
0.0
 47
0.1
 48
0.1
140
2.7999999999999989
141
0.0
142
0.0
143
0.0393701
144
1.0
145
0.0
146
0.71
147
1.5
 71
     0
 72
     0
 73
     0
 74
     0
 75
     0
 76
     0
 77
     3
 78
     8
170
     0
171
     2
172
     1
173
     0
174
     0
175
     0
176
   256
177
   256
178
    40
  0
DIMSTYLE
  2
TECHNICAL_OSAKA$3
 70
     0
  3

  4
"
  5
OPEN30
  6

  7

 40
1.0
 41
2.5
 42
1.0
 43
10.0
 44
1.0
 45
0.0
 46
0.0
 47
0.1
 48
0.1
140
2.7999999999999989
141
0.0
142
0.0
143
0.0393701
144
1.0
145
0.0
146
0.71
147
1.5
 71
     0
 72
     0
 73
     0
 74
     1
 75
     0
 76
     0
 77
     3
 78
     8
170
     0
171
     2
172
     0
173
     0
174
     0
175
     0
176
   256
177
   256
178
    40
  0
DIMSTYLE
  2
TECHNICAL_OSAKA$4
 70
     0
  3

  4
"
  5
OPEN30
  6

  7

 40
1.0
 41
2.5
 42
1.0
 43
10.0
 44
1.0
 45
0.0
 46
0.0
 47
0.1
 48
0.1
140
2.7999999999999989
141
0.0
142
0.0
143
0.0393701
144
1.0
145
0.0
146
0.71
147
1.5
 71
     0
 72
     0
 73
     0
 74
     1
 75
     0
 76
     0
 77
     3
 78
     8
170
     0
171
     2
172
     0
173
     0
174
     0
175
     0
176
   256
177
   256
178
    40
  0
DIMSTYLE
  2
TECHNICAL_OSAKA$6
 70
     0
  3

  4
"
  5
OPEN30
  6

  7

 40
1.0
 41
2.5
 42
1.0
 43
10.0
 44
1.0
 45
0.0
 46
0.0
 47
0.1
 48
0.1
140
2.7999999999999989
141
0.0
142
0.0
143
0.0393701
144
1.0
145
0.0
146
0.71
147
1.5
 71
     0
 72
     0
 73
     0
 74
     0
 75
     0
 76
     0
 77
     0
 78
     8
170
     0
171
     2
172
     1
173
     0
174
     0
175
     0
176
   256
177
   256
178
    40
  0
DIMSTYLE
  2
TECHNICAL_OSAKA$7
 70
     0
  3

  4
"
  5
OPEN30
  6

  7

 40
1.0
 41
2.5
 42
1.0
 43
10.0
 44
1.0
 45
0.0
 46
0.0
 47
0.1
 48
0.1
140
2.7999999999999989
141
0.0
142
0.0
143
0.0393701
144
1.0
145
0.0
146
0.71
147
1.5
 71
     0
 72
     0
 73
     0
 74
     0
 75
     0
 76
     0
 77
     3
 78
     8
170
     0
171
     2
172
     1
173
     0
174
     0
175
     0
176
   256
177
   256
178
    40
  0
DIMSTYLE
  2
TECHNICAL_OSAKA$SF
 70
     0
  3

  4
"
  5
OPEN30
  6
OPEN30
  7
OPEN30
 40
1.0
 41
2.5
 42
1.0
 43
10.0
 44
1.0
 45
0.0
 46
0.0
 47
0.1
 48
0.1
140
3.5
141
0.0
142
0.0
143
0.0393701
144
1.0
145
0.0
146
0.71
147
1.5
 71
     0
 72
     0
 73
     0
 74
     0
 75
     1
 76
     1
 77
     3
 78
     8
170
     0
171
     2
172
     1
173
     0
174
     0
175
     0
176
   256
177
   256
178
    40
  0
DIMSTYLE
  2
TECHNICAL_OSAKA$SH
 70
     0
  3

  4
"
  5
OPEN30
  6
GENAXEH
  7
OPEN30
 40
1.0
 41
2.5
 42
1.0
 43
10.0
 44
1.0
 45
0.0
 46
0.0
 47
0.1
 48
0.1
140
3.5
141
0.0
142
0.0
143
0.0393701
144
2.0
145
0.0
146
0.71
147
1.5
 71
     0
 72
     0
 73
     0
 74
     0
 75
     1
 76
     1
 77
     3
 78
     8
170
     0
171
     2
172
     1
173
     1
174
     0
175
     0
176
   256
177
   256
178
    40
  0
ENDTAB
  0
ENDSEC
  0
SECTION
  2
BLOCKS
  0
BLOCK
  8
0
  2
$MODEL_SPACE
 70
     0
 10
0.0
 20
0.0
 30
0.0
  3
$MODEL_SPACE
  1

  0
ENDBLK
  5
1C
  8
0
  0
BLOCK
 67
     1
  8
0
  2
$PAPER_SPACE
 70
     0
 10
0.0
 20
0.0
 30
0.0
  3
$PAPER_SPACE
  1

  0
ENDBLK
  5
19
 67
     1
  8
0
  0
BLOCK
  8
0
  2
_OPEN
 70
     0
 10
0.0
 20
0.0
 30
0.0
  3
_OPEN
  1

  0
LINE
  5
1948
  8
0
  6
BYBLOCK
 62
     0
 10
-1.0
 20
0.1666666666666666
 30
0.0
 11
0.0
 21
0.0
 31
0.0
  0
LINE
  5
1949
  8
0
  6
BYBLOCK
 62
     0
 10
-1.0
 20
-0.1666666666666666
 30
0.0
 11
0.0
 21
0.0
 31
0.0
  0
LINE
  5
194A
  8
0
  6
BYBLOCK
 62
     0
 10
0.0
 20
0.0
 30
0.0
 11
-1.0
 21
0.0
 31
0.0
  0
ENDBLK
  5
194B
  8
0
  0
BLOCK
  8
0
  2
GENAXEH
 70
     0
 10
0.0
 20
0.0
 30
0.0
  3
GENAXEH
  1

  0
LINE
  5
1973
  8
0
 10
-1.0
 20
0.0
 30
0.0
 11
1.0
 21
0.0
 31
0.0
  0
ENDBLK
  5
1974
  8
0
  0
BLOCK
  8
0
  2
_OPEN30
 70
     0
 10
0.0
 20
0.0
 30
0.0
  3
_OPEN30
  1

  0
LINE
  5
1998
  8
0
  6
BYBLOCK
 62
     0
 10
-1.0
 20
0.26794919
 30
0.0
 11
0.0
 21
0.0
 31
0.0
  0
LINE
  5
1999
  8
0
  6
BYBLOCK
 62
     0
 10
0.0
 20
0.0
 30
0.0
 11
-1.0
 21
-0.26794919
 31
0.0
  0
LINE
  5
199A
  8
0
  6
BYBLOCK
 62
     0
 10
0.0
 20
0.0
 30
0.0
 11
-1.0
 21
0.0
 31
0.0
  0
ENDBLK
  5
199B
  8
0
  0
BLOCK
  8
0
  2
A$C7FAA2368
 70
     0
 10
0.0
 20
0.0
 30
0.0
  3
A$C7FAA2368
  1

  0
LINE
  5
170C
  8
247
 10
-114.7484765804375
 20
-4.476030981810097
 30
0.0
 11
-113.85910457215491
 21
-3.5866589735274341
 31
0.0
  0
LINE
  5
170D
  8
247
 10
-114.7849523659509
 20
-4.7711381436103011
 30
0.0
 11
-114.5139512349788
 21
-4.500137012638219
 31
0.0
  0
LINE
  5
170E
  8
247
 10
-113.8349985413267
 20
-3.8211843189860901
 30
0.0
 11
-113.5639974103546
 21
-3.5501831880140071
 31
0.0
  0
LINE
  5
170F
  8
247
 10
-114.7622190058264
 20
-5.0070361597726016
 30
0.0
 11
-114.5518506290607
 21
-4.7966677830067743
 31
0.0
  0
LINE
  5
1710
  8
247
 10
-113.5381700718699
 20
-3.7829872258160142
 30
0.0
 11
-113.30536538436991
 21
-3.5501825383160202
 31
0.0
  0
LINE
  5
1711
  8
247
 10
-114.7046538090465
 20
-5.2081023392794563
 30
0.0
 11
-114.5198162960985
 21
-5.0232648263314621
 31
0.0
  0
LINE
  5
1712
  8
247
 10
-113.2795386955832
 20
-3.7829872258160151
 30
0.0
 11
-113.096130250767
 21
-3.599578781000019
 31
0.0
  0
LINE
  5
1713
  8
247
 10
-114.6212873761434
 20
-5.383367282663043
 30
0.0
 11
-114.4493890079182
 21
-5.2114689144379351
 31
0.0
  0
LINE
  5
1714
  8
247
 10
-114.5162698992816
 20
-5.5369811820880379
 30
0.0
 11
-114.3504232726311
 21
-5.3711345554376324
 31
0.0
  0
LINE
  5
1715
  8
247
 10
-114.391430973669
 20
-5.670773632762339
 30
0.0
 11
-114.2266477029999
 21
-5.50599036209322
 31
0.0
  0
LINE
  5
1716
  8
247
 10
-114.24708439524009
 20
-5.7850584306201949
 30
0.0
 11
-114.07866888547321
 21
-5.616642920853236
 31
0.0
  0
LINE
  5
1717
  8
247
 10
-114.0821487455059
 20
-5.8787541571728497
 30
0.0
 11
-113.9043566450118
 21
-5.7009620566787751
 31
0.0
  0
LINE
  5
1718
  8
247
 10
-113.8937107653114
 20
-5.9489475532651683
 30
0.0
 11
-113.6973699249766
 21
-5.7526067129302803
 31
0.0
  0
LINE
  5
1719
  8
247
 10
-113.6755302886836
 20
-5.9893984529240578
 30
0.0
 11
-113.4479416018587
 21
-5.7618097660992262
 31
0.0
  0
LINE
  5
171A
  8
247
 10
-113.4221149070804
 20
-5.9946144476077166
 30
0.0
 11
-113.1893102255719
 21
-5.7618097660992262
 31
0.0
  0
LINE
  5
171B
  8
247
 10
-113.1634835307937
 20
-5.9946144476077166
 30
0.0
 11
-112.9306788492851
 21
-5.7618097660992262
 31
0.0
  0
LINE
  5
171C
  8
247
 10
-112.9048521545069
 20
-5.9946144476077166
 30
0.0
 11
-112.6720474729984
 21
-5.7618097660992262
 31
0.0
  0
LINE
  5
171D
  8
247
 10
-112.6462207782201
 20
-5.9946144476077228
 30
0.0
 11
-112.4134160967116
 21
-5.7618097660992316
 31
0.0
  0
LINE
  5
171E
  8
247
 10
-112.3875894019334
 20
-5.9946144476077228
 30
0.0
 11
-112.1547847204248
 21
-5.7618097660992262
 31
0.0
  0
LINE
  5
171F
  8
247
 10
-112.1289580256465
 20
-5.9946144476077166
 30
0.0
 11
-111.896153344138
 21
-5.7618097660992262
 31
0.0
  0
LINE
  5
1720
  8
247
 10
-111.8703266493597
 20
-5.9946144476077166
 30
0.0
 11
-111.6375219678512
 21
-5.7618097660992262
 31
0.0
  0
LINE
  5
1721
  8
247
 10
-111.611695273073
 20
-5.9946144476077166
 30
0.0
 11
-111.3788905915644
 21
-5.7618097660992262
 31
0.0
  0
LINE
  5
1722
  8
247
 10
-111.3530638967862
 20
-5.9946144476077166
 30
0.0
 11
-111.1202592152776
 21
-5.7618097660992262
 31
0.0
  0
LINE
  5
1723
  8
247
 10
-109.1006306578447
 20
-3.742181208666238
 30
0.0
 11
-108.9108769712328
 21
-3.552427522054423
 31
0.0
  0
LINE
  5
1724
  8
247
 10
-111.0944325204993
 20
-5.9946144476077228
 30
0.0
 11
-110.8616278389908
 21
-5.7618097660992262
 31
0.0
  0
LINE
  5
1725
  8
247
 10
-108.8839267647151
 20
-3.7841086918235769
 30
0.0
 11
-108.6624978152028
 21
-3.5626797423112309
 31
0.0
  0
LINE
  5
1726
  8
247
 10
-110.8358011442126
 20
-5.9946144476077166
 30
0.0
 11
-110.6029964627041
 21
-5.7618097660992262
 31
0.0
  0
LINE
  5
1727
  8
247
 10
-108.643288530728
 20
-3.8021018341230919
 30
0.0
 11
-108.4531531808486
 21
-3.6119664842437582
 31
0.0
  0
LINE
  5
1728
  8
247
 10
-110.5771697679257
 20
-5.9946144476077166
 30
0.0
 11
-110.3443650864172
 21
-5.7618097660992262
 31
0.0
  0
LINE
  5
1729
  8
247
 10
-108.4460046130512
 20
-3.8634492927331361
 30
0.0
 11
-108.2713970654855
 21
-3.6888417451675708
 31
0.0
  0
LINE
  5
172A
  8
247
 10
-110.318538391639
 20
-5.9946144476077228
 30
0.0
 11
-110.0857337101305
 21
-5.7618097660992156
 31
0.0
  0
LINE
  5
172B
  8
247
 10
-108.2790937448879
 20
-3.9551698008567291
 30
0.0
 11
-108.11213463833261
 21
-3.788210694301378
 31
0.0
  0
LINE
  5
172C
  8
247
 10
-110.0599070153521
 20
-5.9946144476077228
 30
0.0
 11
-109.8271023338436
 21
-5.7618097660992316
 31
0.0
  0
LINE
  5
172D
  8
247
 10
-108.1376422345804
 20
-4.0723496668358914
 30
0.0
 11
-107.9730244362449
 21
-3.9077318685005329
 31
0.0
  0
LINE
  5
172E
  8
247
 10
-109.80127563906539
 20
-5.9946144476077228
 30
0.0
 11
-109.5684709575569
 21
-5.7618097660992262
 31
0.0
  0
LINE
  5
172F
  8
247
 10
-108.0203008087596
 20
-4.2136396173020136
 30
0.0
 11
-107.85337326581021
 21
-4.0467120743525626
 31
0.0
  0
LINE
  5
1730
  8
247
 10
-109.54264426277869
 20
-5.9946144476077166
 30
0.0
 11
-109.3098395812701
 21
-5.7618097660992262
 31
0.0
  0
LINE
  5
1731
  8
247
 10
-107.9284000984437
 20
-4.3803702832728577
 30
0.0
 11
-107.7538649007022
 21
-4.2058350855314197
 31
0.0
  0
LINE
  5
1732
  8
247
 10
-109.28401288649189
 20
-5.9946144476077166
 30
0.0
 11
-109.0512082049833
 21
-5.7618097660992262
 31
0.0
  0
LINE
  5
1733
  8
247
 10
-107.8668220130964
 20
-4.5774235742123306
 30
0.0
 11
-107.6768275347677
 21
-4.3874290958836264
 31
0.0
  0
LINE
  5
1734
  8
247
 10
-109.02538151020509
 20
-5.9946144476077228
 30
0.0
 11
-108.7915393232703
 21
-5.7607722606730718
 31
0.0
  0
LINE
  5
1735
  8
247
 10
-107.84845801985441
 20
-4.8176909572571409
 30
0.0
 11
-107.62733053525351
 21
-4.5965634726562428
 31
0.0
  0
LINE
  5
1736
  8
247
 10
-108.7646144296844
 20
-5.9924787433738853
 30
0.0
 11
-108.4589342539991
 21
-5.6867985676886201
 31
0.0
  0
LINE
  5
1737
  8
247
 10
-107.9224317128389
 20
-5.1502960265284017
 30
0.0
 11
-107.6167515371537
 21
-4.8446158508431401
 31
0.0
  0
LINE
  5
1738
  8
247
 10
-108.4428910410202
 20
-5.929386730996435
 30
0.0
 11
-107.679843549531
 21
-5.1663392395073737
 31
0.0
  0
LINE
  5
1739
  8
247
 10
-111.26037098941561
 20
-3.5742391536561442
 30
0.0
 11
-111.2363143740755
 21
-3.5501825383160202
 31
0.0
  0
LINE
  5
173A
  8
247
 10
-111.2455010459431
 20
-3.8180005864703972
 30
0.0
 11
-110.9776829977887
 21
-3.550182538316029
 31
0.0
  0
LINE
  5
173B
  8
247
 10
-111.34947793870811
 20
-4.180608855522129
 30
0.0
 11
-110.719051621502
 21
-3.5501825383160202
 31
0.0
  0
LINE
  5
173C
  8
247
 10
-111.453454831473
 20
-4.5432171245738546
 30
0.0
 11
-110.7234274435298
 21
-3.8131897366306382
 31
0.0
  0
LINE
  5
173D
  8
247
 10
-111.5574317242379
 20
-4.90582539362559
 30
0.0
 11
-110.8274029173472
 21
-4.175796586734891
 31
0.0
  0
LINE
  5
173E
  8
247
 10
-111.66140861700291
 20
-5.2684336626773094
 30
0.0
 11
-110.9313783911648
 21
-4.5384034368391344
 31
0.0
  0
LINE
  5
173F
  8
247
 10
-111.7653855097678
 20
-5.6310419317290306
 30
0.0
 11
-111.0353538649822
 21
-4.901010286943376
 31
0.0
  0
LINE
  5
1740
  8
247
 10
-111.5211196241012
 20
-5.6454074223491961
 30
0.0
 11
-111.1393293387997
 21
-5.2636171370476239
 31
0.0
  0
LINE
  5
1741
  8
247
 10
-111.2624882478145
 20
-5.6454074223491961
 30
0.0
 11
-111.2433048126171
 21
-5.6262239871518602
 31
0.0
  0
LINE
  5
1742
  8
247
 10
-110.67238875183141
 20
-4.2794137975059163
 30
0.0
 11
-109.94686901903169
 21
-3.5538940647060442
 31
0.0
  0
LINE
  5
1743
  8
247
 10
-110.75825251224271
 20
-4.6239089342039756
 30
0.0
 11
-109.70352299177981
 21
-3.5691794137409101
 31
0.0
  0
LINE
  5
1744
  8
247
 10
-110.7948992390392
 20
-4.9191870372871529
 30
0.0
 11
-110.0358004561019
 21
-4.1600882543498079
 31
0.0
  0
LINE
  5
1745
  8
247
 10
-109.68959464755289
 20
-3.8138824458008491
 30
0.0
 11
-109.51527208407011
 21
-3.6395598823181592
 31
0.0
  0
LINE
  5
1746
  8
247
 10
-110.7537548486427
 20
-5.1366740231775969
 30
0.0
 11
-110.1397772889266
 21
-4.5226964634614859
 31
0.0
  0
LINE
  5
1747
  8
247
 10
-109.54109201860049
 20
-3.9240111931352062
 30
0.0
 11
-109.25542688253771
 21
-3.638346057072503
 31
0.0
  0
LINE
  5
1748
  8
247
 10
-110.6678391672796
 20
-5.3093897181011149
 30
0.0
 11
-110.24375412175161
 21
-4.885304672573171
 31
0.0
  0
LINE
  5
1749
  8
247
 10
-109.2176620406005
 20
-3.8592125914221489
 30
0.0
 11
-109.19342344175389
 21
-3.8349739925755131
 31
0.0
  0
LINE
  5
174A
  8
247
 10
-110.54817347358301
 20
-5.4483554006914474
 30
0.0
 11
-110.30161598135911
 21
-5.2017979084674266
 31
0.0
  0
LINE
  5
174B
  8
247
 10
-109.7907330330826
 20
-4.6909149601910158
 30
0.0
 11
-109.5579283455826
 21
-4.4581102726910151
 31
0.0
  0
LINE
  5
174C
  8
247
 10
-110.3966688082001
 20
-5.5554821115952446
 30
0.0
 11
-110.19338944189801
 21
-5.3522027452930896
 31
0.0
  0
LINE
  5
174D
  8
247
 10
-109.7386485721981
 20
-4.8974618755933417
 30
0.0
 11
-109.2992969692959
 21
-4.458110272691024
 31
0.0
  0
LINE
  5
174E
  8
247
 10
-110.20867604392841
 20
-5.6261207236103896
 30
0.0
 11
-109.9353595297553
 21
-5.3528042094372932
 31
0.0
  0
LINE
  5
174F
  8
247
 10
-109.8559651335902
 20
-5.2734098132721678
 30
0.0
 11
-109.1635240173792
 21
-4.5809686970612216
 31
0.0
  0
LINE
  5
1750
  8
247
 10
-109.9658009781072
 20
-5.6418770340760398
 30
0.0
 11
-109.26750049677339
 21
-4.9435765527421216
 31
0.0
  0
LINE
  5
1751
  8
247
 10
-109.5897278568426
 20
-5.5244352890982134
 30
0.0
 11
-109.3714769761674
 21
-5.306184408423027
 31
0.0
  0
LINE
  5
1752
  8
247
 10
-110.64801160939891
 20
-3.5501825383160242
 30
0.0
 11
-111.25347254689891
 21
-3.5501825383160242
 31
0.0
1001
HATCH_DISTANCE
1040
1.0
1001
HATCH_DISPLAY
1070
     0
1001
HATCH_TYPE
1070
     7
  0
LINE
  5
1753
  8
247
 10
-111.2488055547115
 20
-5.645407422349197
 30
0.0
 11
-110.64801160939891
 21
-3.5501825383160242
 31
0.0
1001
HATCH_DISTANCE
1040
1.0
1001
HATCH_DISPLAY
1070
     0
1001
HATCH_TYPE
1070
     7
  0
LINE
  5
1754
  8
247
 10
-111.76950477346151
 20
-5.645407422349197
 30
0.0
 11
-111.2488055547115
 21
-5.645407422349197
 31
0.0
1001
HATCH_DISTANCE
1040
1.0
1001
HATCH_DISPLAY
1070
     0
1001
HATCH_TYPE
1070
     7
  0
LINE
  5
1755
  8
247
 10
-111.2421346562739
 20
-3.8062606633160132
 30
0.0
 11
-111.76950477346151
 21
-5.645407422349197
 31
0.0
1001
HATCH_DISTANCE
1040
1.0
1001
HATCH_DISPLAY
1070
     0
1001
HATCH_TYPE
1070
     7
  0
LINE
  5
1756
  8
247
 10
-111.3269051640864
 20
-3.8062606633160132
 30
0.0
 11
-111.2421346562739
 21
-3.8062606633160132
 31
0.0
1001
HATCH_DISTANCE
1040
1.0
1001
HATCH_DISPLAY
1070
     0
1001
HATCH_TYPE
1070
     7
  0
LINE
  5
1757
  8
247
 10
-111.25347254689891
 20
-3.5501825383160242
 30
0.0
 11
-111.3269051640864
 21
-3.8062606633160132
 31
0.0
1001
HATCH_DISTANCE
1040
1.0
1001
HATCH_DISPLAY
1070
     0
1001
HATCH_TYPE
1070
     7
  0
LINE
  5
1758
  8
247
 10
-110.64801160939891
 20
-3.5501825383160242
 30
0.0
 11
-111.25347254689891
 21
-3.5501825383160242
 31
0.0
  0
LINE
  5
1759
  8
247
 10
-111.2488055547115
 20
-5.645407422349197
 30
0.0
 11
-110.64801160939891
 21
-3.5501825383160242
 31
0.0
  0
LINE
  5
175A
  8
247
 10
-111.76950477346151
 20
-5.645407422349197
 30
0.0
 11
-111.2488055547115
 21
-5.645407422349197
 31
0.0
  0
LINE
  5
175B
  8
247
 10
-111.2421346562739
 20
-3.8062606633160132
 30
0.0
 11
-111.76950477346151
 21
-5.645407422349197
 31
0.0
  0
LINE
  5
175C
  8
247
 10
-111.3269051640864
 20
-3.8062606633160132
 30
0.0
 11
-111.2421346562739
 21
-3.8062606633160132
 31
0.0
  0
LINE
  5
175D
  8
247
 10
-111.25347254689891
 20
-3.5501825383160242
 30
0.0
 11
-111.3269051640864
 21
-3.8062606633160132
 31
0.0
  0
LINE
  5
175E
  8
247
 10
-109.0783289922115
 20
-3.8129051945660142
 30
0.0
 11
-109.0783289922115
 21
-3.8129051945660142
 31
0.0
1001
HATCH_DISTANCE
1040
1.0
1001
HATCH_DISPLAY
1070
     0
1001
HATCH_TYPE
1070
     7
  0
LINE
  5
175F
  8
247
 10
-109.148439343774
 20
-3.5905682805035339
 30
0.0
 11
-109.0783289922115
 21
-3.8129051945660142
 31
0.0
1001
HATCH_DISTANCE
1040
1.0
1001
HATCH_DISPLAY
1070
     0
1001
HATCH_TYPE
1070
     7
  0
LINE
  5
1760
  8
247
 10
-109.148439343774
 20
-3.5905682805035339
 30
0.0
 11
-109.148439343774
 21
-3.5905682805035339
 31
0.0
1001
HATCH_DISTANCE
1040
1.0
1001
HATCH_DISPLAY
1070
     0
1001
HATCH_TYPE
1070
     7
  0
LINE
  5
1761
  8
247
 10
-109.0783289922115
 20
-3.8129051945660142
 30
0.0
 11
-109.148439343774
 21
-3.5905682805035339
 31
0.0
1001
HATCH_DISTANCE
1040
1.0
1001
HATCH_DISPLAY
1070
     0
1001
HATCH_TYPE
1070
     7
  0
LINE
  5
1762
  8
247
 10
-109.0783289922115
 20
-3.8129051945660142
 30
0.0
 11
-109.0783289922115
 21
-3.8129051945660142
 31
0.0
  0
LINE
  5
1763
  8
247
 10
-109.148439343774
 20
-3.5905682805035339
 30
0.0
 11
-109.0783289922115
 21
-3.8129051945660142
 31
0.0
  0
LINE
  5
1764
  8
247
 10
-109.148439343774
 20
-3.5905682805035339
 30
0.0
 11
-109.148439343774
 21
-3.5905682805035339
 31
0.0
  0
LINE
  5
1765
  8
247
 10
-109.0783289922115
 20
-3.8129051945660142
 30
0.0
 11
-109.148439343774
 21
-3.5905682805035339
 31
0.0
  0
LINE
  5
1766
  8
247
 10
-109.0783289922115
 20
-3.8129051945660142
 30
0.0
 11
-109.0783289922115
 21
-3.8129051945660142
 31
0.0
1001
HATCH_DISTANCE
1040
1.0
1001
HATCH_DISPLAY
1070
     0
1001
HATCH_TYPE
1070
     7
  0
LINE
  5
1767
  8
247
 10
-109.148439343774
 20
-3.5905682805035339
 30
0.0
 11
-109.0783289922115
 21
-3.8129051945660142
 31
0.0
1001
HATCH_DISTANCE
1040
1.0
1001
HATCH_DISPLAY
1070
     0
1001
HATCH_TYPE
1070
     7
  0
LINE
  5
1768
  8
247
 10
-109.148439343774
 20
-3.5905682805035339
 30
0.0
 11
-109.148439343774
 21
-3.5905682805035339
 31
0.0
1001
HATCH_DISTANCE
1040
1.0
1001
HATCH_DISPLAY
1070
     0
1001
HATCH_TYPE
1070
     7
  0
LINE
  5
1769
  8
247
 10
-109.0783289922115
 20
-3.8129051945660142
 30
0.0
 11
-109.148439343774
 21
-3.5905682805035339
 31
0.0
1001
HATCH_DISTANCE
1040
1.0
1001
HATCH_DISPLAY
1070
     0
1001
HATCH_TYPE
1070
     7
  0
LINE
  5
176A
  8
247
 10
-109.0783289922115
 20
-3.8129051945660142
 30
0.0
 11
-109.0783289922115
 21
-3.8129051945660142
 31
0.0
  0
LINE
  5
176B
  8
247
 10
-109.148439343774
 20
-3.5905682805035339
 30
0.0
 11
-109.0783289922115
 21
-3.8129051945660142
 31
0.0
  0
LINE
  5
176C
  8
247
 10
-109.148439343774
 20
-3.5905682805035339
 30
0.0
 11
-109.148439343774
 21
-3.5905682805035339
 31
0.0
  0
LINE
  5
176D
  8
247
 10
-109.0783289922115
 20
-3.8129051945660142
 30
0.0
 11
-109.148439343774
 21
-3.5905682805035339
 31
0.0
  0
ARC
  5
176E
  8
247
 10
-109.8720077031489
 20
-4.3067889836285094
 30
0.0
 40
0.7566075439453125
 50
53.444012197057539
 51
164.0001843876851
  0
LINE
  5
176F
  8
247
 10
-110.2988661015865
 20
-5.0775018742535307
 30
0.0
 11
-109.98511414846141
 21
-3.9833251164410242
 31
0.0
  0
ARC
  5
1770
  8
247
 10
-110.06389051564889
 20
-5.1448788273785366
 30
0.0
 40
0.2444446334838867
 50
164.0002730571824
 51
344.0002730571826
  0
ARC
  5
1771
  8
247
 10
-108.80186903127399
 20
-4.9285799992535164
 30
0.0
 40
1.9799648437499999
 50
155.20517736984041
 51
172.79482596205219
  0
ARC
  5
1772
  8
247
 10
-108.83683192189891
 20
-4.772398358628525
 30
0.0
 40
0.9894138793945311
 50
110.8721834020737
 51
132.5419489373877
  0
ARC
  5
1773
  8
247
 10
-109.750138562524
 20
-4.0507108586285216
 30
0.0
 40
0.2444448051452637
 50
1.7101213820627561
 51
163.9983983544472
  0
ARC
  5
1774
  8
247
 10
-108.83683192189891
 20
-4.772398358628525
 30
0.0
 40
1.222216369628905
 50
110.22964506332001
 51
118.57168892371681
  0
LINE
  5
1775
  8
247
 10
-109.189343640649
 20
-3.847912030503525
 30
0.0
 11
-109.25945399221141
 21
-3.6255751164409862
 31
0.0
  0
LINE
  5
1776
  8
247
 10
-109.0783289922115
 20
-3.8129051945660142
 30
0.0
 11
-109.148439343774
 21
-3.5905682805035339
 31
0.0
  0
LINE
  5
1777
  8
247
 10
-109.4687479375239
 20
-5.645407422349197
 30
0.0
 11
-109.1282948125239
 21
-4.4581102726910187
 31
0.0
  0
LINE
  5
1778
  8
247
 10
-109.80641492971149
 20
-4.4581102726910187
 30
0.0
 11
-109.1282948125239
 21
-4.4581102726910187
 31
0.0
  0
LINE
  5
1779
  8
247
 10
-109.8731678593989
 20
-4.6909149601910096
 30
0.0
 11
-109.80641492971149
 21
-4.4581102726910187
 31
0.0
  0
LINE
  5
177A
  8
247
 10
-109.6053123906489
 20
-5.5088517582867409
 30
0.0
 11
-109.4687479375239
 21
-5.645407422349197
 31
0.0
  0
LINE
  5
177B
  8
247
 10
-109.8731678593989
 20
-4.6909149601910096
 30
0.0
 11
-109.6794217656489
 21
-4.6909149601910096
 31
0.0
  0
LINE
  5
177C
  8
247
 10
-109.8289149297114
 20
-5.2122557805035141
 30
0.0
 11
-109.6794217656489
 21
-4.6909149601910096
 31
0.0
  0
ARC
  5
177D
  8
247
 10
-108.83683192189891
 20
-4.772398358628525
 30
0.0
 40
0.9894111328124999
 50
270.0
 51
104.1274364964102
  0
ARC
  5
177E
  8
247
 10
-108.83683192189891
 20
-4.772398358628525
 30
0.0
 40
1.2222158203124971
 50
270.0
 51
104.7707939660925
  0
LINE
  5
177F
  8
247
 10
-113.4405780156488
 20
-5.645407422349197
 30
0.0
 11
-112.9065370000242
 21
-3.7829872258167572
 31
0.0
  0
LINE
  5
1780
  8
247
 10
-113.17248579853729
 20
-4.7104598339173283
 30
0.0
 11
-112.35757272163281
 21
-3.8955467570128541
 31
0.0
  0
ARC
  5
1781
  8
247
 10
-112.4671893437739
 20
-4.1089120305035447
 30
0.0
 40
0.349197280883789
 50
261.6626016879294
 51
66.338155095189762
  0
LINE
  5
1782
  8
247
 10
-112.32704230333771
 20
-3.7890721517617321
 30
0.0
 11
-112.51782312754111
 21
-4.4544188479732743
 31
0.0
  0
LINE
  5
1783
  8
247
 10
-111.76950477346151
 20
-5.645407422349197
 30
0.0
 11
-111.2421346562739
 21
-3.8062606633160132
 31
0.0
  0
LINE
  5
1784
  8
247
 10
-112.48333705475891
 20
-4.7972052189994674
 30
0.0
 11
-111.65025043132231
 21
-3.96411859556284
 31
0.0
  0
LINE
  5
1785
  8
247
 10
-113.06850964108919
 20
-4.3478523001826392
 30
0.0
 11
-112.27083987922271
 21
-3.5501825383161099
 31
0.0
  0
ARC
  5
1786
  8
247
 10
-112.20746375783629
 20
-4.1321854680035113
 30
0.0
 40
0.5820078735351563
 50
287.66957754739968
 51
90.236159842671626
  0
LINE
  5
1787
  8
247
 10
-112.1254475069432
 20
-4.180684294896909
 30
0.0
 11
-111.73587133729249
 21
-3.7911081252461831
 31
0.0
  0
LINE
  5
1788
  8
247
 10
-112.9645334836413
 20
-3.9852447664478929
 30
0.0
 11
-112.52947125550961
 21
-3.550182538316081
 31
0.0
  0
LINE
  5
1789
  8
247
 10
-113.5627371953364
 20
-3.7829872258160182
 30
0.0
 11
-113.1487196172114
 21
-3.7829872258160182
 31
0.0
  0
LINE
  5
178A
  8
247
 10
-113.02763270314919
 20
-3.7829872258160182
 30
0.0
 11
-112.9065370000242
 21
-3.7829872258167572
 31
0.0
  0
LINE
  5
178B
  8
247
 10
-112.15528645809241
 20
-3.951891869759351
 30
0.0
 11
-111.86499621793141
 21
-3.6616016295982119
 31
0.0
  0
LINE
  5
178C
  8
247
 10
-113.5627371953364
 20
-3.5501825383160242
 30
0.0
 11
-113.0819666875239
 21
-3.5501825383160242
 31
0.0
  0
LINE
  5
178D
  8
247
 10
-112.9608797734614
 20
-3.5501825383160242
 30
0.0
 11
-112.2098626517835
 21
-3.5501825383161099
 31
0.0
  0
LINE
  5
178E
  8
247
 10
-112.9608797734614
 20
-3.5501825383160242
 30
0.0
 11
-113.02763270314919
 21
-3.7829872258160182
 31
0.0
  0
LINE
  5
178F
  8
247
 10
-113.0819666875239
 20
-3.5501825383160242
 30
0.0
 11
-113.1487196172114
 21
-3.7829872258160182
 31
0.0
  0
LINE
  5
1790
  8
247
 10
-113.0209073192963
 20
-3.7829872258160742
 30
0.0
 11
-112.78810263179631
 21
-3.550182538316081
 31
0.0
  0
LINE
  5
1791
  8
247
 10
-112.27765442185419
 20
-3.8156284572343981
 30
0.0
 11
-112.0375565174952
 21
-3.575530552875223
 31
0.0
  0
LINE
  5
1792
  8
247
 10
-111.3269051640864
 20
-3.8062606633160132
 30
0.0
 11
-111.2421346562739
 21
-3.8062606633160132
 31
0.0
  0
LINE
  5
1793
  8
247
 10
-111.3269051640864
 20
-3.8062606633160132
 30
0.0
 11
-111.25347254689891
 21
-3.5501825383160242
 31
0.0
  0
LINE
  5
1794
  8
247
 10
-112.3930564660984
 20
-4.9655560066256337
 30
0.0
 11
-111.6296800749831
 21
-4.2021796155102917
 31
0.0
  0
ARC
  5
1795
  8
247
 10
-112.474484265649
 20
-5.0634042180035399
 30
0.0
 40
0.5820029296875
 50
270.0
 51
40.329840654167157
  0
LINE
  5
1796
  8
247
 10
-113.276461955985
 20
-5.073067367652075
 30
0.0
 11
-112.46154544711349
 21
-4.2581508587804553
 31
0.0
  0
LINE
  5
1797
  8
247
 10
-113.3804381134329
 20
-5.4356749013867622
 30
0.0
 11
-112.39541707938049
 21
-4.4506538673343261
 31
0.0
  0
LINE
  5
1798
  8
247
 10
-113.4405780156488
 20
-5.645407422349197
 30
0.0
 11
-112.474484265649
 21
-5.645407422349197
 31
0.0
  0
LINE
  5
1799
  8
247
 10
-112.8142765055351
 20
-5.645407422349197
 30
0.0
 11
-111.9600631757244
 21
-4.7911940925385483
 31
0.0
  0
ARC
  5
179A
  8
247
 10
-112.7342098515864
 20
-5.0401219914409969
 30
0.0
 40
0.3492072715759277
 50
261.66285421114719
 51
66.338192159113618
  0
LINE
  5
179B
  8
247
 10
-112.5940600325836
 20
-4.7202724224949888
 30
0.0
 11
-112.7848439953727
 21
-5.3856388535541884
 31
0.0
  0
LINE
  5
179C
  8
247
 10
-112.5556451292484
 20
-5.6454074223492237
 30
0.0
 11
-111.8974854743167
 21
-4.987247767417502
 31
0.0
  0
LINE
  5
179D
  8
247
 10
-113.072907881822
 20
-5.645407422349197
 30
0.0
 11
-112.7734691697284
 21
-5.345968710255792
 31
0.0
  0
LINE
  5
179E
  8
247
 10
-113.33153925810871
 20
-5.645407422349197
 30
0.0
 11
-112.6694983697757
 21
-4.9833665340162296
 31
0.0
  0
LINE
  5
179F
  8
247
 10
-112.2533778687922
 20
-5.6017715381798618
 30
0.0
 11
-111.93611694547261
 21
-5.2845106148602969
 31
0.0
  0
LINE
  5
17A0
  8
247
 10
-111.76950477346151
 20
-5.645407422349197
 30
0.0
 11
-111.2488055547115
 21
-5.645407422349197
 31
0.0
  0
ARC
  5
17A1
  8
247
 10
-113.5627371953364
 20
-4.7723983586285197
 30
0.0
 40
1.2222158203124971
 50
90.0
 51
270.0
  0
ARC
  5
17A2
  8
247
 10
-113.5627371953364
 20
-4.7723983586285197
 30
0.0
 40
0.9894111328124999
 50
90.0
 51
270.0
  0
ARC
  5
17A3
  8
247
 10
-110.0388944218989
 20
-4.8888007023785178
 30
0.0
 40
0.756615234375
 50
163.99975070172931
 51
304.9638732916307
  0
LINE
  5
17A4
  8
247
 10
-113.5627371953364
 20
-5.7618097660992218
 30
0.0
 11
-108.83683192189891
 21
-5.7618097660992218
 31
0.0
  0
LINE
  5
17A5
  8
247
 10
-113.5627371953364
 20
-5.9946144476077192
 30
0.0
 11
-108.83683192189891
 21
-5.9946144476077192
 31
0.0
  0
LINE
  5
17A6
  8
247
 10
-111.2488055547115
 20
-5.645407422349197
 30
0.0
 11
-110.64801160939891
 21
-3.5501825383160242
 31
0.0
  0
LINE
  5
17A7
  8
247
 10
-111.25347254689891
 20
-3.5501825383160242
 30
0.0
 11
-110.64801160939891
 21
-3.5501825383160242
 31
0.0
  0
TEXT
  5
17A8
  8
247
 10
-106.5857240198731
 20
-5.6978257236834811
 30
0.0
 40
2.0
  1
ST16-C0515-45-50
 41
0.7
  7
YOKO
 11
-106.5857240198731
 21
-5.6978257236834811
 31
0.0
 73
     1
  0
ARC
  5
17A9
  8
240
 10
-6.5516785994860216
 20
-4.9796663717634937
 30
0.0
 40
0.2
 50
252.3675644788228
 51
272.10319693247902
1001
GENIUS_GENODEF_13
1002
{
1000
HIER
1070
     0
1002
}
1002
{
1000
MANEDIT
1070
     0
1002
}
1002
{
1000
NOSEL
1070
     0
1002
}
1002
{
1000
BEHIND
1070
     0
1002
}
1002
{
1000
OTHER
1070
     0
1002
}
1002
{
1000
REACTOR
1002
}
1001
GENIUS_GENOBJ-N-FIL_13
1002
{
1000
OWNER
1000
GEN
1002
}
  0
ARC
  5
17AA
  8
240
 10
-6.9731359086655429
 20
7.3405137675831851
 30
0.0
 40
0.2
 50
134.57425961727051
 51
138.02085614098581
1001
GENIUS_GENOBJ-N-FIL_13
1002
{
1000
OWNER
1000
GEN
1002
}
1001
GENIUS_GENODEF_13
1002
{
1000
HIER
1070
     0
1002
}
1002
{
1000
MANEDIT
1070
     0
1002
}
1002
{
1000
NOSEL
1070
     0
1002
}
1002
{
1000
BEHIND
1070
     0
1002
}
1002
{
1000
OTHER
1070
     0
1002
}
1002
{
1000
REACTOR
1002
}
  0
POLYLINE
  5
17AB
  8
246
 10
-9.6988648454493038
 20
4.610084403301709
 30
0.0
 66
     1
 70
     8
  0
VERTEX
  8
246
  5
19B2
 10
-9.69886
 20
4.61008
 30
0.000000
  70
    32
  0
VERTEX
  8
246
  5
19B3
 10
-9.86214
 20
4.43224
 30
0.000000
  70
    32
  0
VERTEX
  8
246
  5
19B4
 10
-10.0165
 20
4.24661
 30
0.000000
  70
    32
  0
VERTEX
  8
246
  5
19B5
 10
-10.1616
 20
4.05366
 30
0.000000
  70
    32
  0
VERTEX
  8
246
  5
19B6
 10
-10.2971
 20
3.85383
 30
0.000000
  70
    32
  0
VERTEX
  8
246
  5
19B7
 10
-10.4226
 20
3.64761
 30
0.000000
  70
    32
  0
VERTEX
  8
246
  5
19B8
 10
-10.5378
 20
3.43550
 30
0.000000
  70
    32
  0
VERTEX
  8
246
  5
19B9
 10
-10.6425
 20
3.21801
 30
0.000000
  70
    32
  0
VERTEX
  8
246
  5
19BA
 10
-10.7364
 20
2.99567
 30
0.000000
  70
    32
  0
VERTEX
  8
246
  5
19BB
 10
-10.8194
 20
2.76900
 30
0.000000
  70
    32
  0
VERTEX
  8
246
  5
19BC
 10
-10.8911
 20
2.53857
 30
0.000000
  70
    32
  0
VERTEX
  8
246
  5
19BD
 10
-10.9514
 20
2.30491
 30
0.000000
  70
    32
  0
VERTEX
  8
246
  5
19BE
 10
-11.0001
 20
2.06859
 30
0.000000
  70
    32
  0
VERTEX
  8
246
  5
19BF
 10
-11.0373
 20
1.83019
 30
0.000000
  70
    32
  0
VERTEX
  8
246
  5
19C0
 10
-11.0627
 20
1.59028
 30
0.000000
  70
    32
  0
VERTEX
  8
246
  5
19C1
 10
-11.0763
 20
1.34943
 30
0.000000
  70
    32
  0
VERTEX
  8
246
  5
19C2
 10
-11.0780
 20
1.10822
 30
0.000000
  70
    32
  0
VERTEX
  8
246
  5
19C3
 10
-11.0680
 20
0.867244
 30
0.000000
  70
    32
  0
VERTEX
  8
246
  5
19C4
 10
-11.0461
 20
0.627073
 30
0.000000
  70
    32
  0
VERTEX
  8
246
  5
19C5
 10
-11.0124
 20
0.388288
 30
0.000000
  70
    32
  0
VERTEX
  8
246
  5
19C6
 10
-10.9671
 20
0.151464
 30
0.000000
  70
    32
  0
VERTEX
  8
246
  5
19C7
 10
-10.9102
 20
-0.0828285
 30
0.000000
  70
    32
  0
VERTEX
  8
246
  5
19C8
 10
-10.8419
 20
-0.314025
 30
0.000000
  70
    32
  0
VERTEX
  8
246
  5
19C9
 10
-10.7623
 20
-0.541569
 30
0.000000
  70
    32
  0
VERTEX
  8
246
  5
19CA
 10
-10.6716
 20
-0.764912
 30
0.000000
  70
    32
  0
VERTEX
  8
246
  5
19CB
 10
-10.5701
 20
-0.983516
 30
0.000000
  70
    32
  0
VERTEX
  8
246
  5
19CC
 10
-10.4579
 20
-1.19685
 30
0.000000
  70
    32
  0
VERTEX
  8
246
  5
19CD
 10
-10.3355
 20
-1.40441
 30
0.000000
  70
    32
  0
VERTEX
  8
246
  5
19CE
 10
-10.2029
 20
-1.60569
 30
0.000000
  70
    32
  0
VERTEX
  8
246
  5
19CF
 10
-10.0607
 20
-1.80021
 30
0.000000
  70
    32
  0
VERTEX
  8
246
  5
19D0
 10
-9.90903
 20
-1.98749
 30
0.000000
  70
    32
  0
VERTEX
  8
246
  5
19D1
 10
-9.74837
 20
-2.16708
 30
0.000000
  70
    32
  0
VERTEX
  8
246
  5
19D2
 10
-9.57907
 20
-2.33856
 30
0.000000
  70
    32
  0
VERTEX
  8
246
  5
19D3
 10
-9.40155
 20
-2.50151
 30
0.000000
  70
    32
  0
VERTEX
  8
246
  5
19D4
 10
-9.21623
 20
-2.65554
 30
0.000000
  70
    32
  0
VERTEX
  8
246
  5
19D5
 10
-9.02355
 20
-2.80028
 30
0.000000
  70
    32
  0
VERTEX
  8
246
  5
19D6
 10
-8.82399
 20
-2.93537
 30
0.000000
  70
    32
  0
VERTEX
  8
246
  5
19D7
 10
-8.61803
 20
-3.06049
 30
0.000000
  70
    32
  0
VERTEX
  8
246
  5
19D8
 10
-8.40615
 20
-3.17534
 30
0.000000
  70
    32
  0
VERTEX
  8
246
  5
19D9
 10
-8.18888
 20
-3.27965
 30
0.000000
  70
    32
  0
VERTEX
  8
246
  5
19DA
 10
-7.96673
 20
-3.37316
 30
0.000000
  70
    32
  0
VERTEX
  8
246
  5
19DB
 10
-7.74024
 20
-3.45565
 30
0.000000
  70
    32
  0
VERTEX
  8
246
  5
19DC
 10
-7.50995
 20
-3.52692
 30
0.000000
  70
    32
  0
VERTEX
  8
246
  5
19DD
 10
-7.27642
 20
-3.58679
 30
0.000000
  70
    32
  0
VERTEX
  8
246
  5
19DE
 10
-7.04021
 20
-3.63513
 30
0.000000
  70
    32
  0
VERTEX
  8
246
  5
19DF
 10
-6.80190
 20
-3.67181
 30
0.000000
  70
    32
  0
VERTEX
  8
246
  5
19E0
 10
-6.56205
 20
-3.69675
 30
0.000000
  70
    32
  0
VERTEX
  8
246
  5
19E1
 10
-6.32124
 20
-3.70989
 30
0.000000
  70
    32
  0
VERTEX
  8
246
  5
19E2
 10
-6.08005
 20
-3.71119
 30
0.000000
  70
    32
  0
VERTEX
  8
246
  5
19E3
 10
-5.83907
 20
-3.70066
 30
0.000000
  70
    32
  0
VERTEX
  8
246
  5
19E4
 10
-5.59888
 20
-3.67832
 30
0.000000
  70
    32
  0
VERTEX
  8
246
  5
19E5
 10
-5.36004
 20
-3.64422
 30
0.000000
  70
    32
  0
VERTEX
  8
246
  5
19E6
 10
-5.12315
 20
-3.59844
 30
0.000000
  70
    32
  0
VERTEX
  8
246
  5
19E7
 10
-4.88877
 20
-3.54110
 30
0.000000
  70
    32
  0
VERTEX
  8
246
  5
19E8
 10
-4.65745
 20
-3.47233
 30
0.000000
  70
    32
  0
VERTEX
  8
246
  5
19E9
 10
-4.42978
 20
-3.39230
 30
0.000000
  70
    32
  0
VERTEX
  8
246
  5
19EA
 10
-4.20628
 20
-3.30120
 30
0.000000
  70
    32
  0
VERTEX
  8
246
  5
19EB
 10
-3.98749
 20
-3.19925
 30
0.000000
  70
    32
  0
VERTEX
  8
246
  5
19EC
 10
-3.77396
 20
-3.08670
 30
0.000000
  70
    32
  0
VERTEX
  8
246
  5
19ED
 10
-3.56618
 20
-2.96382
 30
0.000000
  70
    32
  0
VERTEX
  8
246
  5
19EE
 10
-3.36466
 20
-2.83090
 30
0.000000
  70
    32
  0
VERTEX
  8
246
  5
19EF
 10
-3.16989
 20
-2.68826
 30
0.000000
  70
    32
  0
VERTEX
  8
246
  5
19F0
 10
-2.98234
 20
-2.53625
 30
0.000000
  70
    32
  0
VERTEX
  8
246
  5
19F1
 10
-2.80245
 20
-2.37523
 30
0.000000
  70
    32
  0
VERTEX
  8
246
  5
19F2
 10
-2.63066
 20
-2.20560
 30
0.000000
  70
    32
  0
VERTEX
  8
246
  5
19F3
 10
-2.46738
 20
-2.02775
 30
0.000000
  70
    32
  0
VERTEX
  8
246
  5
19F4
 10
-2.31302
 20
-1.84213
 30
0.000000
  70
    32
  0
VERTEX
  8
246
  5
19F5
 10
-2.16793
 20
-1.64917
 30
0.000000
  70
    32
  0
VERTEX
  8
246
  5
19F6
 10
-2.03247
 20
-1.44934
 30
0.000000
  70
    32
  0
VERTEX
  8
246
  5
19F7
 10
-1.90696
 20
-1.24312
 30
0.000000
  70
    32
  0
VERTEX
  8
246
  5
19F8
 10
-1.79172
 20
-1.03102
 30
0.000000
  70
    32
  0
VERTEX
  8
246
  5
19F9
 10
-1.68700
 20
-0.813528
 30
0.000000
  70
    32
  0
VERTEX
  8
246
  5
19FA
 10
-1.59308
 20
-0.591184
 30
0.000000
  70
    32
  0
VERTEX
  8
246
  5
19FB
 10
-1.51017
 20
-0.364519
 30
0.000000
  70
    32
  0
VERTEX
  8
246
  5
19FC
 10
-1.43847
 20
-0.134080
 30
0.000000
  70
    32
  0
VERTEX
  8
246
  5
19FD
 10
-1.37816
 20
0.0995785
 30
0.000000
  70
    32
  0
VERTEX
  8
246
  5
19FE
 10
-1.32938
 20
0.335893
 30
0.000000
  70
    32
  0
VERTEX
  8
246
  5
19FF
 10
-1.29224
 20
0.574295
 30
0.000000
  70
    32
  0
VERTEX
  8
246
  5
1A00
 10
-1.26685
 20
0.814210
 30
0.000000
  70
    32
  0
VERTEX
  8
246
  5
1A01
 10
-1.25326
 20
1.05506
 30
0.000000
  70
    32
  0
VERTEX
  8
246
  5
1A02
 10
-1.25149
 20
1.29626
 30
0.000000
  70
    32
  0
VERTEX
  8
246
  5
1A03
 10
-1.26157
 20
1.53724
 30
0.000000
  70
    32
  0
VERTEX
  8
246
  5
1A04
 10
-1.28346
 20
1.77741
 30
0.000000
  70
    32
  0
VERTEX
  8
246
  5
1A05
 10
-1.31710
 20
2.01620
 30
0.000000
  70
    32
  0
VERTEX
  8
246
  5
1A06
 10
-1.36243
 20
2.25302
 30
0.000000
  70
    32
  0
VERTEX
  8
246
  5
1A07
 10
-1.41932
 20
2.48731
 30
0.000000
  70
    32
  0
VERTEX
  8
246
  5
1A08
 10
-1.48765
 20
2.71851
 30
0.000000
  70
    32
  0
VERTEX
  8
246
  5
1A09
 10
-1.56724
 20
2.94605
 30
0.000000
  70
    32
  0
VERTEX
  8
246
  5
1A0A
 10
-1.65791
 20
3.16940
 30
0.000000
  70
    32
  0
VERTEX
  8
246
  5
1A0B
 10
-1.75944
 20
3.38800
 30
0.000000
  70
    32
  0
VERTEX
  8
246
  5
1A0C
 10
-1.87158
 20
3.60134
 30
0.000000
  70
    32
  0
VERTEX
  8
246
  5
1A0D
 10
-1.99406
 20
3.80890
 30
0.000000
  70
    32
  0
VERTEX
  8
246
  5
1A0E
 10
-2.12659
 20
4.01018
 30
0.000000
  70
    32
  0
VERTEX
  8
246
  5
1A0F
 10
-2.26885
 20
4.20469
 30
0.000000
  70
    32
  0
VERTEX
  8
246
  5
1A10
 10
-2.42049
 20
4.39197
 30
0.000000
  70
    32
  0
VERTEX
  8
246
  5
1A11
 10
-2.58116
 20
4.57157
 30
0.000000
  70
    32
  0
VERTEX
  8
246
  5
1A12
 10
-2.75046
 20
4.74305
 30
0.000000
  70
    32
  0
VERTEX
  8
246
  5
1A13
 10
-2.92798
 20
4.90600
 30
0.000000
  70
    32
  0
VERTEX
  8
246
  5
1A14
 10
-3.11330
 20
5.06003
 30
0.000000
  70
    32
  0
VERTEX
  8
246
  5
1A15
 10
-3.30597
 20
5.20476
 30
0.000000
  70
    32
  0
VERTEX
  8
246
  5
1A16
 10
-3.50553
 20
5.33985
 30
0.000000
  70
    32
  0
VERTEX
  8
246
  5
1A17
 10
-3.71149
 20
5.46497
 30
0.000000
  70
    32
  0
VERTEX
  8
246
  5
1A18
 10
-3.92337
 20
5.57983
 30
0.000000
  70
    32
  0
VERTEX
  8
246
  5
1A19
 10
-4.14065
 20
5.68414
 30
0.000000
  70
    32
  0
VERTEX
  8
246
  5
1A1A
 10
-4.36280
 20
5.77765
 30
0.000000
  70
    32
  0
VERTEX
  8
246
  5
1A1B
 10
-4.58929
 20
5.86014
 30
0.000000
  70
    32
  0
VERTEX
  8
246
  5
1A1C
 10
-4.81958
 20
5.93140
 30
0.000000
  70
    32
  0
VERTEX
  8
246
  5
1A1D
 10
-5.05311
 20
5.99128
 30
0.000000
  70
    32
  0
VERTEX
  8
246
  5
1A1E
 10
-5.28931
 20
6.03961
 30
0.000000
  70
    32
  0
VERTEX
  8
246
  5
1A1F
 10
-5.52763
 20
6.07630
 30
0.000000
  70
    32
  0
VERTEX
  8
246
  5
1A20
 10
-5.76748
 20
6.10124
 30
0.000000
  70
    32
  0
VERTEX
  8
246
  5
1A21
 10
-6.00829
 20
6.11437
 30
0.000000
  70
    32
  0
VERTEX
  8
246
  5
1A22
 10
-6.24947
 20
6.11568
 30
0.000000
  70
    32
  0
VERTEX
  8
246
  5
1A23
 10
-6.49045
 20
6.10515
 30
0.000000
  70
    32
  0
VERTEX
  8
246
  5
1A24
 10
-6.73065
 20
6.08280
 30
0.000000
  70
    32
  0
VERTEX
  8
246
  5
1A25
 10
-6.96948
 20
6.04870
 30
0.000000
  70
    32
  0
VERTEX
  8
246
  5
1A26
 10
-7.20637
 20
6.00293
 30
0.000000
  70
    32
  0
VERTEX
  8
246
  5
1A27
 10
-7.44076
 20
5.94558
 30
0.000000
  70
    32
  0
VERTEX
  8
246
  5
1A28
 10
-7.67207
 20
5.87682
 30
0.000000
  70
    32
  0
VERTEX
  8
246
  5
1A29
 10
-7.89975
 20
5.79679
 30
0.000000
  70
    32
  0
VERTEX
  8
246
  5
1A2A
 10
-8.12325
 20
5.70569
 30
0.000000
  70
    32
  0
VERTEX
  8
246
  5
1A2B
 10
-8.34203
 20
5.60374
 30
0.000000
  70
    32
  0
VERTEX
  8
246
  5
1A2C
 10
-8.55557
 20
5.49119
 30
0.000000
  70
    32
  0
VERTEX
  8
246
  5
1A2D
 10
-8.76334
 20
5.36830
 30
0.000000
  70
    32
  0
VERTEX
  8
246
  5
1A2E
 10
-8.96486
 20
5.23538
 30
0.000000
  70
    32
  0
VERTEX
  8
246
  5
1A2F
 10
-9.15963
 20
5.09274
 30
0.000000
  70
    32
  0
VERTEX
  8
246
  5
1A30
 10
-9.34719
 20
4.94073
 30
0.000000
  70
    32
  0
VERTEX
  8
246
  5
1A31
 10
-9.52708
 20
4.77972
 30
0.000000
  70
    32
  0
VERTEX
  8
246
  5
1A32
 10
-9.69886
 20
4.61008
 30
0.000000
  70
    32
  0
SEQEND
  8
246
  5
1A33
  0
ARC
  5
17AC
  8
240
 10
-5.7776055786948461
 20
7.384418671521777
 30
0.0
 40
0.2
 50
46.039898194541728
 51
92.103196932477559
1001
GENIUS_GENODEF_13
1002
{
1000
HIER
1070
     0
1002
}
1002
{
1000
MANEDIT
1070
     0
1002
}
1002
{
1000
NOSEL
1070
     0
1002
}
1002
{
1000
BEHIND
1070
     0
1002
}
1002
{
1000
OTHER
1070
     0
1002
}
1002
{
1000
REACTOR
1002
}
1001
GENIUS_GENOBJ-N-FIL_13
1002
{
1000
OWNER
1000
GEN
1002
}
  0
ARC
  5
17AD
  8
240
 10
-0.242715054156362
 20
2.0468805632456419
 30
0.0
 40
0.2
 50
1.962423560672879
 51
46.039898194541728
1001
GENIUS_GENODEF_13
1002
{
1000
HIER
1070
     0
1002
}
1002
{
1000
MANEDIT
1070
     0
1002
}
1002
{
1000
NOSEL
1070
     0
1002
}
1002
{
1000
BEHIND
1070
     0
1002
}
1002
{
1000
OTHER
1070
     0
1002
}
1002
{
1000
REACTOR
1002
}
1001
GENIUS_GENOBJ-N-FIL_13
1002
{
1000
OWNER
1000
GEN
1002
}
  0
ARC
  5
17AE
  8
240
 10
-0.1998242089074831
 20
0.7951103416836797
 30
0.0
 40
0.2
 50
318.02085614098547
 51
1.962423560672905
1001
GENIUS_GENODEF_13
1002
{
1000
HIER
1070
     0
1002
}
1002
{
1000
MANEDIT
1070
     0
1002
}
1002
{
1000
NOSEL
1070
     0
1002
}
1002
{
1000
BEHIND
1070
     0
1002
}
1002
{
1000
OTHER
1070
     0
1002
}
1002
{
1000
REACTOR
1002
}
1001
GENIUS_GENOBJ-N-FIL_13
1002
{
1000
OWNER
1000
GEN
1002
}
  0
ARC
  5
17AF
  8
240
 10
-5.3561482695153924
 20
-4.935761467824876
 30
0.0
 40
0.2
 50
272.10319693247908
 51
318.02085614098547
1001
GENIUS_GENOBJ-N-FIL_13
1002
{
1000
OWNER
1000
GEN
1002
}
1001
GENIUS_GENODEF_13
1002
{
1000
HIER
1070
     0
1002
}
1002
{
1000
MANEDIT
1070
     0
1002
}
1002
{
1000
NOSEL
1070
     0
1002
}
1002
{
1000
BEHIND
1070
     0
1002
}
1002
{
1000
OTHER
1070
     0
1002
}
1002
{
1000
REACTOR
1002
}
  0
ARC
  5
17B0
  8
241
 10
-6.5516785994860216
 20
-4.9796663717634937
 30
0.0
 40
0.2
 50
226.03989819454171
 51
252.3675644788228
1001
GENIUS_GENODEF_13
1002
{
1000
HIER
1070
     0
1002
}
1002
{
1000
MANEDIT
1070
     0
1002
}
1002
{
1000
NOSEL
1070
     0
1002
}
1002
{
1000
BEHIND
1070
     0
1002
}
1002
{
1000
OTHER
1070
     0
1002
}
1002
{
1000
REACTOR
1002
}
1001
GENIUS_GENOBJ-N-FIL_13
1002
{
1000
OWNER
1000
GEN
1002
}
  0
ARC
  5
17B1
  8
241
 10
-12.08656912402448
 20
0.3578717365126169
 30
0.0
 40
0.2
 50
181.96242356067299
 51
226.03989819454171
1001
GENIUS_GENOBJ-N-FIL_13
1002
{
1000
OWNER
1000
GEN
1002
}
1001
GENIUS_GENODEF_13
1002
{
1000
HIER
1070
     0
1002
}
1002
{
1000
MANEDIT
1070
     0
1002
}
1002
{
1000
NOSEL
1070
     0
1002
}
1002
{
1000
BEHIND
1070
     0
1002
}
1002
{
1000
OTHER
1070
     0
1002
}
1002
{
1000
REACTOR
1002
}
  0
ARC
  5
17B2
  8
241
 10
-12.129459969273359
 20
1.609641958074665
 30
0.0
 40
0.2
 50
138.02085614098581
 51
181.9624235606727
1001
GENIUS_GENOBJ-N-FIL_13
1002
{
1000
OWNER
1000
GEN
1002
}
1001
GENIUS_GENODEF_13
1002
{
1000
HIER
1070
     0
1002
}
1002
{
1000
MANEDIT
1070
     0
1002
}
1002
{
1000
NOSEL
1070
     0
1002
}
1002
{
1000
BEHIND
1070
     0
1002
}
1002
{
1000
OTHER
1070
     0
1002
}
1002
{
1000
REACTOR
1002
}
  0
ARC
  5
17B3
  8
240
 10
-6.9731359086655429
 20
7.3405137675831851
 30
0.0
 40
0.2
 50
92.103196932477573
 51
134.57425961727051
1001
GENIUS_GENOBJ-N-FIL_13
1002
{
1000
OWNER
1000
GEN
1002
}
1001
GENIUS_GENODEF_13
1002
{
1000
HIER
1070
     0
1002
}
1002
{
1000
MANEDIT
1070
     0
1002
}
1002
{
1000
NOSEL
1070
     0
1002
}
1002
{
1000
BEHIND
1070
     0
1002
}
1002
{
1000
OTHER
1070
     0
1002
}
1002
{
1000
REACTOR
1002
}
  0
POLYLINE
  8
241
  5
1A34
  66
     1
 10
0.000000
 20
0.000000
 30
0.000000
  70
     8
  0
VERTEX
  8
241
  5
1A35
 10
-7.36169
 20
7.20768
 30
0.000000
  70
    32
  0
VERTEX
  8
241
  5
1A36
 10
-7.41920
 20
7.20889
 30
0.000000
  70
    32
  0
VERTEX
  8
241
  5
1A37
 10
-7.47671
 20
7.21007
 30
0.000000
  70
    32
  0
VERTEX
  8
241
  5
1A38
 10
-7.53421
 20
7.21121
 30
0.000000
  70
    32
  0
VERTEX
  8
241
  5
1A39
 10
-7.59171
 20
7.21228
 30
0.000000
  70
    32
  0
VERTEX
  8
241
  5
1A3A
 10
-7.64921
 20
7.21326
 30
0.000000
  70
    32
  0
VERTEX
  8
241
  5
1A3B
 10
-7.70671
 20
7.21412
 30
0.000000
  70
    32
  0
VERTEX
  8
241
  5
1A3C
 10
-7.76420
 20
7.21484
 30
0.000000
  70
    32
  0
VERTEX
  8
241
  5
1A3D
 10
-7.82169
 20
7.21540
 30
0.000000
  70
    32
  0
VERTEX
  8
241
  5
1A3E
 10
-7.87917
 20
7.21577
 30
0.000000
  70
    32
  0
VERTEX
  8
241
  5
1A3F
 10
-7.93665
 20
7.21594
 30
0.000000
  70
    32
  0
VERTEX
  8
241
  5
1A40
 10
-7.99411
 20
7.21591
 30
0.000000
  70
    32
  0
VERTEX
  8
241
  5
1A41
 10
-8.05158
 20
7.21566
 30
0.000000
  70
    32
  0
VERTEX
  8
241
  5
1A42
 10
-8.10903
 20
7.21521
 30
0.000000
  70
    32
  0
VERTEX
  8
241
  5
1A43
 10
-8.16648
 20
7.21455
 30
0.000000
  70
    32
  0
VERTEX
  8
241
  5
1A44
 10
-8.22392
 20
7.21367
 30
0.000000
  70
    32
  0
VERTEX
  8
241
  5
1A45
 10
-8.28135
 20
7.21259
 30
0.000000
  70
    32
  0
VERTEX
  8
241
  5
1A46
 10
-8.33877
 20
7.21129
 30
0.000000
  70
    32
  0
VERTEX
  8
241
  5
1A47
 10
-8.39619
 20
7.20978
 30
0.000000
  70
    32
  0
VERTEX
  8
241
  5
1A48
 10
-8.45359
 20
7.20805
 30
0.000000
  70
    32
  0
VERTEX
  8
241
  5
1A49
 10
-8.51099
 20
7.20610
 30
0.000000
  70
    32
  0
VERTEX
  8
241
  5
1A4A
 10
-8.56838
 20
7.20394
 30
0.000000
  70
    32
  0
VERTEX
  8
241
  5
1A4B
 10
-8.62575
 20
7.20156
 30
0.000000
  70
    32
  0
VERTEX
  8
241
  5
1A4C
 10
-8.68312
 20
7.19897
 30
0.000000
  70
    32
  0
VERTEX
  8
241
  5
1A4D
 10
-8.74048
 20
7.19615
 30
0.000000
  70
    32
  0
VERTEX
  8
241
  5
1A4E
 10
-8.79782
 20
7.19311
 30
0.000000
  70
    32
  0
VERTEX
  8
241
  5
1A4F
 10
-8.85516
 20
7.18985
 30
0.000000
  70
    32
  0
VERTEX
  8
241
  5
1A50
 10
-8.91248
 20
7.18636
 30
0.000000
  70
    32
  0
VERTEX
  8
241
  5
1A51
 10
-8.96979
 20
7.18265
 30
0.000000
  70
    32
  0
VERTEX
  8
241
  5
1A52
 10
-9.02709
 20
7.17872
 30
0.000000
  70
    32
  0
VERTEX
  8
241
  5
1A53
 10
-9.08438
 20
7.17456
 30
0.000000
  70
    32
  0
VERTEX
  8
241
  5
1A54
 10
-9.14165
 20
7.17017
 30
0.000000
  70
    32
  0
VERTEX
  8
241
  5
1A55
 10
-9.19892
 20
7.16556
 30
0.000000
  70
    32
  0
VERTEX
  8
241
  5
1A56
 10
-9.25617
 20
7.16071
 30
0.000000
  70
    32
  0
VERTEX
  8
241
  5
1A57
 10
-9.31340
 20
7.15564
 30
0.000000
  70
    32
  0
VERTEX
  8
241
  5
1A58
 10
-9.37062
 20
7.15033
 30
0.000000
  70
    32
  0
VERTEX
  8
241
  5
1A59
 10
-9.42783
 20
7.14479
 30
0.000000
  70
    32
  0
VERTEX
  8
241
  5
1A5A
 10
-9.48502
 20
7.13902
 30
0.000000
  70
    32
  0
VERTEX
  8
241
  5
1A5B
 10
-9.54220
 20
7.13302
 30
0.000000
  70
    32
  0
VERTEX
  8
241
  5
1A5C
 10
-9.59937
 20
7.12678
 30
0.000000
  70
    32
  0
VERTEX
  8
241
  5
1A5D
 10
-9.65652
 20
7.12030
 30
0.000000
  70
    32
  0
VERTEX
  8
241
  5
1A5E
 10
-9.71365
 20
7.11358
 30
0.000000
  70
    32
  0
VERTEX
  8
241
  5
1A5F
 10
-9.77077
 20
7.10663
 30
0.000000
  70
    32
  0
VERTEX
  8
241
  5
1A60
 10
-9.82787
 20
7.09944
 30
0.000000
  70
    32
  0
VERTEX
  8
241
  5
1A61
 10
-9.88495
 20
7.09200
 30
0.000000
  70
    32
  0
VERTEX
  8
241
  5
1A62
 10
-9.94202
 20
7.08433
 30
0.000000
  70
    32
  0
VERTEX
  8
241
  5
1A63
 10
-9.99907
 20
7.07641
 30
0.000000
  70
    32
  0
VERTEX
  8
241
  5
1A64
 10
-10.0561
 20
7.06825
 30
0.000000
  70
    32
  0
VERTEX
  8
241
  5
1A65
 10
-10.1131
 20
7.05985
 30
0.000000
  70
    32
  0
VERTEX
  8
241
  5
1A66
 10
-10.1701
 20
7.05119
 30
0.000000
  70
    32
  0
VERTEX
  8
241
  5
1A67
 10
-10.2271
 20
7.04230
 30
0.000000
  70
    32
  0
VERTEX
  8
241
  5
1A68
 10
-10.2841
 20
7.03315
 30
0.000000
  70
    32
  0
VERTEX
  8
241
  5
1A69
 10
-10.3410
 20
7.02376
 30
0.000000
  70
    32
  0
VERTEX
  8
241
  5
1A6A
 10
-10.3979
 20
7.01412
 30
0.000000
  70
    32
  0
VERTEX
  8
241
  5
1A6B
 10
-10.4548
 20
7.00422
 30
0.000000
  70
    32
  0
VERTEX
  8
241
  5
1A6C
 10
-10.5117
 20
6.99408
 30
0.000000
  70
    32
  0
VERTEX
  8
241
  5
1A6D
 10
-10.5686
 20
6.98368
 30
0.000000
  70
    32
  0
VERTEX
  8
241
  5
1A6E
 10
-10.6254
 20
6.97303
 30
0.000000
  70
    32
  0
VERTEX
  8
241
  5
1A6F
 10
-10.6823
 20
6.96212
 30
0.000000
  70
    32
  0
VERTEX
  8
241
  5
1A70
 10
-10.7391
 20
6.95096
 30
0.000000
  70
    32
  0
VERTEX
  8
241
  5
1A71
 10
-10.7958
 20
6.93954
 30
0.000000
  70
    32
  0
VERTEX
  8
241
  5
1A72
 10
-10.8526
 20
6.92787
 30
0.000000
  70
    32
  0
VERTEX
  8
241
  5
1A73
 10
-10.9093
 20
6.91593
 30
0.000000
  70
    32
  0
VERTEX
  8
241
  5
1A74
 10
-10.9661
 20
6.90374
 30
0.000000
  70
    32
  0
VERTEX
  8
241
  5
1A75
 10
-11.0227
 20
6.89128
 30
0.000000
  70
    32
  0
VERTEX
  8
241
  5
1A76
 10
-11.0794
 20
6.87856
 30
0.000000
  70
    32
  0
VERTEX
  8
241
  5
1A77
 10
-11.1361
 20
6.86558
 30
0.000000
  70
    32
  0
VERTEX
  8
241
  5
1A78
 10
-11.1927
 20
6.85234
 30
0.000000
  70
    32
  0
VERTEX
  8
241
  5
1A79
 10
-11.2493
 20
6.83883
 30
0.000000
  70
    32
  0
VERTEX
  8
241
  5
1A7A
 10
-11.3059
 20
6.82506
 30
0.000000
  70
    32
  0
VERTEX
  8
241
  5
1A7B
 10
-11.3624
 20
6.81101
 30
0.000000
  70
    32
  0
VERTEX
  8
241
  5
1A7C
 10
-11.4190
 20
6.79671
 30
0.000000
  70
    32
  0
VERTEX
  8
241
  5
1A7D
 10
-11.4755
 20
6.78213
 30
0.000000
  70
    32
  0
VERTEX
  8
241
  5
1A7E
 10
-11.5319
 20
6.76728
 30
0.000000
  70
    32
  0
VERTEX
  8
241
  5
1A7F
 10
-11.5884
 20
6.75216
 30
0.000000
  70
    32
  0
VERTEX
  8
241
  5
1A80
 10
-11.6448
 20
6.73676
 30
0.000000
  70
    32
  0
VERTEX
  8
241
  5
1A81
 10
-11.7012
 20
6.72105
 30
0.000000
  70
    32
  0
VERTEX
  8
241
  5
1A82
 10
-11.7574
 20
6.70500
 30
0.000000
  70
    32
  0
VERTEX
  8
241
  5
1A83
 10
-11.8136
 20
6.68861
 30
0.000000
  70
    32
  0
VERTEX
  8
241
  5
1A84
 10
-11.8697
 20
6.67184
 30
0.000000
  70
    32
  0
VERTEX
  8
241
  5
1A85
 10
-11.9256
 20
6.65466
 30
0.000000
  70
    32
  0
VERTEX
  8
241
  5
1A86
 10
-11.9813
 20
6.63707
 30
0.000000
  70
    32
  0
VERTEX
  8
241
  5
1A87
 10
-12.0369
 20
6.61902
 30
0.000000
  70
    32
  0
VERTEX
  8
241
  5
1A88
 10
-12.0923
 20
6.60050
 30
0.000000
  70
    32
  0
VERTEX
  8
241
  5
1A89
 10
-12.1474
 20
6.58149
 30
0.000000
  70
    32
  0
VERTEX
  8
241
  5
1A8A
 10
-12.2023
 20
6.56196
 30
0.000000
  70
    32
  0
VERTEX
  8
241
  5
1A8B
 10
-12.2569
 20
6.54189
 30
0.000000
  70
    32
  0
VERTEX
  8
241
  5
1A8C
 10
-12.3112
 20
6.52125
 30
0.000000
  70
    32
  0
VERTEX
  8
241
  5
1A8D
 10
-12.3652
 20
6.50003
 30
0.000000
  70
    32
  0
VERTEX
  8
241
  5
1A8E
 10
-12.4189
 20
6.47819
 30
0.000000
  70
    32
  0
VERTEX
  8
241
  5
1A8F
 10
-12.4722
 20
6.45571
 30
0.000000
  70
    32
  0
VERTEX
  8
241
  5
1A90
 10
-12.5251
 20
6.43258
 30
0.000000
  70
    32
  0
VERTEX
  8
241
  5
1A91
 10
-12.5776
 20
6.40877
 30
0.000000
  70
    32
  0
VERTEX
  8
241
  5
1A92
 10
-12.6297
 20
6.38424
 30
0.000000
  70
    32
  0
VERTEX
  8
241
  5
1A93
 10
-12.6814
 20
6.35899
 30
0.000000
  70
    32
  0
VERTEX
  8
241
  5
1A94
 10
-12.7326
 20
6.33299
 30
0.000000
  70
    32
  0
VERTEX
  8
241
  5
1A95
 10
-12.7833
 20
6.30621
 30
0.000000
  70
    32
  0
VERTEX
  8
241
  5
1A96
 10
-12.8335
 20
6.27863
 30
0.000000
  70
    32
  0
VERTEX
  8
241
  5
1A97
 10
-12.8832
 20
6.25022
 30
0.000000
  70
    32
  0
VERTEX
  8
241
  5
1A98
 10
-12.9324
 20
6.22097
 30
0.000000
  70
    32
  0
VERTEX
  8
241
  5
1A99
 10
-12.9809
 20
6.19085
 30
0.000000
  70
    32
  0
VERTEX
  8
241
  5
1A9A
 10
-13.0289
 20
6.15983
 30
0.000000
  70
    32
  0
VERTEX
  8
241
  5
1A9B
 10
-13.0763
 20
6.12790
 30
0.000000
  70
    32
  0
VERTEX
  8
241
  5
1A9C
 10
-13.1230
 20
6.09503
 30
0.000000
  70
    32
  0
VERTEX
  8
241
  5
1A9D
 10
-13.1691
 20
6.06119
 30
0.000000
  70
    32
  0
VERTEX
  8
241
  5
1A9E
 10
-13.2145
 20
6.02637
 30
0.000000
  70
    32
  0
VERTEX
  8
241
  5
1A9F
 10
-13.2592
 20
5.99058
 30
0.000000
  70
    32
  0
VERTEX
  8
241
  5
1AA0
 10
-13.3033
 20
5.95386
 30
0.000000
  70
    32
  0
VERTEX
  8
241
  5
1AA1
 10
-13.3466
 20
5.91623
 30
0.000000
  70
    32
  0
VERTEX
  8
241
  5
1AA2
 10
-13.3893
 20
5.87771
 30
0.000000
  70
    32
  0
VERTEX
  8
241
  5
1AA3
 10
-13.4313
 20
5.83834
 30
0.000000
  70
    32
  0
VERTEX
  8
241
  5
1AA4
 10
-13.4727
 20
5.79814
 30
0.000000
  70
    32
  0
VERTEX
  8
241
  5
1AA5
 10
-13.5133
 20
5.75714
 30
0.000000
  70
    32
  0
VERTEX
  8
241
  5
1AA6
 10
-13.5533
 20
5.71536
 30
0.000000
  70
    32
  0
VERTEX
  8
241
  5
1AA7
 10
-13.5926
 20
5.67283
 30
0.000000
  70
    32
  0
VERTEX
  8
241
  5
1AA8
 10
-13.6312
 20
5.62958
 30
0.000000
  70
    32
  0
VERTEX
  8
241
  5
1AA9
 10
-13.6691
 20
5.58563
 30
0.000000
  70
    32
  0
VERTEX
  8
241
  5
1AAA
 10
-13.7064
 20
5.54102
 30
0.000000
  70
    32
  0
VERTEX
  8
241
  5
1AAB
 10
-13.7430
 20
5.49576
 30
0.000000
  70
    32
  0
VERTEX
  8
241
  5
1AAC
 10
-13.7789
 20
5.44989
 30
0.000000
  70
    32
  0
VERTEX
  8
241
  5
1AAD
 10
-13.8141
 20
5.40344
 30
0.000000
  70
    32
  0
VERTEX
  8
241
  5
1AAE
 10
-13.8487
 20
5.35642
 30
0.000000
  70
    32
  0
VERTEX
  8
241
  5
1AAF
 10
-13.8825
 20
5.30887
 30
0.000000
  70
    32
  0
VERTEX
  8
241
  5
1AB0
 10
-13.9157
 20
5.26081
 30
0.000000
  70
    32
  0
VERTEX
  8
241
  5
1AB1
 10
-13.9482
 20
5.21228
 30
0.000000
  70
    32
  0
VERTEX
  8
241
  5
1AB2
 10
-13.9801
 20
5.16329
 30
0.000000
  70
    32
  0
VERTEX
  8
241
  5
1AB3
 10
-14.0112
 20
5.11388
 30
0.000000
  70
    32
  0
VERTEX
  8
241
  5
1AB4
 10
-14.0417
 20
5.06407
 30
0.000000
  70
    32
  0
VERTEX
  8
241
  5
1AB5
 10
-14.0715
 20
5.01389
 30
0.000000
  70
    32
  0
VERTEX
  8
241
  5
1AB6
 10
-14.1006
 20
4.96336
 30
0.000000
  70
    32
  0
VERTEX
  8
241
  5
1AB7
 10
-14.1290
 20
4.91251
 30
0.000000
  70
    32
  0
VERTEX
  8
241
  5
1AB8
 10
-14.1568
 20
4.86138
 30
0.000000
  70
    32
  0
VERTEX
  8
241
  5
1AB9
 10
-14.1839
 20
4.80998
 30
0.000000
  70
    32
  0
VERTEX
  8
241
  5
1ABA
 10
-14.2103
 20
4.75834
 30
0.000000
  70
    32
  0
VERTEX
  8
241
  5
1ABB
 10
-14.2360
 20
4.70649
 30
0.000000
  70
    32
  0
VERTEX
  8
241
  5
1ABC
 10
-14.2611
 20
4.65445
 30
0.000000
  70
    32
  0
VERTEX
  8
241
  5
1ABD
 10
-14.2855
 20
4.60221
 30
0.000000
  70
    32
  0
VERTEX
  8
241
  5
1ABE
 10
-14.3092
 20
4.54977
 30
0.000000
  70
    32
  0
VERTEX
  8
241
  5
1ABF
 10
-14.3323
 20
4.49715
 30
0.000000
  70
    32
  0
VERTEX
  8
241
  5
1AC0
 10
-14.3547
 20
4.44433
 30
0.000000
  70
    32
  0
VERTEX
  8
241
  5
1AC1
 10
-14.3765
 20
4.39133
 30
0.000000
  70
    32
  0
VERTEX
  8
241
  5
1AC2
 10
-14.3977
 20
4.33815
 30
0.000000
  70
    32
  0
VERTEX
  8
241
  5
1AC3
 10
-14.4183
 20
4.28479
 30
0.000000
  70
    32
  0
VERTEX
  8
241
  5
1AC4
 10
-14.4383
 20
4.23126
 30
0.000000
  70
    32
  0
VERTEX
  8
241
  5
1AC5
 10
-14.4577
 20
4.17755
 30
0.000000
  70
    32
  0
VERTEX
  8
241
  5
1AC6
 10
-14.4765
 20
4.12366
 30
0.000000
  70
    32
  0
VERTEX
  8
241
  5
1AC7
 10
-14.4947
 20
4.06961
 30
0.000000
  70
    32
  0
VERTEX
  8
241
  5
1AC8
 10
-14.5124
 20
4.01540
 30
0.000000
  70
    32
  0
VERTEX
  8
241
  5
1AC9
 10
-14.5295
 20
3.96102
 30
0.000000
  70
    32
  0
VERTEX
  8
241
  5
1ACA
 10
-14.5460
 20
3.90648
 30
0.000000
  70
    32
  0
VERTEX
  8
241
  5
1ACB
 10
-14.5620
 20
3.85178
 30
0.000000
  70
    32
  0
VERTEX
  8
241
  5
1ACC
 10
-14.5775
 20
3.79693
 30
0.000000
  70
    32
  0
VERTEX
  8
241
  5
1ACD
 10
-14.5925
 20
3.74193
 30
0.000000
  70
    32
  0
VERTEX
  8
241
  5
1ACE
 10
-14.6069
 20
3.68677
 30
0.000000
  70
    32
  0
VERTEX
  8
241
  5
1ACF
 10
-14.6208
 20
3.63148
 30
0.000000
  70
    32
  0
VERTEX
  8
241
  5
1AD0
 10
-14.6342
 20
3.57603
 30
0.000000
  70
    32
  0
VERTEX
  8
241
  5
1AD1
 10
-14.6472
 20
3.52045
 30
0.000000
  70
    32
  0
VERTEX
  8
241
  5
1AD2
 10
-14.6596
 20
3.46473
 30
0.000000
  70
    32
  0
VERTEX
  8
241
  5
1AD3
 10
-14.6716
 20
3.40887
 30
0.000000
  70
    32
  0
VERTEX
  8
241
  5
1AD4
 10
-14.6831
 20
3.35288
 30
0.000000
  70
    32
  0
VERTEX
  8
241
  5
1AD5
 10
-14.6942
 20
3.29675
 30
0.000000
  70
    32
  0
VERTEX
  8
241
  5
1AD6
 10
-14.7048
 20
3.24051
 30
0.000000
  70
    32
  0
VERTEX
  8
241
  5
1AD7
 10
-14.7150
 20
3.18413
 30
0.000000
  70
    32
  0
VERTEX
  8
241
  5
1AD8
 10
-14.7248
 20
3.12764
 30
0.000000
  70
    32
  0
VERTEX
  8
241
  5
1AD9
 10
-14.7341
 20
3.07102
 30
0.000000
  70
    32
  0
VERTEX
  8
241
  5
1ADA
 10
-14.7430
 20
3.01429
 30
0.000000
  70
    32
  0
VERTEX
  8
241
  5
1ADB
 10
-14.7516
 20
2.95745
 30
0.000000
  70
    32
  0
VERTEX
  8
241
  5
1ADC
 10
-14.7597
 20
2.90049
 30
0.000000
  70
    32
  0
VERTEX
  8
241
  5
1ADD
 10
-14.7674
 20
2.84343
 30
0.000000
  70
    32
  0
VERTEX
  8
241
  5
1ADE
 10
-14.7748
 20
2.78626
 30
0.000000
  70
    32
  0
VERTEX
  8
241
  5
1ADF
 10
-14.7818
 20
2.72899
 30
0.000000
  70
    32
  0
VERTEX
  8
241
  5
1AE0
 10
-14.7884
 20
2.67162
 30
0.000000
  70
    32
  0
VERTEX
  8
241
  5
1AE1
 10
-14.7947
 20
2.61415
 30
0.000000
  70
    32
  0
VERTEX
  8
241
  5
1AE2
 10
-14.8007
 20
2.55659
 30
0.000000
  70
    32
  0
VERTEX
  8
241
  5
1AE3
 10
-14.8063
 20
2.49893
 30
0.000000
  70
    32
  0
VERTEX
  8
241
  5
1AE4
 10
-14.8116
 20
2.44119
 30
0.000000
  70
    32
  0
VERTEX
  8
241
  5
1AE5
 10
-14.8166
 20
2.38336
 30
0.000000
  70
    32
  0
VERTEX
  8
241
  5
1AE6
 10
-14.8212
 20
2.32545
 30
0.000000
  70
    32
  0
VERTEX
  8
241
  5
1AE7
 10
-14.8256
 20
2.26745
 30
0.000000
  70
    32
  0
VERTEX
  8
241
  5
1AE8
 10
-14.8297
 20
2.20938
 30
0.000000
  70
    32
  0
VERTEX
  8
241
  5
1AE9
 10
-14.8335
 20
2.15124
 30
0.000000
  70
    32
  0
VERTEX
  8
241
  5
1AEA
 10
-14.8370
 20
2.09302
 30
0.000000
  70
    32
  0
VERTEX
  8
241
  5
1AEB
 10
-14.8403
 20
2.03473
 30
0.000000
  70
    32
  0
VERTEX
  8
241
  5
1AEC
 10
-14.8433
 20
1.97637
 30
0.000000
  70
    32
  0
VERTEX
  8
241
  5
1AED
 10
-14.8461
 20
1.91795
 30
0.000000
  70
    32
  0
VERTEX
  8
241
  5
1AEE
 10
-14.8486
 20
1.85947
 30
0.000000
  70
    32
  0
VERTEX
  8
241
  5
1AEF
 10
-14.8509
 20
1.80093
 30
0.000000
  70
    32
  0
VERTEX
  8
241
  5
1AF0
 10
-14.8530
 20
1.74233
 30
0.000000
  70
    32
  0
VERTEX
  8
241
  5
1AF1
 10
-14.8549
 20
1.68368
 30
0.000000
  70
    32
  0
VERTEX
  8
241
  5
1AF2
 10
-14.8566
 20
1.62498
 30
0.000000
  70
    32
  0
VERTEX
  8
241
  5
1AF3
 10
-14.8581
 20
1.56623
 30
0.000000
  70
    32
  0
VERTEX
  8
241
  5
1AF4
 10
-14.8594
 20
1.50744
 30
0.000000
  70
    32
  0
VERTEX
  8
241
  5
1AF5
 10
-14.8605
 20
1.44860
 30
0.000000
  70
    32
  0
VERTEX
  8
241
  5
1AF6
 10
-14.8615
 20
1.38973
 30
0.000000
  70
    32
  0
VERTEX
  8
241
  5
1AF7
 10
-14.8623
 20
1.33081
 30
0.000000
  70
    32
  0
VERTEX
  8
241
  5
1AF8
 10
-14.8629
 20
1.27187
 30
0.000000
  70
    32
  0
VERTEX
  8
241
  5
1AF9
 10
-14.8634
 20
1.21289
 30
0.000000
  70
    32
  0
VERTEX
  8
241
  5
1AFA
 10
-14.8638
 20
1.15388
 30
0.000000
  70
    32
  0
VERTEX
  8
241
  5
1AFB
 10
-14.8641
 20
1.09485
 30
0.000000
  70
    32
  0
VERTEX
  8
241
  5
1AFC
 10
-14.8642
 20
1.03579
 30
0.000000
  70
    32
  0
VERTEX
  8
241
  5
1AFD
 10
-14.8643
 20
0.976719
 30
0.000000
  70
    32
  0
VERTEX
  8
241
  5
1AFE
 10
-14.8642
 20
0.917625
 30
0.000000
  70
    32
  0
VERTEX
  8
241
  5
1AFF
 10
-14.8641
 20
0.858517
 30
0.000000
  70
    32
  0
VERTEX
  8
241
  5
1B00
 10
-14.8638
 20
0.799396
 30
0.000000
  70
    32
  0
VERTEX
  8
241
  5
1B01
 10
-14.8635
 20
0.740267
 30
0.000000
  70
    32
  0
VERTEX
  8
241
  5
1B02
 10
-14.8632
 20
0.681130
 30
0.000000
  70
    32
  0
VERTEX
  8
241
  5
1B03
 10
-14.8628
 20
0.621990
 30
0.000000
  70
    32
  0
VERTEX
  8
241
  5
1B04
 10
-14.8623
 20
0.562848
 30
0.000000
  70
    32
  0
VERTEX
  8
241
  5
1B05
 10
-14.8618
 20
0.503708
 30
0.000000
  70
    32
  0
VERTEX
  8
241
  5
1B06
 10
-14.8613
 20
0.444572
 30
0.000000
  70
    32
  0
VERTEX
  8
241
  5
1B07
 10
-14.8608
 20
0.385443
 30
0.000000
  70
    32
  0
VERTEX
  8
241
  5
1B08
 10
-14.8602
 20
0.326324
 30
0.000000
  70
    32
  0
VERTEX
  8
241
  5
1B09
 10
-14.8597
 20
0.267218
 30
0.000000
  70
    32
  0
VERTEX
  8
241
  5
1B0A
 10
-14.8592
 20
0.208127
 30
0.000000
  70
    32
  0
VERTEX
  8
241
  5
1B0B
 10
-14.8586
 20
0.149053
 30
0.000000
  70
    32
  0
VERTEX
  8
241
  5
1B0C
 10
-14.8582
 20
0.0900010
 30
0.000000
  70
    32
  0
VERTEX
  8
241
  5
1B0D
 10
-14.8577
 20
0.0309722
 30
0.000000
  70
    32
  0
VERTEX
  8
241
  5
1B0E
 10
-14.8573
 20
-0.0280305
 30
0.000000
  70
    32
  0
VERTEX
  8
241
  5
1B0F
 10
-14.8569
 20
-0.0870052
 30
0.000000
  70
    32
  0
VERTEX
  8
241
  5
1B10
 10
-14.8566
 20
-0.145951
 30
0.000000
  70
    32
  0
VERTEX
  8
241
  5
1B11
 10
-14.8563
 20
-0.204867
 30
0.000000
  70
    32
  0
VERTEX
  8
241
  5
1B12
 10
-14.8560
 20
-0.263752
 30
0.000000
  70
    32
  0
VERTEX
  8
241
  5
1B13
 10
-14.8557
 20
-0.322606
 30
0.000000
  70
    32
  0
VERTEX
  8
241
  5
1B14
 10
-14.8554
 20
-0.381428
 30
0.000000
  70
    32
  0
VERTEX
  8
241
  5
1B15
 10
-14.8551
 20
-0.440216
 30
0.000000
  70
    32
  0
VERTEX
  8
241
  5
1B16
 10
-14.8549
 20
-0.498971
 30
0.000000
  70
    32
  0
VERTEX
  8
241
  5
1B17
 10
-14.8545
 20
-0.557691
 30
0.000000
  70
    32
  0
VERTEX
  8
241
  5
1B18
 10
-14.8542
 20
-0.616375
 30
0.000000
  70
    32
  0
VERTEX
  8
241
  5
1B19
 10
-14.8538
 20
-0.675022
 30
0.000000
  70
    32
  0
VERTEX
  8
241
  5
1B1A
 10
-14.8534
 20
-0.733633
 30
0.000000
  70
    32
  0
VERTEX
  8
241
  5
1B1B
 10
-14.8529
 20
-0.792205
 30
0.000000
  70
    32
  0
VERTEX
  8
241
  5
1B1C
 10
-14.8524
 20
-0.850738
 30
0.000000
  70
    32
  0
VERTEX
  8
241
  5
1B1D
 10
-14.8518
 20
-0.909231
 30
0.000000
  70
    32
  0
VERTEX
  8
241
  5
1B1E
 10
-14.8511
 20
-0.967684
 30
0.000000
  70
    32
  0
VERTEX
  8
241
  5
1B1F
 10
-14.8504
 20
-1.02610
 30
0.000000
  70
    32
  0
VERTEX
  8
241
  5
1B20
 10
-14.8495
 20
-1.08446
 30
0.000000
  70
    32
  0
VERTEX
  8
241
  5
1B21
 10
-14.8485
 20
-1.14279
 30
0.000000
  70
    32
  0
VERTEX
  8
241
  5
1B22
 10
-14.8475
 20
-1.20107
 30
0.000000
  70
    32
  0
VERTEX
  8
241
  5
1B23
 10
-14.8463
 20
-1.25931
 30
0.000000
  70
    32
  0
VERTEX
  8
241
  5
1B24
 10
-14.8450
 20
-1.31750
 30
0.000000
  70
    32
  0
VERTEX
  8
241
  5
1B25
 10
-14.8435
 20
-1.37564
 30
0.000000
  70
    32
  0
VERTEX
  8
241
  5
1B26
 10
-14.8420
 20
-1.43374
 30
0.000000
  70
    32
  0
VERTEX
  8
241
  5
1B27
 10
-14.8402
 20
-1.49179
 30
0.000000
  70
    32
  0
VERTEX
  8
241
  5
1B28
 10
-14.8383
 20
-1.54979
 30
0.000000
  70
    32
  0
VERTEX
  8
241
  5
1B29
 10
-14.8363
 20
-1.60774
 30
0.000000
  70
    32
  0
VERTEX
  8
241
  5
1B2A
 10
-14.8341
 20
-1.66564
 30
0.000000
  70
    32
  0
VERTEX
  8
241
  5
1B2B
 10
-14.8317
 20
-1.72349
 30
0.000000
  70
    32
  0
VERTEX
  8
241
  5
1B2C
 10
-14.8291
 20
-1.78128
 30
0.000000
  70
    32
  0
VERTEX
  8
241
  5
1B2D
 10
-14.8263
 20
-1.83902
 30
0.000000
  70
    32
  0
VERTEX
  8
241
  5
1B2E
 10
-14.8233
 20
-1.89671
 30
0.000000
  70
    32
  0
VERTEX
  8
241
  5
1B2F
 10
-14.8201
 20
-1.95434
 30
0.000000
  70
    32
  0
VERTEX
  8
241
  5
1B30
 10
-14.8166
 20
-2.01192
 30
0.000000
  70
    32
  0
VERTEX
  8
241
  5
1B31
 10
-14.8130
 20
-2.06944
 30
0.000000
  70
    32
  0
VERTEX
  8
241
  5
1B32
 10
-14.8091
 20
-2.12690
 30
0.000000
  70
    32
  0
VERTEX
  8
241
  5
1B33
 10
-14.8049
 20
-2.18431
 30
0.000000
  70
    32
  0
VERTEX
  8
241
  5
1B34
 10
-14.8005
 20
-2.24165
 30
0.000000
  70
    32
  0
VERTEX
  8
241
  5
1B35
 10
-14.7959
 20
-2.29894
 30
0.000000
  70
    32
  0
VERTEX
  8
241
  5
1B36
 10
-14.7909
 20
-2.35617
 30
0.000000
  70
    32
  0
VERTEX
  8
241
  5
1B37
 10
-14.7857
 20
-2.41333
 30
0.000000
  70
    32
  0
VERTEX
  8
241
  5
1B38
 10
-14.7802
 20
-2.47043
 30
0.000000
  70
    32
  0
VERTEX
  8
241
  5
1B39
 10
-14.7744
 20
-2.52747
 30
0.000000
  70
    32
  0
VERTEX
  8
241
  5
1B3A
 10
-14.7684
 20
-2.58444
 30
0.000000
  70
    32
  0
VERTEX
  8
241
  5
1B3B
 10
-14.7620
 20
-2.64135
 30
0.000000
  70
    32
  0
VERTEX
  8
241
  5
1B3C
 10
-14.7552
 20
-2.69819
 30
0.000000
  70
    32
  0
VERTEX
  8
241
  5
1B3D
 10
-14.7482
 20
-2.75497
 30
0.000000
  70
    32
  0
VERTEX
  8
241
  5
1B3E
 10
-14.7408
 20
-2.81167
 30
0.000000
  70
    32
  0
VERTEX
  8
241
  5
1B3F
 10
-14.7331
 20
-2.86831
 30
0.000000
  70
    32
  0
VERTEX
  8
241
  5
1B40
 10
-14.7250
 20
-2.92488
 30
0.000000
  70
    32
  0
VERTEX
  8
241
  5
1B41
 10
-14.7166
 20
-2.98139
 30
0.000000
  70
    32
  0
VERTEX
  8
241
  5
1B42
 10
-14.7078
 20
-3.03782
 30
0.000000
  70
    32
  0
VERTEX
  8
241
  5
1B43
 10
-14.6987
 20
-3.09417
 30
0.000000
  70
    32
  0
VERTEX
  8
241
  5
1B44
 10
-14.6891
 20
-3.15046
 30
0.000000
  70
    32
  0
VERTEX
  8
241
  5
1B45
 10
-14.6792
 20
-3.20667
 30
0.000000
  70
    32
  0
VERTEX
  8
241
  5
1B46
 10
-14.6688
 20
-3.26281
 30
0.000000
  70
    32
  0
VERTEX
  8
241
  5
1B47
 10
-14.6581
 20
-3.31887
 30
0.000000
  70
    32
  0
VERTEX
  8
241
  5
1B48
 10
-14.6470
 20
-3.37486
 30
0.000000
  70
    32
  0
VERTEX
  8
241
  5
1B49
 10
-14.6354
 20
-3.43077
 30
0.000000
  70
    32
  0
VERTEX
  8
241
  5
1B4A
 10
-14.6234
 20
-3.48660
 30
0.000000
  70
    32
  0
VERTEX
  8
241
  5
1B4B
 10
-14.6109
 20
-3.54235
 30
0.000000
  70
    32
  0
VERTEX
  8
241
  5
1B4C
 10
-14.5980
 20
-3.59803
 30
0.000000
  70
    32
  0
VERTEX
  8
241
  5
1B4D
 10
-14.5847
 20
-3.65362
 30
0.000000
  70
    32
  0
VERTEX
  8
241
  5
1B4E
 10
-14.5709
 20
-3.70914
 30
0.000000
  70
    32
  0
VERTEX
  8
241
  5
1B4F
 10
-14.5566
 20
-3.76457
 30
0.000000
  70
    32
  0
VERTEX
  8
241
  5
1B50
 10
-14.5418
 20
-3.81992
 30
0.000000
  70
    32
  0
VERTEX
  8
241
  5
1B51
 10
-14.5266
 20
-3.87518
 30
0.000000
  70
    32
  0
VERTEX
  8
241
  5
1B52
 10
-14.5109
 20
-3.93037
 30
0.000000
  70
    32
  0
VERTEX
  8
241
  5
1B53
 10
-14.4946
 20
-3.98546
 30
0.000000
  70
    32
  0
VERTEX
  8
241
  5
1B54
 10
-14.4779
 20
-4.04047
 30
0.000000
  70
    32
  0
VERTEX
  8
241
  5
1B55
 10
-14.4606
 20
-4.09540
 30
0.000000
  70
    32
  0
VERTEX
  8
241
  5
1B56
 10
-14.4428
 20
-4.15023
 30
0.000000
  70
    32
  0
VERTEX
  8
241
  5
1B57
 10
-14.4245
 20
-4.20498
 30
0.000000
  70
    32
  0
VERTEX
  8
241
  5
1B58
 10
-14.4056
 20
-4.25964
 30
0.000000
  70
    32
  0
VERTEX
  8
241
  5
1B59
 10
-14.3862
 20
-4.31421
 30
0.000000
  70
    32
  0
VERTEX
  8
241
  5
1B5A
 10
-14.3662
 20
-4.36867
 30
0.000000
  70
    32
  0
VERTEX
  8
241
  5
1B5B
 10
-14.3456
 20
-4.42302
 30
0.000000
  70
    32
  0
VERTEX
  8
241
  5
1B5C
 10
-14.3245
 20
-4.47721
 30
0.000000
  70
    32
  0
VERTEX
  8
241
  5
1B5D
 10
-14.3028
 20
-4.53123
 30
0.000000
  70
    32
  0
VERTEX
  8
241
  5
1B5E
 10
-14.2804
 20
-4.58504
 30
0.000000
  70
    32
  0
VERTEX
  8
241
  5
1B5F
 10
-14.2575
 20
-4.63863
 30
0.000000
  70
    32
  0
VERTEX
  8
241
  5
1B60
 10
-14.2339
 20
-4.69196
 30
0.000000
  70
    32
  0
VERTEX
  8
241
  5
1B61
 10
-14.2097
 20
-4.74501
 30
0.000000
  70
    32
  0
VERTEX
  8
241
  5
1B62
 10
-14.1849
 20
-4.79776
 30
0.000000
  70
    32
  0
VERTEX
  8
241
  5
1B63
 10
-14.1594
 20
-4.85017
 30
0.000000
  70
    32
  0
VERTEX
  8
241
  5
1B64
 10
-14.1332
 20
-4.90222
 30
0.000000
  70
    32
  0
VERTEX
  8
241
  5
1B65
 10
-14.1063
 20
-4.95388
 30
0.000000
  70
    32
  0
VERTEX
  8
241
  5
1B66
 10
-14.0788
 20
-5.00514
 30
0.000000
  70
    32
  0
VERTEX
  8
241
  5
1B67
 10
-14.0506
 20
-5.05596
 30
0.000000
  70
    32
  0
VERTEX
  8
241
  5
1B68
 10
-14.0216
 20
-5.10631
 30
0.000000
  70
    32
  0
VERTEX
  8
241
  5
1B69
 10
-13.9919
 20
-5.15617
 30
0.000000
  70
    32
  0
VERTEX
  8
241
  5
1B6A
 10
-13.9615
 20
-5.20552
 30
0.000000
  70
    32
  0
VERTEX
  8
241
  5
1B6B
 10
-13.9304
 20
-5.25433
 30
0.000000
  70
    32
  0
VERTEX
  8
241
  5
1B6C
 10
-13.8985
 20
-5.30256
 30
0.000000
  70
    32
  0
VERTEX
  8
241
  5
1B6D
 10
-13.8658
 20
-5.35021
 30
0.000000
  70
    32
  0
VERTEX
  8
241
  5
1B6E
 10
-13.8324
 20
-5.39723
 30
0.000000
  70
    32
  0
VERTEX
  8
241
  5
1B6F
 10
-13.7982
 20
-5.44361
 30
0.000000
  70
    32
  0
VERTEX
  8
241
  5
1B70
 10
-13.7631
 20
-5.48931
 30
0.000000
  70
    32
  0
VERTEX
  8
241
  5
1B71
 10
-13.7273
 20
-5.53432
 30
0.000000
  70
    32
  0
VERTEX
  8
241
  5
1B72
 10
-13.6907
 20
-5.57860
 30
0.000000
  70
    32
  0
VERTEX
  8
241
  5
1B73
 10
-13.6532
 20
-5.62213
 30
0.000000
  70
    32
  0
VERTEX
  8
241
  5
1B74
 10
-13.6149
 20
-5.66488
 30
0.000000
  70
    32
  0
VERTEX
  8
241
  5
1B75
 10
-13.5757
 20
-5.70683
 30
0.000000
  70
    32
  0
VERTEX
  8
241
  5
1B76
 10
-13.5357
 20
-5.74795
 30
0.000000
  70
    32
  0
VERTEX
  8
241
  5
1B77
 10
-13.4948
 20
-5.78823
 30
0.000000
  70
    32
  0
VERTEX
  8
241
  5
1B78
 10
-13.4531
 20
-5.82767
 30
0.000000
  70
    32
  0
VERTEX
  8
241
  5
1B79
 10
-13.4105
 20
-5.86629
 30
0.000000
  70
    32
  0
VERTEX
  8
241
  5
1B7A
 10
-13.3672
 20
-5.90409
 30
0.000000
  70
    32
  0
VERTEX
  8
241
  5
1B7B
 10
-13.3232
 20
-5.94107
 30
0.000000
  70
    32
  0
VERTEX
  8
241
  5
1B7C
 10
-13.2784
 20
-5.97724
 30
0.000000
  70
    32
  0
VERTEX
  8
241
  5
1B7D
 10
-13.2328
 20
-6.01262
 30
0.000000
  70
    32
  0
VERTEX
  8
241
  5
1B7E
 10
-13.1866
 20
-6.04720
 30
0.000000
  70
    32
  0
VERTEX
  8
241
  5
1B7F
 10
-13.1398
 20
-6.08099
 30
0.000000
  70
    32
  0
VERTEX
  8
241
  5
1B80
 10
-13.0923
 20
-6.11401
 30
0.000000
  70
    32
  0
VERTEX
  8
241
  5
1B81
 10
-13.0442
 20
-6.14625
 30
0.000000
  70
    32
  0
VERTEX
  8
241
  5
1B82
 10
-12.9955
 20
-6.17772
 30
0.000000
  70
    32
  0
VERTEX
  8
241
  5
1B83
 10
-12.9462
 20
-6.20844
 30
0.000000
  70
    32
  0
VERTEX
  8
241
  5
1B84
 10
-12.8964
 20
-6.23840
 30
0.000000
  70
    32
  0
VERTEX
  8
241
  5
1B85
 10
-12.8461
 20
-6.26762
 30
0.000000
  70
    32
  0
VERTEX
  8
241
  5
1B86
 10
-12.7953
 20
-6.29610
 30
0.000000
  70
    32
  0
VERTEX
  8
241
  5
1B87
 10
-12.7441
 20
-6.32385
 30
0.000000
  70
    32
  0
VERTEX
  8
241
  5
1B88
 10
-12.6924
 20
-6.35088
 30
0.000000
  70
    32
  0
VERTEX
  8
241
  5
1B89
 10
-12.6403
 20
-6.37718
 30
0.000000
  70
    32
  0
VERTEX
  8
241
  5
1B8A
 10
-12.5878
 20
-6.40278
 30
0.000000
  70
    32
  0
VERTEX
  8
241
  5
1B8B
 10
-12.5349
 20
-6.42767
 30
0.000000
  70
    32
  0
VERTEX
  8
241
  5
1B8C
 10
-12.4817
 20
-6.45186
 30
0.000000
  70
    32
  0
VERTEX
  8
241
  5
1B8D
 10
-12.4282
 20
-6.47536
 30
0.000000
  70
    32
  0
VERTEX
  8
241
  5
1B8E
 10
-12.3744
 20
-6.49818
 30
0.000000
  70
    32
  0
VERTEX
  8
241
  5
1B8F
 10
-12.3203
 20
-6.52032
 30
0.000000
  70
    32
  0
VERTEX
  8
241
  5
1B90
 10
-12.2660
 20
-6.54179
 30
0.000000
  70
    32
  0
VERTEX
  8
241
  5
1B91
 10
-12.2114
 20
-6.56260
 30
0.000000
  70
    32
  0
VERTEX
  8
241
  5
1B92
 10
-12.1567
 20
-6.58275
 30
0.000000
  70
    32
  0
VERTEX
  8
241
  5
1B93
 10
-12.1018
 20
-6.60226
 30
0.000000
  70
    32
  0
VERTEX
  8
241
  5
1B94
 10
-12.0468
 20
-6.62112
 30
0.000000
  70
    32
  0
VERTEX
  8
241
  5
1B95
 10
-11.9916
 20
-6.63934
 30
0.000000
  70
    32
  0
VERTEX
  8
241
  5
1B96
 10
-11.9363
 20
-6.65695
 30
0.000000
  70
    32
  0
VERTEX
  8
241
  5
1B97
 10
-11.8809
 20
-6.67395
 30
0.000000
  70
    32
  0
VERTEX
  8
241
  5
1B98
 10
-11.8254
 20
-6.69037
 30
0.000000
  70
    32
  0
VERTEX
  8
241
  5
1B99
 10
-11.7698
 20
-6.70621
 30
0.000000
  70
    32
  0
VERTEX
  8
241
  5
1B9A
 10
-11.7141
 20
-6.72150
 30
0.000000
  70
    32
  0
VERTEX
  8
241
  5
1B9B
 10
-11.6583
 20
-6.73624
 30
0.000000
  70
    32
  0
VERTEX
  8
241
  5
1B9C
 10
-11.6024
 20
-6.75047
 30
0.000000
  70
    32
  0
VERTEX
  8
241
  5
1B9D
 10
-11.5464
 20
-6.76418
 30
0.000000
  70
    32
  0
VERTEX
  8
241
  5
1B9E
 10
-11.4903
 20
-6.77741
 30
0.000000
  70
    32
  0
VERTEX
  8
241
  5
1B9F
 10
-11.4342
 20
-6.79016
 30
0.000000
  70
    32
  0
VERTEX
  8
241
  5
1BA0
 10
-11.3779
 20
-6.80245
 30
0.000000
  70
    32
  0
VERTEX
  8
241
  5
1BA1
 10
-11.3216
 20
-6.81429
 30
0.000000
  70
    32
  0
VERTEX
  8
241
  5
1BA2
 10
-11.2652
 20
-6.82571
 30
0.000000
  70
    32
  0
VERTEX
  8
241
  5
1BA3
 10
-11.2087
 20
-6.83672
 30
0.000000
  70
    32
  0
VERTEX
  8
241
  5
1BA4
 10
-11.1522
 20
-6.84734
 30
0.000000
  70
    32
  0
VERTEX
  8
241
  5
1BA5
 10
-11.0956
 20
-6.85757
 30
0.000000
  70
    32
  0
VERTEX
  8
241
  5
1BA6
 10
-11.0389
 20
-6.86744
 30
0.000000
  70
    32
  0
VERTEX
  8
241
  5
1BA7
 10
-10.9822
 20
-6.87697
 30
0.000000
  70
    32
  0
VERTEX
  8
241
  5
1BA8
 10
-10.9254
 20
-6.88616
 30
0.000000
  70
    32
  0
VERTEX
  8
241
  5
1BA9
 10
-10.8685
 20
-6.89504
 30
0.000000
  70
    32
  0
VERTEX
  8
241
  5
1BAA
 10
-10.8116
 20
-6.90362
 30
0.000000
  70
    32
  0
VERTEX
  8
241
  5
1BAB
 10
-10.7547
 20
-6.91192
 30
0.000000
  70
    32
  0
VERTEX
  8
241
  5
1BAC
 10
-10.6977
 20
-6.91996
 30
0.000000
  70
    32
  0
VERTEX
  8
241
  5
1BAD
 10
-10.6406
 20
-6.92774
 30
0.000000
  70
    32
  0
VERTEX
  8
241
  5
1BAE
 10
-10.5836
 20
-6.93529
 30
0.000000
  70
    32
  0
VERTEX
  8
241
  5
1BAF
 10
-10.5265
 20
-6.94262
 30
0.000000
  70
    32
  0
VERTEX
  8
241
  5
1BB0
 10
-10.4693
 20
-6.94975
 30
0.000000
  70
    32
  0
VERTEX
  8
241
  5
1BB1
 10
-10.4122
 20
-6.95669
 30
0.000000
  70
    32
  0
VERTEX
  8
241
  5
1BB2
 10
-10.3550
 20
-6.96346
 30
0.000000
  70
    32
  0
VERTEX
  8
241
  5
1BB3
 10
-10.2978
 20
-6.97008
 30
0.000000
  70
    32
  0
VERTEX
  8
241
  5
1BB4
 10
-10.2406
 20
-6.97656
 30
0.000000
  70
    32
  0
VERTEX
  8
241
  5
1BB5
 10
-10.1833
 20
-6.98292
 30
0.000000
  70
    32
  0
VERTEX
  8
241
  5
1BB6
 10
-10.1261
 20
-6.98917
 30
0.000000
  70
    32
  0
VERTEX
  8
241
  5
1BB7
 10
-10.0688
 20
-6.99534
 30
0.000000
  70
    32
  0
VERTEX
  8
241
  5
1BB8
 10
-10.0115
 20
-7.00143
 30
0.000000
  70
    32
  0
VERTEX
  8
241
  5
1BB9
 10
-9.95427
 20
-7.00746
 30
0.000000
  70
    32
  0
VERTEX
  8
241
  5
1BBA
 10
-9.89700
 20
-7.01345
 30
0.000000
  70
    32
  0
VERTEX
  8
241
  5
1BBB
 10
-9.83973
 20
-7.01942
 30
0.000000
  70
    32
  0
VERTEX
  8
241
  5
1BBC
 10
-9.78247
 20
-7.02538
 30
0.000000
  70
    32
  0
VERTEX
  8
241
  5
1BBD
 10
-9.72522
 20
-7.03132
 30
0.000000
  70
    32
  0
VERTEX
  8
241
  5
1BBE
 10
-9.66797
 20
-7.03726
 30
0.000000
  70
    32
  0
VERTEX
  8
241
  5
1BBF
 10
-9.61073
 20
-7.04319
 30
0.000000
  70
    32
  0
VERTEX
  8
241
  5
1BC0
 10
-9.55350
 20
-7.04911
 30
0.000000
  70
    32
  0
VERTEX
  8
241
  5
1BC1
 10
-9.49627
 20
-7.05503
 30
0.000000
  70
    32
  0
VERTEX
  8
241
  5
1BC2
 10
-9.43905
 20
-7.06093
 30
0.000000
  70
    32
  0
VERTEX
  8
241
  5
1BC3
 10
-9.38183
 20
-7.06683
 30
0.000000
  70
    32
  0
VERTEX
  8
241
  5
1BC4
 10
-9.32462
 20
-7.07273
 30
0.000000
  70
    32
  0
VERTEX
  8
241
  5
1BC5
 10
-9.26741
 20
-7.07862
 30
0.000000
  70
    32
  0
VERTEX
  8
241
  5
1BC6
 10
-9.21021
 20
-7.08450
 30
0.000000
  70
    32
  0
VERTEX
  8
241
  5
1BC7
 10
-9.15301
 20
-7.09038
 30
0.000000
  70
    32
  0
VERTEX
  8
241
  5
1BC8
 10
-9.09581
 20
-7.09625
 30
0.000000
  70
    32
  0
VERTEX
  8
241
  5
1BC9
 10
-9.03862
 20
-7.10212
 30
0.000000
  70
    32
  0
VERTEX
  8
241
  5
1BCA
 10
-8.98143
 20
-7.10798
 30
0.000000
  70
    32
  0
VERTEX
  8
241
  5
1BCB
 10
-8.92424
 20
-7.11384
 30
0.000000
  70
    32
  0
VERTEX
  8
241
  5
1BCC
 10
-8.86706
 20
-7.11970
 30
0.000000
  70
    32
  0
VERTEX
  8
241
  5
1BCD
 10
-8.80988
 20
-7.12555
 30
0.000000
  70
    32
  0
VERTEX
  8
241
  5
1BCE
 10
-8.75270
 20
-7.13140
 30
0.000000
  70
    32
  0
VERTEX
  8
241
  5
1BCF
 10
-8.69552
 20
-7.13725
 30
0.000000
  70
    32
  0
VERTEX
  8
241
  5
1BD0
 10
-8.63834
 20
-7.14309
 30
0.000000
  70
    32
  0
VERTEX
  8
241
  5
1BD1
 10
-8.58117
 20
-7.14894
 30
0.000000
  70
    32
  0
VERTEX
  8
241
  5
1BD2
 10
-8.52399
 20
-7.15478
 30
0.000000
  70
    32
  0
VERTEX
  8
241
  5
1BD3
 10
-8.46682
 20
-7.16063
 30
0.000000
  70
    32
  0
VERTEX
  8
241
  5
1BD4
 10
-8.40965
 20
-7.16647
 30
0.000000
  70
    32
  0
SEQEND
  8
241
  5
1BD5
  0
LINE
  5
17B5
  8
245
 10
-126.1876070832501
 20
-0.0000000000000284
 30
0.0
 11
3.0695663685247601
 21
0.0
 31
0.0
  0
LINE
  5
17B6
  8
240
 10
-51.499998991857581
 20
8.0000000000000284
 30
0.0
 11
-120.0999989918575
 21
8.0000000000000284
 31
0.0
  0
LINE
  5
17B7
  8
240
 10
-120.0999989918575
 20
-7.9999999999999707
 30
0.0
 11
-51.499998991857581
 21
-7.9999999999999707
 31
0.0
  0
LINE
  5
17B8
  8
240
 10
-122.0999989918575
 20
-5.9999999999999707
 30
0.0
 11
-122.0999989918575
 21
6.0000000000000284
 31
0.0
  0
LINE
  5
17B9
  8
240
 10
-7.7878199430874702
 20
7.6000000000000512
 30
0.0
 11
-50.68578542948444
 21
7.6000000000000512
 31
0.0
  0
LINE
  5
17BA
  8
240
 10
-50.68578542948444
 20
-7.599999999999965
 30
0.0
 11
-8.799998991857592
 21
-7.599999999999965
 31
0.0
  0
LINE
  5
17BB
  8
241
 10
-51.099998991857603
 20
7.6898202788754011
 30
0.0
 11
-51.099998991857603
 21
-7.6898202788754304
 31
0.0
  0
LINE
  5
17BC
  8
241
 10
-51.499998991857581
 20
-7.9999999999999707
 30
0.0
 11
-51.499998991857581
 21
8.0000000000000284
 31
0.0
  0
ARC
  5
17BD
  8
240
 10
-50.68578542948444
 20
-8.5999999999999375
 30
0.0
 40
1.0000000000000071
 50
90.0
 51
135.0000000000023
  0
LINE
  5
17BE
  8
240
 10
-51.499998991857581
 20
-7.9999999999999707
 30
0.0
 11
-51.39289221067105
 21
-7.8928932188134118
 31
0.0
  0
ARC
  5
17BF
  8
240
 10
-50.68578542948444
 20
8.6000000000000512
 30
0.0
 40
1.000000000000028
 50
224.9999999999977
 51
270.0
  0
LINE
  5
17C0
  8
240
 10
-51.39289221067105
 20
7.892893218813497
 30
0.0
 11
-51.499998991857581
 21
8.0000000000000284
 31
0.0
  0
LINE
  5
17C1
  8
240
 10
-5.20747060044497
 20
-5.0695334780504302
 30
0.0
 11
-0.0511465398370604
 21
0.6613383314581252
 31
0.0
  0
LINE
  5
17C2
  8
241
 10
-12.225400581286451
 20
0.2139070655877059
 30
0.0
 11
-6.6905100567479909
 21
-5.1236310426884053
 31
0.0
  0
LINE
  5
17C3
  8
240
 10
-6.6122604894531767
 20
-5.170270240055844
 30
0.0
 11
-8.799998991857592
 21
-7.599999999999965
 31
0.0
  0
LINE
  5
17C4
  8
240
 10
-6.5443387058513016
 20
-5.1795316412863182
 30
0.0
 11
-5.3488083758806724
 21
-5.1356267373476987
 31
0.0
  0
LINE
  5
17C5
  8
241
 10
-7.1195920525548209
 20
7.476754838303207
 30
0.0
 11
-12.278137638343781
 21
1.743413968300219
 31
0.0
  0
LINE
  5
17C6
  8
241
 10
-12.32934266933686
 20
1.602793146840241
 30
0.0
 11
-12.28645182408798
 21
0.351022925278192
 31
0.0
  0
LINE
  5
17C7
  8
240
 10
-0.1038835968943923
 20
2.1908452341705531
 30
0.0
 11
-5.6387741214328759
 21
7.5283833424466868
 31
0.0
  0
LINE
  5
17C8
  8
240
 10
-5.7849454723295599
 20
7.5842839410446006
 30
0.0
 11
-6.9804758023002584
 21
7.5403790371060104
 31
0.0
  0
ARC
  5
17C9
  8
240
 10
-7.7878199430874702
 20
5.6000000000000512
 30
0.0
 40
2.0
 50
70.292135557067937
 51
90.0
  0
LINE
  5
17CA
  8
240
 10
0.0000584911560172
 20
0.8019591529181042
 30
0.0
 11
-0.0428323540928617
 21
2.0537293744800671
 31
0.0
  0
ARC
  5
17CB
  8
240
 10
-120.0999989918575
 20
6.0000000000000284
 30
0.0
 40
2.0
 50
90.0
 51
180.0
  0
ARC
  5
17CC
  8
240
 10
-120.0999989918575
 20
-5.9999999999999707
 30
0.0
 40
2.0
 50
180.0
 51
270.0
  0
LINE
  5
17CD
  8
240
 10
-50.18578542948444
 20
-7.599999999999965
 30
0.0
 11
-33.500555165083483
 21
-7.599999999999965
 31
0.0
  0
ENDBLK
  5
17D0
  8
0
  0
ENDSEC
  0
SECTION
  2
ENTITIES
  0
LINE
  5
13B0
  8
250
 10
0.0000000000000284
 20
18.166349013498031
 30
0.0
 11
-2.224629570968772
 21
18.011677516540392
 31
0.0
  0
LINE
  5
13B1
  8
250
 10
-2.1988509881425098
 20
17.640905921378931
 30
0.0
 11
0.0000000000000284
 21
18.166349013498031
 31
0.0
  0
LINE
  5
13B2
  8
250
 10
-2.2504081537950631
 20
18.38244911170186
 30
0.0
 11
0.0000000000000284
 21
18.166349013498031
 31
0.0
  0
LINE
  5
13B3
  8
250
 10
-11.571652277965081
 20
13.24971840984446
 30
0.0
 11
-9.9160732961318843
 21
14.74369238381861
 31
0.0
  0
LINE
  5
13B4
  8
250
 10
-10.165068958460891
 20
15.019622214124141
 30
0.0
 11
-11.571652277965081
 21
13.24971840984446
 31
0.0
  0
LINE
  5
13B5
  8
250
 10
-9.6670776338028475
 20
14.467762553513079
 30
0.0
 11
-11.571652277965081
 21
13.24971840984446
 31
0.0
  0
TEXT
  5
13B6
  8
250
 10
-10.070908504090539
 20
16.715527366545
 30
0.0
 40
3.0
  1
45üï
 50
18.62927666988147
  0
LINE
  5
13B7
  8
250
 10
13.499445763951281
 20
7.5844832654679228
 30
0.0
 11
13.499445763951281
 21
5.3544832654679189
 31
0.0
  0
LINE
  5
13B8
  8
250
 10
13.87111243061795
 20
5.3544832654679189
 30
0.0
 11
13.499445763951281
 21
7.5844832654679228
 31
0.0
  0
LINE
  5
13B9
  8
250
 10
13.127779097284609
 20
5.3544832654679189
 30
0.0
 11
13.499445763951281
 21
7.5844832654679228
 31
0.0
  0
TEXT
  5
13BA
  8
250
 10
12.499445763951259
 20
-1.8532057365734991
 30
0.0
 40
3.0
  1
15.8
 50
90.0
  0
TEXT
  5
13BB
  8
250
 10
12.499445763951259
 20
-4.5674914508592224
 30
0.0
 40
3.0
  1
\U+2205
 50
90.0
  0
LINE
  5
13BC
  8
250
 10
-34.500555165083483
 20
-7.599999999999965
 30
0.0
 11
-34.500555165083483
 21
-5.369999999999961
 31
0.0
  0
LINE
  5
13BD
  8
250
 10
-34.87222183175016
 20
-5.369999999999961
 30
0.0
 11
-34.500555165083483
 21
-7.599999999999965
 31
0.0
  0
LINE
  5
13BE
  8
250
 10
-34.128888498416821
 20
-5.369999999999961
 30
0.0
 11
-34.500555165083483
 21
-7.599999999999965
 31
0.0
  0
LINE
  5
13BF
  8
250
 10
-34.500555165083483
 20
7.6000000000000512
 30
0.0
 11
-34.500555165083483
 21
5.3700000000000472
 31
0.0
  0
LINE
  5
13C0
  8
250
 10
-34.128888498416821
 20
5.3700000000000472
 30
0.0
 11
-34.500555165083483
 21
7.6000000000000512
 31
0.0
  0
LINE
  5
13C1
  8
250
 10
-34.87222183175016
 20
5.3700000000000472
 30
0.0
 11
-34.500555165083483
 21
7.6000000000000512
 31
0.0
  0
TEXT
  5
13C2
  8
250
 10
-35.500555165083512
 20
-3.4999999999999432
 30
0.0
 40
3.0
  1
15.2
 50
90.0
  0
TEXT
  5
13C3
  8
250
 10
-35.500555165083512
 20
-6.2142857142856647
 30
0.0
 40
3.0
  1
\U+2205
 50
90.0
  0
LINE
  5
13C4
  8
250
 10
-122.0999989918575
 20
-20.377611138547881
 30
0.0
 11
-119.8699989918575
 21
-20.377611138547881
 31
0.0
  0
LINE
  5
13C5
  8
250
 10
-119.8699989918575
 20
-20.005944471881211
 30
0.0
 11
-122.0999989918575
 21
-20.377611138547881
 31
0.0
  0
LINE
  5
13C6
  8
250
 10
-119.8699989918575
 20
-20.74927780521455
 30
0.0
 11
-122.0999989918575
 21
-20.377611138547881
 31
0.0
  0
LINE
  5
13C7
  8
250
 10
-51.099998991857603
 20
-20.377611138547881
 30
0.0
 11
-53.329998991857607
 21
-20.377611138547881
 31
0.0
  0
LINE
  5
13C8
  8
250
 10
-53.329998991857607
 20
-20.74927780521455
 30
0.0
 11
-51.099998991857603
 21
-20.377611138547881
 31
0.0
  0
LINE
  5
13C9
  8
250
 10
-53.329998991857607
 20
-20.005944471881211
 30
0.0
 11
-51.099998991857603
 21
-20.377611138547881
 31
0.0
  0
TEXT
  5
13CA
  8
250
 10
-89.028570420429006
 20
-19.377611138547881
 30
0.0
 40
3.0
  1
71
  0
LINE
  5
13CB
  8
250
 10
-51.099998991857603
 20
-20.377611138547881
 30
0.0
 11
-48.869998991857592
 21
-20.377611138547881
 31
0.0
  0
LINE
  5
13CC
  8
250
 10
-48.869998991857592
 20
-20.005944471881211
 30
0.0
 11
-51.099998991857603
 21
-20.377611138547881
 31
0.0
  0
LINE
  5
13CD
  8
250
 10
-48.869998991857592
 20
-20.74927780521455
 30
0.0
 11
-51.099998991857603
 21
-20.377611138547881
 31
0.0
  0
LINE
  5
13CE
  8
250
 10
0.0
 20
-20.377611138547881
 30
0.0
 11
-2.2299999999999889
 21
-20.377611138547881
 31
0.0
  0
LINE
  5
13CF
  8
250
 10
-2.2299999999999889
 20
-20.74927780521455
 30
0.0
 11
0.0
 21
-20.377611138547881
 31
0.0
  0
LINE
  5
13D0
  8
250
 10
-2.2299999999999889
 20
-20.005944471881211
 30
0.0
 11
0.0
 21
-20.377611138547881
 31
0.0
  0
TEXT
  5
13D1
  8
250
 10
-30.12142806735736
 20
-19.377611138547881
 30
0.0
 40
3.0
  1
51.1
  0
LINE
  5
13D2
  8
250
 10
-122.0999989918575
 20
-27.377611138547881
 30
0.0
 11
-119.8699989918575
 21
-27.377611138547881
 31
0.0
  0
LINE
  5
13D3
  8
250
 10
-119.8699989918575
 20
-27.005944471881211
 30
0.0
 11
-122.0999989918575
 21
-27.377611138547881
 31
0.0
  0
LINE
  5
13D4
  8
250
 10
-119.8699989918575
 20
-27.74927780521455
 30
0.0
 11
-122.0999989918575
 21
-27.377611138547881
 31
0.0
  0
LINE
  5
13D5
  8
250
 10
0.0
 20
-27.377611138547881
 30
0.0
 11
-2.2299999999999889
 21
-27.377611138547881
 31
0.0
  0
LINE
  5
13D6
  8
250
 10
-2.2299999999999889
 20
-27.74927780521455
 30
0.0
 11
0.0
 21
-27.377611138547881
 31
0.0
  0
LINE
  5
13D7
  8
250
 10
-2.2299999999999889
 20
-27.005944471881211
 30
0.0
 11
0.0
 21
-27.377611138547881
 31
0.0
  0
TEXT
  5
13D8
  8
250
 10
-67.264285210214496
 20
-26.377611138547881
 30
0.0
 40
3.0
  1
122.1
  0
LINE
  5
13D9
  8
250
 10
-132.50055516508351
 20
-7.9999999999999707
 30
0.0
 11
-132.50055516508351
 21
-5.7699999999999667
 31
0.0
  0
LINE
  5
13DA
  8
250
 10
-132.8722218317501
 20
-5.7699999999999667
 30
0.0
 11
-132.50055516508351
 21
-7.9999999999999707
 31
0.0
  0
LINE
  5
13DB
  8
250
 10
-132.12888849841681
 20
-5.7699999999999667
 30
0.0
 11
-132.50055516508351
 21
-7.9999999999999707
 31
0.0
  0
LINE
  5
13DC
  8
250
 10
-132.50055516508351
 20
8.0000000000000284
 30
0.0
 11
-132.50055516508351
 21
5.7700000000000244
 31
0.0
  0
LINE
  5
13DD
  8
250
 10
-132.12888849841681
 20
5.7700000000000244
 30
0.0
 11
-132.50055516508351
 21
8.0000000000000284
 31
0.0
  0
LINE
  5
13DE
  8
250
 10
-132.8722218317501
 20
5.7700000000000244
 30
0.0
 11
-132.50055516508351
 21
8.0000000000000284
 31
0.0
  0
TEXT
  5
13DF
  8
250
 10
-133.50055516508351
 20
-1.3571428571428179
 30
0.0
 40
3.0
  1
16
 50
90.0
  0
TEXT
  5
13E0
  8
250
 10
-133.50055516508351
 20
-4.0714285714285401
 30
0.0
 40
3.0
  1
\U+2205
 50
90.0
  0
LINE
  5
13FE
  8
250
 10
-132.50055516508351
 20
-5.7699999999999667
 30
0.0
 11
-132.50055516508351
 21
5.7700000000000244
 31
0.0
  0
LINE
  5
13FF
  8
250
 10
-120.5999989918576
 20
8.0000000000000284
 30
0.0
 11
-133.50055516508351
 21
8.0000000000000284
 31
0.0
  0
LINE
  5
1400
  8
250
 10
-120.5999989918576
 20
-7.9999999999999707
 30
0.0
 11
-133.50055516508351
 21
-7.9999999999999707
 31
0.0
  0
LINE
  5
1401
  8
250
 10
-119.8699989918575
 20
-27.377611138547881
 30
0.0
 11
-2.2299999999999889
 21
-27.377611138547881
 31
0.0
  0
LINE
  5
1402
  8
250
 10
0.0
 20
0.3036662185378702
 30
0.0
 11
0.0
 21
-28.377611138547881
 31
0.0
  0
LINE
  5
1403
  8
250
 10
-122.0999989918575
 20
-6.4999999999999707
 30
0.0
 11
-122.0999989918575
 21
-28.377611138547881
 31
0.0
  0
LINE
  5
1404
  8
250
 10
-48.869998991857592
 20
-20.377611138547881
 30
0.0
 11
-2.2299999999999889
 21
-20.377611138547881
 31
0.0
  0
LINE
  5
1405
  8
250
 10
0.0
 20
0.3036662185378702
 30
0.0
 11
0.0
 21
-21.377611138547881
 31
0.0
  0
LINE
  5
1406
  8
250
 10
-51.099998991857603
 20
-8.1898202788754304
 30
0.0
 11
-51.099998991857603
 21
-21.377611138547881
 31
0.0
  0
LINE
  5
1407
  8
250
 10
-119.8699989918575
 20
-20.377611138547881
 30
0.0
 11
-53.329998991857607
 21
-20.377611138547881
 31
0.0
  0
LINE
  5
1408
  8
250
 10
-51.099998991857603
 20
-8.1898202788754304
 30
0.0
 11
-51.099998991857603
 21
-21.377611138547881
 31
0.0
  0
LINE
  5
1409
  8
250
 10
-122.0999989918575
 20
-6.9999999999999707
 30
0.0
 11
-122.0999989918575
 21
-21.377611138547881
 31
0.0
  0
LINE
  5
140A
  8
250
 10
-34.500555165083483
 20
-5.369999999999961
 30
0.0
 11
-34.500555165083483
 21
5.3700000000000472
 31
0.0
  0
LINE
  5
140B
  8
250
  6
CONTINUOUS
 62
     3
 10
-50.18578542948444
 20
7.6000000000000512
 30
0.0
 11
-33.500555165083483
 21
7.6000000000000512
 31
0.0
  0
LINE
  5
140D
  8
250
 10
13.499445763951281
 20
5.3544832654679189
 30
0.0
 11
13.499445763951281
 21
-5.3544832654679757
 31
0.0
  0
LINE
  5
140E
  8
250
 10
-5.2795178692098821
 20
7.5844832654679228
 30
0.0
 11
14.499445763951281
 21
7.5844832654679228
 31
0.0
  0
ARC
  5
140F
  8
250
 10
0.0
 20
2.0906657175585219
 30
0.0
 40
16.075683295939498
 50
97.954390025323079
 51
128.08550816921979
  0
LINE
  5
1410
  8
250
 10
-6.0014362217650321
 20
7.8781143393595121
 30
0.0
 11
-12.29147563258965
 21
13.94387569615432
 31
0.0
  0
LINE
  5
1411
  8
250
 10
0.0
 20
2.5906657175585219
 30
0.0
 11
0.0000000000000568
 21
19.166349013498031
 31
0.0
  0
TEXT
  5
1414
  8
241
 10
-119.0
 20
28.0
 30
0.0
 40
5.0
  1
ST16-C0515-45-50
  7
YOKO
 11
-119.0
 21
28.0
 31
0.0
 73
     1
  0
INSERT
  5
17D1
  8
245
  2
A$C7FAA2368
 10
0.0
 20
0.0
 30
0.0
  0
VIEWPORT
  5
22
 67
     1
  8
0
 10
261.51769911504419
 20
148.5
 30
0.0
 40
523.0353982300885
 41
297.0
 68
     1
 69
     1
1001
ACAD
1000
MVIEW
1002
{
1070
    16
1010
0.0
1020
0.0
1030
0.0
1010
0.0
1020
0.0
1030
1.0
1040
0.0
1040
297.0
1040
261.51769911504419
1040
148.5
1040
50.0
1040
0.0
1040
0.0
1070
     0
1070
   100
1070
     1
1070
     1
1070
     0
1070
     0
1070
     0
1070
     0
1040
0.0
1040
0.0
1040
0.0
1040
1.0
1040
1.0
1040
10.0
1040
10.0
1070
     0
1002
{
1002
}
1002
}
1001
GENIUS_GENODEF_13
1002
{
1000
HIER
1070
     0
1002
}
1002
{
1000
MANEDIT
1070
     0
1002
}
1002
{
1000
NOSEL
1070
     0
1002
}
1002
{
1000
BEHIND
1070
     0
1002
}
1002
{
1000
OTHER
1070
     0
1002
}
1002
{
1000
REACTOR
1002
}
1001
GENIUS_GENOBJ-N-SDF_13
1002
{
1000
OWNER
1000
GEN
1002
}
1001
GENIUS_GENSCREG_15
1000
PF
1040
1.0
1000
DF
1040
1.0
1000
MIN
1011
0.0
1021
0.0
1031
1.2917849936661163E+074
1021
0.0
1031
0.0
1000
MAX
1011
523.0353982300885
1021
0.0
1031
1.2917849936661163E+074
1021
297.0
1031
0.0
1000
FLAGS
1070
     2
  0
ENDSEC
  0
EOF
