  0
SECTION
  2
HEADER
  9
$ACADVER
  1
AC1009
  9
$INSBASE
 10
0.0
 20
0.0
 30
0.0
  9
$EXTMIN
 10
-113.8040765894158
 20
-8.2095332120190392
 30
-0.0015258207003583
  9
$EXTMAX
 10
22.015777959273919
 20
44.165497122059492
 30
0.0000000349246037
  9
$LIMMIN
 10
0.0
 20
0.0
  9
$LIMMAX
 10
297.0
 20
210.0
  9
$ORTHOMODE
 70
     0
  9
$REGENMODE
 70
     1
  9
$FILLMODE
 70
     1
  9
$QTEXTMODE
 70
     0
  9
$MIRRTEXT
 70
     1
  9
$DRAGMODE
 70
     2
  9
$LTSCALE
 40
10.0
  9
$OSMODE
 70
  3071
  9
$ATTMODE
 70
     1
  9
$TEXTSIZE
 40
3.0
  9
$TRACEWID
 40
1.0
  9
$TEXTSTYLE
  7
YOKO
  9
$CLAYER
  8
240
  9
$CELTYPE
  6
BYLAYER
  9
$CECOLOR
 62
   256
  9
$DIMSCALE
 40
1.0
  9
$DIMASZ
 40
2.2299999999999991
  9
$DIMEXO
 40
0.5
  9
$DIMDLI
 40
7.0
  9
$DIMRND
 40
0.0
  9
$DIMDLE
 40
0.0
  9
$DIMEXE
 40
1.0
  9
$DIMTP
 40
0.0
  9
$DIMTM
 40
0.01
  9
$DIMTXT
 40
2.7999999999999989
  9
$DIMCEN
 40
0.0
  9
$DIMTSZ
 40
0.0
  9
$DIMTOL
 70
     0
  9
$DIMLIM
 70
     0
  9
$DIMTIH
 70
     0
  9
$DIMTOH
 70
     0
  9
$DIMSE1
 70
     0
  9
$DIMSE2
 70
     0
  9
$DIMTAD
 70
     3
  9
$DIMZIN
 70
     9
  9
$DIMBLK
  1
OPEN
  9
$DIMASO
 70
     1
  9
$DIMSHO
 70
     1
  9
$DIMPOST
  1

  9
$DIMAPOST
  1

  9
$DIMALT
 70
     0
  9
$DIMALTD
 70
     2
  9
$DIMALTF
 40
25.399999999999999
  9
$DIMLFAC
 40
1.0
  9
$DIMTOFL
 70
     1
  9
$DIMTVP
 40
0.0
  9
$DIMTIX
 70
     1
  9
$DIMSOXD
 70
     0
  9
$DIMSAH
 70
     0
  9
$DIMBLK1
  1

  9
$DIMBLK2
  1

  9
$DIMSTYLE
  2
BIGT
  9
$DIMCLRD
 70
   256
  9
$DIMCLRE
 70
   256
  9
$DIMCLRT
 70
    40
  9
$DIMTFAC
 40
1.0
  9
$DIMGAP
 40
1.0
  9
$LUNITS
 70
     2
  9
$LUPREC
 70
     3
  9
$SKETCHINC
 40
1.0
  9
$FILLETRAD
 40
0.0
  9
$AUNITS
 70
     0
  9
$AUPREC
 70
     3
  9
$MENU
  1
.
  9
$ELEVATION
 40
0.0
  9
$PELEVATION
 40
0.0
  9
$THICKNESS
 40
0.0
  9
$LIMCHECK
 70
     0
  9
$BLIPMODE
 70
     0
  9
$CHAMFERA
 40
0.25
  9
$CHAMFERB
 40
0.25
  9
$SKPOLY
 70
     0
  9
$TDCREATE
 40
2455735.6962318062
  9
$TDUPDATE
 40
2455735.70236103
  9
$TDINDWG
 40
0.0061297685
  9
$TDUSRTIMER
 40
0.0061297685
  9
$USRTIMER
 70
     1
  9
$ANGBASE
 50
0.0
  9
$ANGDIR
 70
     0
  9
$PDMODE
 70
     1
  9
$PDSIZE
 40
0.0
  9
$PLINEWID
 40
0.0
  9
$COORDS
 70
     2
  9
$SPLFRAME
 70
     0
  9
$SPLINETYPE
 70
     6
  9
$SPLINESEGS
 70
     4
  9
$ATTDIA
 70
     1
  9
$ATTREQ
 70
     1
  9
$HANDLING
 70
     1
  9
$HANDSEED
  5
1B71
  9
$SURFTAB1
 70
     6
  9
$SURFTAB2
 70
     6
  9
$SURFTYPE
 70
     6
  9
$SURFU
 70
     6
  9
$SURFV
 70
     6
  9
$UCSNAME
  2

  9
$UCSORG
 10
0.0
 20
0.0
 30
0.0
  9
$UCSXDIR
 10
1.0
 20
0.0
 30
0.0
  9
$UCSYDIR
 10
0.0
 20
1.0
 30
0.0
  9
$PUCSNAME
  2

  9
$PUCSORG
 10
0.0
 20
0.0
 30
0.0
  9
$PUCSXDIR
 10
1.0
 20
0.0
 30
0.0
  9
$PUCSYDIR
 10
0.0
 20
1.0
 30
0.0
  9
$USERI1
 70
     1
  9
$USERI2
 70
     0
  9
$USERI3
 70
     0
  9
$USERI4
 70
     0
  9
$USERI5
 70
     0
  9
$USERR1
 40
0.0
  9
$USERR2
 40
0.0
  9
$USERR3
 40
0.0
  9
$USERR4
 40
0.0
  9
$USERR5
 40
0.0
  9
$WORLDVIEW
 70
     1
  9
$SHADEDGE
 70
     3
  9
$SHADEDIF
 70
    70
  9
$TILEMODE
 70
     1
  9
$MAXACTVP
 70
    16
  9
$PLIMCHECK
 70
     0
  9
$PEXTMIN
 10
1.0000000000000000E+020
 20
1.0000000000000000E+020
 30
1.0000000000000000E+020
  9
$PEXTMAX
 10
-1.0000000000000000E+020
 20
-1.0000000000000000E+020
 30
-1.0000000000000000E+020
  9
$PLIMMIN
 10
0.0
 20
0.0
  9
$PLIMMAX
 10
420.0
 20
297.0
  9
$UNITMODE
 70
     0
  9
$VISRETAIN
 70
     1
  9
$PLINEGEN
 70
     0
  9
$PSLTSCALE
 70
     1
  0
ENDSEC
  0
SECTION
  2
TABLES
  0
TABLE
  2
VPORT
 70
   152
  0
VPORT
  2
*ACTIVE
 70
     0
 10
0.0
 20
0.0
 11
1.0
 21
1.0
 12
-45.894149315070962
 22
17.977981955020219
 13
0.0
 23
0.0
 14
7.0
 24
7.0
 15
7.0
 25
7.0
 16
0.0
 26
0.0
 36
1.0
 17
0.0
 27
0.0
 37
0.0
 40
91.404176122978015
 41
1.4921630094043881
 42
50.0
 43
0.0
 44
0.0
 50
0.0
 51
0.0
 71
     0
 72
  2000
 73
     1
 74
     0
 75
     0
 76
     1
 77
     0
 78
     0
  0
ENDTAB
  0
TABLE
  2
LTYPE
 70
    13
  0
LTYPE
  2
CONTINUOUS
 70
     0
  3
Solid line
 72
    65
 73
     0
 40
0.0
  0
LTYPE
  2
CENTER2
 70
     0
  3
___ _ ___ _ ___ _ ___ _ ___ _ ___ _ ___ _ ___ _
 72
    65
 73
     4
 40
1.125
 49
0.75
 49
-0.125
 49
0.125
 49
-0.125
  0
LTYPE
  2
HIDDEN2
 70
     0
  3
_ _ _ _ _ _ _ _ _ _ _ _ _ _ _ _ _ _ _ _ _ _ _ _
 72
    65
 73
     2
 40
0.1875
 49
0.125
 49
-0.0625
  0
LTYPE
  2
PHANTOM2
 70
     0
  3
___ _ _ ___ _ _ ___ _ _ ___ _ _ ___ _ _ ___ _ _
 72
    65
 73
     6
 40
1.25
 49
0.625
 49
-0.125
 49
0.125
 49
-0.125
 49
0.125
 49
-0.125
  0
LTYPE
  2
CENTER
 70
     0
  3
____ _ ____ _ ____ _ ____ _ ____ _ ____ _ ____ 
 72
    65
 73
     4
 40
2.0
 49
1.25
 49
-0.25
 49
0.25
 49
-0.25
  0
LTYPE
  2
AM_ISO02W050
 70
     0
  3
__ __ __ __ __ __ __ __ __ __ __ __ __ __ __
 72
    65
 73
     2
 40
7.5
 49
6.0
 49
-1.5
  0
LTYPE
  2
AMCONSTR
 70
     0
  3
_______________________
 72
    65
 73
     2
 40
9999.0
 49
9999.0
 49
0.0
  0
LTYPE
  2
ACISOWELD
 70
     0
  3
_ _ _ _ _
 72
    65
 73
     2
 40
2.0
 49
2.0
 49
-1.0
  0
LTYPE
  2
ACISOTGB
 70
     0
  3
__ . . __ . .
 72
    65
 73
     6
 40
9.0
 49
4.0
 49
-1.0
 49
1.0
 49
-1.0
 49
1.0
 49
-1.0
  0
LTYPE
  2
ACISOTGL
 70
     0
  3
_ _ _ _ _
 72
    65
 73
     2
 40
3.0
 49
2.0
 49
-1.0
  0
LTYPE
  2
ACJISTGB
 70
     0
  3
__ . . __ . .
 72
    65
 73
     6
 40
9.0
 49
4.0
 49
-1.0
 49
1.0
 49
-1.0
 49
1.0
 49
-1.0
  0
LTYPE
  2
ACJISTGL
 70
     0
  3
_ _ _ _ _
 72
    65
 73
     2
 40
3.0
 49
2.0
 49
-1.0
  0
LTYPE
  2
HIDDEN
 70
     0
  3
Hidden __ __ __ __ __ __ __ __ __ __ __ __ __ _
 72
    65
 73
     2
 40
9.5249999999999986
 49
6.3499999999999988
 49
-3.1749999999999989
  0
ENDTAB
  0
TABLE
  2
LAYER
 70
    15
  0
LAYER
  2
0
 70
     0
 62
     7
  6
CONTINUOUS
  0
LAYER
  2
DEFPOINTS
 70
     0
 62
     7
  6
CONTINUOUS
  0
LAYER
  2
245
 70
     0
 62
     2
  6
CENTER2
  0
LAYER
  2
240
 70
     0
 62
     4
  6
CONTINUOUS
  0
LAYER
  2
241
 70
     0
 62
   211
  6
CONTINUOUS
  0
LAYER
  2
242
 70
     0
 62
     3
  6
CONTINUOUS
  0
LAYER
  2
243
 70
     0
 62
   211
  6
HIDDEN2
  0
LAYER
  2
244
 70
     0
 62
     3
  6
HIDDEN2
  0
LAYER
  2
246
 70
     0
 62
     3
  6
PHANTOM2
  0
LAYER
  2
247
 70
     0
 62
    60
  6
CONTINUOUS
  0
LAYER
  2
248
 70
     0
 62
    60
  6
HIDDEN2
  0
LAYER
  2
250
 70
     0
 62
     3
  6
CONTINUOUS
  0
LAYER
  2
251
 70
     0
 62
    40
  6
CONTINUOUS
  0
LAYER
  2
AM_5
 70
     0
 62
     3
  6
CONTINUOUS
  0
LAYER
  2
AM_CL
 70
     0
 62
   254
  6
AMCONSTR
  0
ENDTAB
  0
TABLE
  2
STYLE
 70
     6
  0
STYLE
  2
STANDARD
 70
     0
 40
0.0
 41
1.0
 50
0.0
 71
     0
 42
3.0
  3
romans.shx
  4
extfont.shx
  0
STYLE
  2
ACISOTS
 70
     0
 40
1.0
 41
1.0
 50
0.0
 71
     0
 42
3.0
  3
amgdt.shx
  4
extfont.shx
  0
STYLE
  2
ACISOGDT
 70
     0
 40
0.0
 41
1.0
 50
0.0
 71
     0
 42
3.0
  3
amgdt.shx
  4
extfont.shx
  0
STYLE
  2
ACJISTS
 70
     0
 40
1.0
 41
1.0
 50
0.0
 71
     0
 42
3.0
  3
amgdt.shx
  4
extfont.shx
  0
STYLE
  2
ACJISGDT
 70
     0
 40
0.0
 41
1.0
 50
0.0
 71
     0
 42
3.0
  3
amgdt.shx
  4
extfont.shx
  0
STYLE
  2
YOKO
 70
     0
 40
0.0
 41
1.0
 50
0.0
 71
     0
 42
3.0
  3
romans.shx
  4
extfont.shx
  0
ENDTAB
  0
TABLE
  2
VIEW
 70
     0
  0
ENDTAB
  0
TABLE
  2
UCS
 70
     0
  0
ENDTAB
  0
TABLE
  2
APPID
 70
    32
  0
APPID
  2
ACAD
 70
     0
  0
APPID
  2
GLOBAL
 70
     0
  0
APPID
  2
DETAIL
 70
     0
  0
APPID
  2
GRPNAME
 70
     0
  0
APPID
  2
GPARA
 70
     0
  0
APPID
  2
MCAD_NO_VIS
 70
     0
  0
APPID
  2
ACAD_TEMP_GRAPHIC
 70
     0
  0
APPID
  2
ACATTRIBSERVICES
 70
     0
  0
APPID
  2
GENIUS_GENSCREG_15
 70
     0
  0
APPID
  2
GENIUS_GENODEF_13
 70
     0
  0
APPID
  2
GENIUS_GENOBJ-N-SDF_13
 70
     0
  0
APPID
  2
GENIUS_GENREC_14
 70
     0
  0
APPID
  2
GENIUS_GENOBJ-N-REC_13
 70
     0
  0
APPID
  2
GENIUS_GENDIMSH_14
 70
     0
  0
APPID
  2
GENIUS_GENOBJ-N-DIM_13
 70
     0
  0
APPID
  2
GENIUS_GENDIM_13
 70
     0
  0
APPID
  2
GENIUS_GENDTOL_13
 70
     0
  0
APPID
  2
GENIUS_GENOLIS_13
 70
     0
  0
APPID
  2
GENIUS_GENOENT_13
 70
     0
  0
APPID
  2
GENIUS_GENOBJ-F-FEM_13
 70
     0
  0
APPID
  2
GENIUS_GENOREF_13
 70
     0
  0
APPID
  2
GENIUS_GEFFEM_13
 70
     0
  0
APPID
  2
GENIUS_GEFFEMP_13
 70
     0
  0
APPID
  2
AD_DRAW
 70
     0
  0
APPID
  2
DESIGNERASSEMBLIES
 70
     0
  0
APPID
  2
ACADM_DIM_EDIT
 70
     0
  0
APPID
  2
AMDT_DM_ADJ
 70
     0
  0
APPID
  2
ITEMNAME
 70
     0
  0
APPID
  2
GRADE_0
 70
     0
  0
APPID
  2
HATCH_TYPE
 70
     0
  0
APPID
  2
HATCH_DISPLAY
 70
     0
  0
APPID
  2
HATCH_DISTANCE
 70
     0
  0
ENDTAB
  0
TABLE
  2
DIMSTYLE
 70
    25
  0
DIMSTYLE
  2
BIGT
 70
     0
  3

  4

  5
OPEN
  6

  7

 40
1.0
 41
2.2299999999999991
 42
0.5
 43
7.0
 44
1.0
 45
0.0
 46
0.0
 47
0.0
 48
0.01
140
2.7999999999999989
141
0.0
142
0.0
143
25.399999999999999
144
1.0
145
0.0
146
1.0
147
1.0
 71
     0
 72
     0
 73
     0
 74
     0
 75
     0
 76
     0
 77
     3
 78
     9
170
     0
171
     2
172
     1
173
     0
174
     1
175
     0
176
   256
177
   256
178
    40
  0
DIMSTYLE
  2
AM_ISO
 70
     0
  3

  4
"
  5

  6

  7

 40
1.0
 41
2.5
 42
1.0
 43
10.0
 44
1.0
 45
0.0
 46
0.0
 47
0.1
 48
0.1
140
3.5
141
0.0
142
0.0
143
0.0393701
144
1.0
145
0.0
146
0.71
147
1.5
 71
     0
 72
     0
 73
     0
 74
     0
 75
     0
 76
     0
 77
     1
 78
     8
170
     0
171
     2
172
     1
173
     0
174
     0
175
     0
176
   256
177
   256
178
     2
  0
DIMSTYLE
  2
AM_ISO$3
 70
     0
  3

  4
"
  5

  6

  7

 40
1.0
 41
2.5
 42
1.0
 43
10.0
 44
1.0
 45
0.0
 46
0.0
 47
0.1
 48
0.1
140
3.5
141
0.0
142
0.0
143
0.0393701
144
1.0
145
0.0
146
0.71
147
1.5
 71
     0
 72
     0
 73
     0
 74
     1
 75
     0
 76
     0
 77
     1
 78
     8
170
     0
171
     2
172
     0
173
     0
174
     0
175
     0
176
   256
177
   256
178
     2
  0
DIMSTYLE
  2
AM_ISO$4
 70
     0
  3

  4
"
  5

  6

  7

 40
1.0
 41
2.5
 42
1.0
 43
10.0
 44
1.0
 45
0.0
 46
0.0
 47
0.1
 48
0.1
140
3.5
141
0.0
142
0.0
143
0.0393701
144
1.0
145
0.0
146
0.71
147
1.5
 71
     0
 72
     0
 73
     0
 74
     1
 75
     0
 76
     0
 77
     1
 78
     8
170
     0
171
     2
172
     0
173
     0
174
     0
175
     0
176
   256
177
   256
178
     2
  0
DIMSTYLE
  2
AM_ISO$6
 70
     0
  3

  4
"
  5

  6

  7

 40
1.0
 41
2.5
 42
1.0
 43
10.0
 44
1.0
 45
0.0
 46
0.0
 47
0.1
 48
0.1
140
3.5
141
0.0
142
0.0
143
0.0393701
144
1.0
145
0.0
146
0.71
147
1.5
 71
     0
 72
     0
 73
     0
 74
     0
 75
     0
 76
     0
 77
     0
 78
     8
170
     0
171
     2
172
     1
173
     0
174
     0
175
     0
176
   256
177
   256
178
     2
  0
DIMSTYLE
  2
AM_ISO$7
 70
     0
  3

  4
"
  5

  6

  7

 40
1.0
 41
2.5
 42
1.0
 43
10.0
 44
1.0
 45
0.0
 46
0.0
 47
0.1
 48
0.1
140
5.0
141
0.0
142
0.0
143
0.0393701
144
1.0
145
0.0
146
0.71
147
1.5
 71
     0
 72
     0
 73
     0
 74
     0
 75
     0
 76
     0
 77
     1
 78
     8
170
     0
171
     2
172
     1
173
     0
174
     0
175
     0
176
   256
177
   256
178
     2
  0
DIMSTYLE
  2
AM_ISO$SF
 70
     0
  3

  4
"
  5

  6

  7

 40
1.0
 41
2.5
 42
1.0
 43
10.0
 44
1.0
 45
0.0
 46
0.0
 47
0.1
 48
0.1
140
3.5
141
0.0
142
0.0
143
0.0393701
144
1.0
145
0.0
146
0.71
147
1.5
 71
     0
 72
     0
 73
     0
 74
     0
 75
     1
 76
     1
 77
     1
 78
     8
170
     0
171
     2
172
     1
173
     0
174
     0
175
     0
176
   256
177
   256
178
     2
  0
DIMSTYLE
  2
AM_ISO$SH
 70
     0
  3

  4
"
  5

  6
GENAXEH
  7

 40
1.0
 41
2.5
 42
1.0
 43
10.0
 44
1.0
 45
0.0
 46
0.0
 47
0.1
 48
0.1
140
3.5
141
0.0
142
0.0
143
0.0393701
144
2.0
145
0.0
146
0.71
147
1.5
 71
     0
 72
     0
 73
     0
 74
     0
 75
     1
 76
     1
 77
     1
 78
     8
170
     0
171
     2
172
     1
173
     1
174
     0
175
     0
176
   256
177
   256
178
     2
  0
DIMSTYLE
  2
BIGT$2
 70
     0
  3

  4

  5
OPEN
  6

  7

 40
1.0
 41
2.2299999999999991
 42
0.5
 43
7.0
 44
1.0
 45
0.0
 46
0.0
 47
0.0
 48
0.01
140
2.7999999999999989
141
0.0
142
0.0
143
25.399999999999999
144
1.0
145
0.0
146
1.0
147
1.0
 71
     0
 72
     0
 73
     0
 74
     0
 75
     0
 76
     0
 77
     3
 78
     9
170
     0
171
     2
172
     1
173
     0
174
     0
175
     0
176
   256
177
   256
178
    40
  0
DIMSTYLE
  2
BIGT$3
 70
     0
  3

  4

  5
OPEN
  6

  7

 40
1.0
 41
2.2299999999999991
 42
0.5
 43
2.5
 44
1.0
 45
0.0
 46
0.0
 47
0.0
 48
0.01
140
2.7999999999999989
141
0.0
142
0.0
143
25.399999999999999
144
1.0
145
0.0
146
1.0
147
1.0
 71
     0
 72
     0
 73
     0
 74
     0
 75
     0
 76
     0
 77
     3
 78
     9
170
     0
171
     2
172
     1
173
     0
174
     0
175
     0
176
   256
177
   256
178
    40
  0
DIMSTYLE
  2
BIGT$7
 70
     0
  3

  4

  5
OPEN
  6

  7

 40
0.0
 41
2.2299999999999991
 42
0.5
 43
7.0
 44
1.0
 45
0.0
 46
0.0
 47
0.0
 48
0.01
140
2.7999999999999989
141
0.0
142
0.0
143
25.399999999999999
144
1.0
145
0.0
146
1.0
147
1.0
 71
     0
 72
     0
 73
     0
 74
     0
 75
     0
 76
     0
 77
     3
 78
     9
170
     0
171
     2
172
     0
173
     0
174
     0
175
     0
176
   256
177
   256
178
    40
  0
DIMSTYLE
  2
BIGT$6
 70
     0
  3

  4

  5
OPEN
  6

  7

 40
1.0
 41
2.2299999999999991
 42
0.5
 43
2.5
 44
1.0
 45
0.0
 46
0.0
 47
0.0
 48
0.01
140
2.7999999999999989
141
0.0
142
0.0
143
25.399999999999999
144
1.0
145
0.0
146
1.0
147
1.0
 71
     0
 72
     0
 73
     0
 74
     0
 75
     0
 76
     0
 77
     3
 78
     9
170
     0
171
     2
172
     1
173
     0
174
     0
175
     0
176
   256
177
   256
178
    40
  0
DIMSTYLE
  2
BIGT$0
 70
     0
  3

  4

  5
OPEN
  6

  7

 40
1.0
 41
2.2299999999999991
 42
0.5
 43
7.0
 44
1.0
 45
0.0
 46
0.0
 47
0.0
 48
0.01
140
2.7999999999999989
141
0.0
142
0.0
143
25.399999999999999
144
1.0
145
0.0
146
1.0
147
1.0
 71
     0
 72
     0
 73
     0
 74
     0
 75
     0
 76
     0
 77
     3
 78
     9
170
     0
171
     2
172
     1
173
     0
174
     0
175
     0
176
   256
177
   256
178
    40
  0
DIMSTYLE
  2
BIGT$4
 70
     0
  3

  4

  5
OPEN
  6

  7

 40
1.0
 41
2.2299999999999991
 42
0.5
 43
2.5
 44
1.0
 45
0.0
 46
0.0
 47
0.0
 48
0.01
140
2.7999999999999989
141
0.0
142
0.0
143
25.399999999999999
144
1.0
145
0.0
146
1.0
147
1.0
 71
     0
 72
     0
 73
     0
 74
     0
 75
     0
 76
     0
 77
     3
 78
     9
170
     0
171
     2
172
     1
173
     0
174
     0
175
     0
176
   256
177
   256
178
    40
  0
DIMSTYLE
  2
BIGT$SH
 70
     0
  3

  4

  5
OPEN
  6

  7

 40
1.0
 41
2.2299999999999991
 42
0.5
 43
7.0
 44
1.0
 45
0.0
 46
0.0
 47
0.0
 48
0.0
140
2.7999999999999989
141
0.0
142
0.0
143
25.399999999999999
144
1.0
145
0.0
146
1.0
147
1.0
 71
     0
 72
     0
 73
     0
 74
     0
 75
     0
 76
     0
 77
     3
 78
     9
170
     0
171
     2
172
     1
173
     0
174
     0
175
     0
176
   256
177
   256
178
    40
  0
DIMSTYLE
  2
BIGT$SF
 70
     0
  3

  4

  5
OPEN
  6

  7

 40
1.0
 41
2.2299999999999991
 42
0.5
 43
7.0
 44
1.0
 45
0.0
 46
0.0
 47
0.0
 48
0.0
140
2.7999999999999989
141
0.0
142
0.0
143
25.399999999999999
144
1.0
145
0.0
146
1.0
147
1.0
 71
     0
 72
     0
 73
     0
 74
     0
 75
     0
 76
     0
 77
     3
 78
     9
170
     0
171
     2
172
     1
173
     0
174
     0
175
     0
176
   256
177
   256
178
    40
  0
DIMSTYLE
  2
TECHNICAL_OSAKA
 70
     0
  3

  4
"
  5
OPEN30
  6

  7

 40
1.0
 41
2.5
 42
1.0
 43
10.0
 44
1.0
 45
0.0
 46
0.0
 47
0.1
 48
0.1
140
2.7999999999999989
141
0.0
142
0.0
143
0.0393701
144
1.0
145
0.0
146
0.71
147
1.5
 71
     0
 72
     0
 73
     0
 74
     0
 75
     0
 76
     0
 77
     3
 78
     8
170
     0
171
     2
172
     1
173
     0
174
     0
175
     0
176
   256
177
   256
178
    40
  0
DIMSTYLE
  2
TECHNICAL_OSAKA$3
 70
     0
  3

  4
"
  5
OPEN30
  6

  7

 40
1.0
 41
2.5
 42
1.0
 43
10.0
 44
1.0
 45
0.0
 46
0.0
 47
0.1
 48
0.1
140
2.7999999999999989
141
0.0
142
0.0
143
0.0393701
144
1.0
145
0.0
146
0.71
147
1.5
 71
     0
 72
     0
 73
     0
 74
     1
 75
     0
 76
     0
 77
     3
 78
     8
170
     0
171
     2
172
     0
173
     0
174
     0
175
     0
176
   256
177
   256
178
    40
  0
DIMSTYLE
  2
TECHNICAL_OSAKA$4
 70
     0
  3

  4
"
  5
OPEN30
  6

  7

 40
1.0
 41
2.5
 42
1.0
 43
10.0
 44
1.0
 45
0.0
 46
0.0
 47
0.1
 48
0.1
140
2.7999999999999989
141
0.0
142
0.0
143
0.0393701
144
1.0
145
0.0
146
0.71
147
1.5
 71
     0
 72
     0
 73
     0
 74
     1
 75
     0
 76
     0
 77
     3
 78
     8
170
     0
171
     2
172
     0
173
     0
174
     0
175
     0
176
   256
177
   256
178
    40
  0
DIMSTYLE
  2
TECHNICAL_OSAKA$6
 70
     0
  3

  4
"
  5
OPEN30
  6

  7

 40
1.0
 41
2.5
 42
1.0
 43
10.0
 44
1.0
 45
0.0
 46
0.0
 47
0.1
 48
0.1
140
2.7999999999999989
141
0.0
142
0.0
143
0.0393701
144
1.0
145
0.0
146
0.71
147
1.5
 71
     0
 72
     0
 73
     0
 74
     0
 75
     0
 76
     0
 77
     0
 78
     8
170
     0
171
     2
172
     1
173
     0
174
     0
175
     0
176
   256
177
   256
178
    40
  0
DIMSTYLE
  2
TECHNICAL_OSAKA$7
 70
     0
  3

  4
"
  5
OPEN30
  6

  7

 40
1.0
 41
2.5
 42
1.0
 43
10.0
 44
1.0
 45
0.0
 46
0.0
 47
0.1
 48
0.1
140
2.7999999999999989
141
0.0
142
0.0
143
0.0393701
144
1.0
145
0.0
146
0.71
147
1.5
 71
     0
 72
     0
 73
     0
 74
     0
 75
     0
 76
     0
 77
     3
 78
     8
170
     0
171
     2
172
     1
173
     0
174
     0
175
     0
176
   256
177
   256
178
    40
  0
DIMSTYLE
  2
TECHNICAL_OSAKA$SF
 70
     0
  3

  4
"
  5
OPEN30
  6
OPEN30
  7
OPEN30
 40
1.0
 41
2.5
 42
1.0
 43
10.0
 44
1.0
 45
0.0
 46
0.0
 47
0.1
 48
0.1
140
3.5
141
0.0
142
0.0
143
0.0393701
144
1.0
145
0.0
146
0.71
147
1.5
 71
     0
 72
     0
 73
     0
 74
     0
 75
     1
 76
     1
 77
     3
 78
     8
170
     0
171
     2
172
     1
173
     0
174
     0
175
     0
176
   256
177
   256
178
    40
  0
DIMSTYLE
  2
TECHNICAL_OSAKA$SH
 70
     0
  3

  4
"
  5
OPEN30
  6
GENAXEH
  7
OPEN30
 40
1.0
 41
2.5
 42
1.0
 43
10.0
 44
1.0
 45
0.0
 46
0.0
 47
0.1
 48
0.1
140
3.5
141
0.0
142
0.0
143
0.0393701
144
2.0
145
0.0
146
0.71
147
1.5
 71
     0
 72
     0
 73
     0
 74
     0
 75
     1
 76
     1
 77
     3
 78
     8
170
     0
171
     2
172
     1
173
     1
174
     0
175
     0
176
   256
177
   256
178
    40
  0
DIMSTYLE
  2
GRADE
 70
     0
  3

  4

  5

  6

  7

 40
1.0
 41
2.0
 42
2.0
 43
3.75
 44
2.0
 45
0.0
 46
0.0
 47
0.0
 48
0.0
140
4.0
141
0.0
142
0.0
143
25.399999999999999
144
1.0
145
0.0
146
1.0
147
1.0
 71
     0
 72
     0
 73
     0
 74
     0
 75
     0
 76
     0
 77
     3
 78
     8
170
     0
171
     2
172
     1
173
     1
174
     0
175
     0
176
     0
177
     0
178
     0
  0
DIMSTYLE
  2
ISO1
 70
     0
  3

  4

  5

  6

  7

 40
1.0
 41
10.0
 42
2.5
 43
15.0
 44
5.0
 45
0.0
 46
0.0
 47
0.0
 48
0.0
140
10.0
141
10.0
142
0.0
143
0.0394
144
1.0
145
4.0
146
1.0
147
2.5
 71
     0
 72
     0
 73
     1
 74
     0
 75
     0
 76
     0
 77
     1
 78
     8
170
     0
171
     2
172
     1
173
     0
174
     0
175
     0
176
     0
177
     0
178
     0
  0
ENDTAB
  0
ENDSEC
  0
SECTION
  2
BLOCKS
  0
BLOCK
  8
0
  2
$MODEL_SPACE
 70
     0
 10
0.0
 20
0.0
 30
0.0
  3
$MODEL_SPACE
  1

  0
ENDBLK
  5
1C
  8
0
  0
BLOCK
 67
     1
  8
0
  2
$PAPER_SPACE
 70
     0
 10
0.0
 20
0.0
 30
0.0
  3
$PAPER_SPACE
  1

  0
ENDBLK
  5
19
 67
     1
  8
0
  0
BLOCK
  8
0
  2
_OPEN
 70
     0
 10
0.0
 20
0.0
 30
0.0
  3
_OPEN
  1

  0
LINE
  5
595
  8
0
  6
BYBLOCK
 62
     0
 10
-1.0
 20
0.1666666666666666
 30
0.0
 11
0.0
 21
0.0
 31
0.0
  0
LINE
  5
596
  8
0
  6
BYBLOCK
 62
     0
 10
-1.0
 20
-0.1666666666666666
 30
0.0
 11
0.0
 21
0.0
 31
0.0
  0
LINE
  5
597
  8
0
  6
BYBLOCK
 62
     0
 10
0.0
 20
0.0
 30
0.0
 11
-1.0
 21
0.0
 31
0.0
  0
ENDBLK
  5
599
  8
0
  0
BLOCK
  8
0
  2
GENAXEH
 70
     0
 10
0.0
 20
0.0
 30
0.0
  3
GENAXEH
  1

  0
LINE
  5
6E8
  8
0
 10
-1.0
 20
0.0
 30
0.0
 11
1.0
 21
0.0
 31
0.0
  0
ENDBLK
  5
6EA
  8
0
  0
BLOCK
  8
0
  2
_OPEN30
 70
     0
 10
0.0
 20
0.0
 30
0.0
  3
_OPEN30
  1

  0
LINE
  5
E8F
  8
0
  6
BYBLOCK
 62
     0
 10
-1.0
 20
0.26794919
 30
0.0
 11
0.0
 21
0.0
 31
0.0
  0
LINE
  5
E90
  8
0
  6
BYBLOCK
 62
     0
 10
0.0
 20
0.0
 30
0.0
 11
-1.0
 21
-0.26794919
 31
0.0
  0
LINE
  5
E91
  8
0
  6
BYBLOCK
 62
     0
 10
0.0
 20
0.0
 30
0.0
 11
-1.0
 21
0.0
 31
0.0
  0
ENDBLK
  5
E93
  8
0
  0
BLOCK
  8
0
  2
FM00_4
 70
     0
 10
0.0
 20
0.0
 30
0.0
  3
FM00_4
  1

  0
POLYLINE
  5
1352
  8
0
  6
CONTINUOUS
 62
     0
 66
     1
 10
0.0
 20
0.0
 30
0.0
 70
     1
  0
VERTEX
  5
1353
  8
0
  6
CONTINUOUS
 62
     0
 10
-2.0
 20
0.0
 30
0.0
  0
VERTEX
  5
1354
  8
0
  6
CONTINUOUS
 62
     0
 10
-1.5
 20
0.8660254037845334
 30
0.0
  0
VERTEX
  5
1355
  8
0
  6
CONTINUOUS
 62
     0
 10
-2.5
 20
0.8660254037845334
 30
0.0
  0
SEQEND
  5
1356
  8
0
  6
CONTINUOUS
 62
     0
  0
POLYLINE
  5
1357
  8
0
  6
CONTINUOUS
 62
     0
 66
     1
 10
0.0
 20
0.0
 30
0.0
 70
     1
  0
VERTEX
  5
1358
  8
0
  6
CONTINUOUS
 62
     0
 10
0.0
 20
0.0
 30
0.0
  0
VERTEX
  5
1359
  8
0
  6
CONTINUOUS
 62
     0
 10
0.5
 20
0.8660254037845334
 30
0.0
  0
VERTEX
  5
135A
  8
0
  6
CONTINUOUS
 62
     0
 10
-0.5
 20
0.8660254037845334
 30
0.0
  0
SEQEND
  5
135B
  8
0
  6
CONTINUOUS
 62
     0
  0
POLYLINE
  5
135C
  8
0
  6
CONTINUOUS
 62
     0
 66
     1
 10
0.0
 20
0.0
 30
0.0
 70
     1
  0
VERTEX
  5
135D
  8
0
  6
CONTINUOUS
 62
     0
 10
-1.0
 20
0.0
 30
0.0
  0
VERTEX
  5
135E
  8
0
  6
CONTINUOUS
 62
     0
 10
-0.5
 20
0.8660254037845334
 30
0.0
  0
VERTEX
  5
135F
  8
0
  6
CONTINUOUS
 62
     0
 10
-1.5
 20
0.8660254037845334
 30
0.0
  0
SEQEND
  5
1360
  8
0
  6
CONTINUOUS
 62
     0
  0
ENDBLK
  5
1361
  8
0
  0
BLOCK
  8
0
  2
*D5
 70
     1
 10
0.0
 20
0.0
 30
0.0
  3
*D5
  1

  0
LINE
  5
1364
  8
250
  6
CONTINUOUS
 62
     3
 10
148.7500000000004
 20
63.999999999999993
 30
0.0
 11
157.5
 21
63.999999999999993
 31
0.0
  0
LINE
  5
1365
  8
250
  6
CONTINUOUS
 62
     3
 10
148.75
 20
69.0
 30
0.0
 11
157.5
 21
69.0
 31
0.0
  0
LINE
  5
1366
  8
250
  6
CONTINUOUS
 62
     3
 10
157.0
 20
65.114999999999995
 30
0.0
 11
157.0
 21
67.885000000000005
 31
0.0
  0
INSERT
  5
1367
  8
250
  6
CONTINUOUS
 62
     3
  2
_OPEN
 10
157.0
 20
63.999999999999993
 30
0.0
 41
1.1149999999999991
 42
1.1149999999999991
 43
1.1149999999999991
 50
270.0
  0
INSERT
  5
1368
  8
250
  6
CONTINUOUS
 62
     3
  2
_OPEN
 10
157.0
 20
69.0
 30
0.0
 41
1.1149999999999991
 42
1.1149999999999991
 43
1.1149999999999991
 50
90.0
  0
INSERT
  5
1369
  8
240
  2
*U19
 10
0.0
 20
0.0
 30
0.0
  0
POINT
  5
136A
  8
DEFPOINTS
  6
CONTINUOUS
 62
     0
 10
148.50000000000031
 20
63.999999999999993
 30
0.0
  0
POINT
  5
136B
  8
DEFPOINTS
  6
CONTINUOUS
 62
     0
 10
148.49999999999989
 20
69.0
 30
0.0
  0
POINT
  5
136C
  8
DEFPOINTS
  6
CONTINUOUS
 62
     0
 10
157.0
 20
69.0
 30
0.0
  0
ENDBLK
  5
136D
  8
0
  0
BLOCK
  8
0
  2
*D6
 70
     1
 10
0.0
 20
0.0
 30
0.0
  3
*D6
  1

  0
LINE
  5
1370
  8
250
  6
CONTINUOUS
 62
     3
 10
122.3395385062359
 20
62.400000000000013
 30
0.0
 11
122.0
 21
62.400000000000013
 31
0.0
  0
LINE
  5
1371
  8
250
  6
CONTINUOUS
 62
     3
 10
122.7457094602368
 20
70.599999999999966
 30
0.0
 11
123.0
 21
70.599999999999966
 31
0.0
  0
LINE
  5
1372
  8
250
  6
CONTINUOUS
 62
     3
 10
122.5
 20
63.515000000000022
 30
0.0
 11
122.5
 21
69.484999999999971
 31
0.0
  0
LINE
  5
1373
  8
250
  6
CONTINUOUS
 62
     3
 10
122.5
 20
70.599999999999966
 30
0.0
 11
122.5
 21
81.709285714285656
 31
0.0
  0
INSERT
  5
1374
  8
250
  6
CONTINUOUS
 62
     3
  2
_OPEN
 10
122.5
 20
62.400000000000013
 30
0.0
 41
1.1149999999999991
 42
1.1149999999999991
 43
1.1149999999999991
 50
270.0
  0
INSERT
  5
1375
  8
250
  6
CONTINUOUS
 62
     3
  2
_OPEN
 10
122.5
 20
70.599999999999966
 30
0.0
 41
1.1149999999999991
 42
1.1149999999999991
 43
1.1149999999999991
 50
90.0
  0
INSERT
  5
1376
  8
240
  2
*U20
 10
0.0
 20
0.0
 30
0.0
  0
POINT
  5
1377
  8
DEFPOINTS
  6
CONTINUOUS
 62
     0
 10
122.5895385062359
 20
62.400000000000013
 30
0.0
  0
POINT
  5
1378
  8
DEFPOINTS
  6
CONTINUOUS
 62
     0
 10
122.4957094602368
 20
70.599999999999966
 30
0.0
  0
POINT
  5
1379
  8
DEFPOINTS
  6
CONTINUOUS
 62
     0
 10
122.5
 20
70.599999999999966
 30
0.0
  0
ENDBLK
  5
137A
  8
0
  0
BLOCK
  8
0
  2
*D8
 70
     1
 10
0.0
 20
0.0
 30
0.0
  3
*D8
  1

  0
LINE
  5
14D5
  8
250
  6
CONTINUOUS
 10
14.250000000000419
 20
-2.5
 30
0.0
 11
23.000000000000028
 21
-2.5000000000000022
 31
0.0
  0
LINE
  5
14D6
  8
250
  6
CONTINUOUS
 10
14.25000000000003
 20
2.5
 30
0.0
 11
23.000000000000028
 21
2.4999999999999969
 31
0.0
  0
LINE
  5
14D7
  8
250
  6
CONTINUOUS
 10
22.500000000000028
 20
-1.385000000000002
 30
0.0
 11
22.500000000000028
 21
1.3849999999999969
 31
0.0
  0
INSERT
  5
14D8
  8
250
  6
CONTINUOUS
  2
_OPEN
 10
22.500000000000028
 20
-2.5000000000000022
 30
0.0
 41
1.1149999999999991
 42
1.1149999999999991
 43
1.1149999999999991
 50
270.0
  0
INSERT
  5
14D9
  8
250
  6
CONTINUOUS
  2
_OPEN
 10
22.500000000000028
 20
2.4999999999999969
 30
0.0
 41
1.1149999999999991
 42
1.1149999999999991
 43
1.1149999999999991
 50
90.0
  0
INSERT
  5
14DA
  8
240
  2
*U46
 10
0.0
 20
0.0
 30
0.0
  0
POINT
  5
14DB
  8
DEFPOINTS
  6
CONTINUOUS
 62
     0
 10
14.000000000000419
 20
-2.5
 30
0.0
  0
POINT
  5
14DC
  8
DEFPOINTS
  6
CONTINUOUS
 62
     0
 10
14.00000000000003
 20
2.5
 30
0.0
  0
POINT
  5
14DD
  8
DEFPOINTS
  6
CONTINUOUS
 62
     0
 10
22.500000000000028
 20
2.4999999999999969
 30
0.0
  0
ENDBLK
  5
14E9
  8
0
  0
BLOCK
  8
0
  2
*D9
 70
     1
 10
0.0
 20
0.0
 30
0.0
  3
*D9
  1

  0
LINE
  5
14DE
  8
250
  6
CONTINUOUS
 10
-12.160461493763989
 20
-4.0999999999999801
 30
0.0
 11
-12.49999999999994
 21
-4.0999999999999801
 31
0.0
  0
LINE
  5
14DF
  8
250
  6
CONTINUOUS
 10
-11.754290539763071
 20
4.099999999999965
 30
0.0
 11
-11.49999999999994
 21
4.099999999999965
 31
0.0
  0
LINE
  5
14E0
  8
250
  6
CONTINUOUS
 10
-11.99999999999994
 20
-2.984999999999979
 30
0.0
 11
-11.99999999999994
 21
2.9849999999999648
 31
0.0
  0
LINE
  5
14E1
  8
250
  6
CONTINUOUS
 10
-11.99999999999994
 20
4.099999999999965
 30
0.0
 11
-11.99999999999994
 21
14.97119047619044
 31
0.0
  0
INSERT
  5
14E2
  8
250
  6
CONTINUOUS
  2
_OPEN
 10
-11.99999999999994
 20
-4.0999999999999801
 30
0.0
 41
1.1149999999999991
 42
1.1149999999999991
 43
1.1149999999999991
 50
270.0
  0
INSERT
  5
14E3
  8
250
  6
CONTINUOUS
  2
_OPEN
 10
-11.99999999999994
 20
4.099999999999965
 30
0.0
 41
1.1149999999999991
 42
1.1149999999999991
 43
1.1149999999999991
 50
90.0
  0
INSERT
  5
14E4
  8
240
  2
*U47
 10
0.0
 20
0.0
 30
0.0
  0
POINT
  5
14E5
  8
DEFPOINTS
  6
CONTINUOUS
 62
     0
 10
-11.910461493763989
 20
-4.0999999999999801
 30
0.0
  0
POINT
  5
14E6
  8
DEFPOINTS
  6
CONTINUOUS
 62
     0
 10
-12.004290539763071
 20
4.099999999999965
 30
0.0
  0
POINT
  5
14E7
  8
DEFPOINTS
  6
CONTINUOUS
 62
     0
 10
-11.99999999999994
 20
4.099999999999965
 30
0.0
  0
ENDBLK
  5
14EB
  8
0
  0
BLOCK
  8
0
  2
*D10
 70
     1
 10
0.0
 20
0.0
 30
0.0
  3
*D10
  1

  0
LINE
  5
1537
  8
AM_5
 10
-98.999999999999943
 20
7.5
 30
0.0
 11
-98.999999999999943
 21
29.0
 31
0.0
  0
LINE
  5
1538
  8
AM_5
 10
9.0000000000000568
 20
7.1500000000000048
 30
0.0
 11
9.0000000000000586
 21
29.0
 31
0.0
  0
LINE
  5
1539
  8
AM_5
 10
-96.769999999999939
 20
28.0
 30
0.0
 11
6.7700000000000582
 21
28.0
 31
0.0
  0
INSERT
  5
153A
  8
AM_5
  2
_OPEN
 10
-98.999999999999943
 20
28.0
 30
0.0
 41
2.2299999999999991
 42
2.2299999999999991
 43
2.2299999999999991
 50
180.0
  0
INSERT
  5
153B
  8
AM_5
  2
_OPEN
 10
9.0000000000000586
 20
28.0
 30
0.0
 41
2.2299999999999991
 42
2.2299999999999991
 43
2.2299999999999991
  0
INSERT
  5
153C
  8
240
  2
*U48
 10
0.0
 20
0.0
 30
0.0
  0
POINT
  5
153D
  8
DEFPOINTS
 62
     0
 10
-98.999999999999943
 20
7.0
 30
0.0
  0
POINT
  5
153E
  8
DEFPOINTS
 62
     0
 10
9.0000000000000568
 20
6.6500000000000048
 30
0.0
  0
POINT
  5
153F
  8
DEFPOINTS
 62
     0
 10
9.0000000000000586
 20
28.0
 30
0.0
  0
ENDBLK
  5
1544
  8
0
  0
BLOCK
  8
0
  2
*D11
 70
     1
 10
0.0
 20
0.0
 30
0.0
  3
*D11
  1

  0
LINE
  5
156D
  8
AM_5
 10
9.0000000000000568
 20
7.1500000000000048
 30
0.0
 11
9.0000000000000586
 21
22.0
 31
0.0
  0
LINE
  5
156E
  8
AM_5
 10
0.0000000000000532
 20
7.1500000000002268
 30
0.0
 11
0.0000000000000541
 21
22.0
 31
0.0
  0
LINE
  5
156F
  8
AM_5
 10
6.7700000000000564
 20
21.0
 30
0.0
 11
2.2300000000000542
 21
21.0
 31
0.0
  0
INSERT
  5
1570
  8
AM_5
  2
_OPEN
 10
9.0000000000000568
 20
21.0
 30
0.0
 41
2.2299999999999991
 42
2.2299999999999991
 43
2.2299999999999991
  0
INSERT
  5
1571
  8
AM_5
  2
_OPEN
 10
0.000000000000054
 20
21.0
 30
0.0
 41
2.2299999999999991
 42
2.2299999999999991
 43
2.2299999999999991
 50
180.0
  0
INSERT
  5
1572
  8
240
  2
*U49
 10
0.0
 20
0.0
 30
0.0
  0
POINT
  5
1573
  8
DEFPOINTS
 62
     0
 10
9.0000000000000568
 20
6.6500000000000048
 30
0.0
  0
POINT
  5
1574
  8
DEFPOINTS
 62
     0
 10
0.0000000000000531
 20
6.6500000000002268
 30
0.0
  0
POINT
  5
1575
  8
DEFPOINTS
 62
     0
 10
0.000000000000054
 20
21.0
 30
0.0
  0
ENDBLK
  5
156C
  8
0
  0
BLOCK
  8
0
  2
*D12
 70
     1
 10
0.0
 20
0.0
 30
0.0
  3
*D12
  1

  0
LINE
  5
1599
  8
AM_5
 10
-98.499999999999943
 20
8.0
 30
0.0
 11
-110.9999999999999
 21
8.0000000000000036
 31
0.0
  0
LINE
  5
159A
  8
AM_5
 10
-98.499999999999943
 20
-7.9999999999999991
 30
0.0
 11
-110.9999999999999
 21
-7.9999999999999956
 31
0.0
  0
LINE
  5
159B
  8
AM_5
 10
-109.9999999999999
 20
5.770000000000004
 30
0.0
 11
-109.9999999999999
 21
-5.769999999999996
 31
0.0
  0
INSERT
  5
159C
  8
AM_5
  2
_OPEN
 10
-109.9999999999999
 20
8.0000000000000036
 30
0.0
 41
2.2299999999999991
 42
2.2299999999999991
 43
2.2299999999999991
 50
90.0
  0
INSERT
  5
159D
  8
AM_5
  2
_OPEN
 10
-109.9999999999999
 20
-7.9999999999999973
 30
0.0
 41
2.2299999999999991
 42
2.2299999999999991
 43
2.2299999999999991
 50
270.0
  0
INSERT
  5
159E
  8
240
  2
*U50
 10
0.0
 20
0.0
 30
0.0
  0
POINT
  5
159F
  8
DEFPOINTS
 62
     0
 10
-97.999999999999943
 20
8.0
 30
0.0
  0
POINT
  5
15A0
  8
DEFPOINTS
 62
     0
 10
-97.999999999999929
 20
-8.0
 30
0.0
  0
POINT
  5
15A1
  8
DEFPOINTS
 62
     0
 10
-109.9999999999999
 20
-7.9999999999999973
 30
0.0
  0
ENDBLK
  5
15A6
  8
0
  0
BLOCK
  8
0
  2
*D13
 70
     1
 10
0.0
 20
0.0
 30
0.0
  3
*D13
  1

  0
LINE
  5
15C1
  8
AM_5
 10
5.3000000000000114
 20
6.800000000000173
 30
0.0
 11
15.50526879546646
 21
6.8000000000001704
 31
0.0
  0
LINE
  5
15C2
  8
AM_5
 10
14.50526879546646
 20
4.5700000000001699
 30
0.0
 11
14.50526879546646
 21
-6.533333333333335
 31
0.0
  0
INSERT
  5
15C3
  8
AM_5
  2
_OPEN
 10
14.50526879546646
 20
6.8000000000001704
 30
0.0
 41
2.2299999999999991
 42
2.2299999999999991
 43
2.2299999999999991
 50
90.0
  0
INSERT
  5
15C4
  8
240
  2
*U51
 10
0.0
 20
0.0
 30
0.0
  0
POINT
  5
15C5
  8
DEFPOINTS
 62
     0
 10
4.8000000000000114
 20
-6.800000000000173
 30
0.0
  0
POINT
  5
15C6
  8
DEFPOINTS
 62
     0
 10
4.8000000000000114
 20
6.800000000000173
 30
0.0
  0
POINT
  5
15C7
  8
DEFPOINTS
 62
     0
 10
14.50526879546646
 20
6.8000000000001704
 30
0.0
  0
ENDBLK
  5
15F1
  8
0
  0
BLOCK
  8
0
  2
*D14
 70
     1
 10
0.0
 20
0.0
 30
0.0
  3
*D14
  1

  0
LINE
  5
15D3
  8
AM_5
 10
5.4322875655534322
 20
6.9500000000000046
 30
0.0
 11
22.50526879546646
 21
6.9500000000000002
 31
0.0
  0
LINE
  5
15D4
  8
AM_5
 10
21.50526879546646
 20
4.7200000000000006
 30
0.0
 11
21.50526879546646
 21
-6.4666666666666703
 31
0.0
  0
INSERT
  5
15D5
  8
AM_5
  2
_OPEN
 10
21.50526879546646
 20
6.9500000000000011
 30
0.0
 41
2.2299999999999991
 42
2.2299999999999991
 43
2.2299999999999991
 50
90.0
  0
INSERT
  5
15D6
  8
240
  2
*U52
 10
0.0
 20
0.0
 30
0.0
  0
POINT
  5
15D7
  8
DEFPOINTS
 62
     0
 10
4.9322875655534322
 20
-6.9500000000000046
 30
0.0
  0
POINT
  5
15D8
  8
DEFPOINTS
 62
     0
 10
4.9322875655534322
 20
6.9500000000000046
 30
0.0
  0
POINT
  5
15D9
  8
DEFPOINTS
 62
     0
 10
21.50526879546646
 20
6.9500000000000011
 30
0.0
  0
ENDBLK
  5
15F3
  8
0
  0
BLOCK
  8
0
  2
*D15
 70
     1
 10
0.0
 20
0.0
 30
0.0
  3
*D15
  1

  0
LINE
  5
1792
  8
AM_5
 10
5.3000000000000114
 20
7.0000000000001741
 30
0.0
 11
22.0
 21
7.0000000000001679
 31
0.0
  0
LINE
  5
1793
  8
AM_5
 10
21.0
 20
4.7700000000001692
 30
0.0
 11
21.0
 21
-4.6000000000000041
 31
0.0
  0
INSERT
  5
1794
  8
AM_5
  2
_OPEN
 10
21.0
 20
7.0000000000001688
 30
0.0
 41
2.2299999999999991
 42
2.2299999999999991
 43
2.2299999999999991
 50
90.0
  0
INSERT
  5
1795
  8
240
  2
*U54
 10
0.0
 20
0.0
 30
0.0
  0
POINT
  5
1796
  8
DEFPOINTS
 62
     0
 10
4.8000000000000114
 20
-7.0000000000001741
 30
0.0
  0
POINT
  5
1797
  8
DEFPOINTS
 62
     0
 10
4.8000000000000114
 20
7.0000000000001741
 30
0.0
  0
POINT
  5
1798
  8
DEFPOINTS
 62
     0
 10
21.0
 20
7.0000000000001688
 30
0.0
  0
ENDBLK
  5
15F5
  8
0
  0
BLOCK
  8
0
  2
*D16
 70
     1
 10
0.0
 20
0.0
 30
0.0
  3
*D16
  1

  0
LINE
  5
1640
  8
AM_5
 10
-20.000000000000011
 20
4.5999999999999668
 30
0.0
 11
-20.000000000000011
 21
22.0
 31
0.0
  0
LINE
  5
1641
  8
AM_5
 10
-0.0000000000000113
 20
7.300000000000173
 30
0.0
 11
-0.0000000000000104
 21
22.0
 31
0.0
  0
LINE
  5
1642
  8
AM_5
 10
-17.77000000000001
 20
21.0
 30
0.0
 11
-2.2300000000000102
 21
21.0
 31
0.0
  0
INSERT
  5
1643
  8
AM_5
  2
_OPEN
 10
-20.000000000000011
 20
21.0
 30
0.0
 41
2.2299999999999991
 42
2.2299999999999991
 43
2.2299999999999991
 50
180.0
  0
INSERT
  5
1644
  8
AM_5
  2
_OPEN
 10
-0.0000000000000105
 20
21.0
 30
0.0
 41
2.2299999999999991
 42
2.2299999999999991
 43
2.2299999999999991
  0
INSERT
  5
1645
  8
240
  2
*U53
 10
0.0
 20
0.0
 30
0.0
  0
POINT
  5
1646
  8
DEFPOINTS
 62
     0
 10
-20.000000000000011
 20
4.0999999999999668
 30
0.0
  0
POINT
  5
1647
  8
DEFPOINTS
 62
     0
 10
-0.0000000000000114
 20
6.800000000000173
 30
0.0
  0
POINT
  5
1648
  8
DEFPOINTS
 62
     0
 10
-0.0000000000000105
 20
21.0
 30
0.0
  0
ENDBLK
  5
163F
  8
0
  0
BLOCK
  8
0
  2
A$C25D9604C
 70
     0
 10
0.0
 20
0.0
 30
0.0
  3
A$C25D9604C
  1

  0
LINE
  5
17DC
  8
245
 10
-100.9999999999999
 20
0.0
 30
0.0
 11
10.948750292467709
 21
0.0
 31
0.0
  0
LINE
  5
17DD
  8
243
 10
-97.999999999999943
 20
-3.9999999999999432
 30
0.0
 11
-30.999999999999091
 21
-3.9999999999999432
 31
0.0
  0
LINE
  5
17DE
  8
243
 10
-97.999999999999943
 20
4.0
 30
0.0
 11
-30.999999999999801
 21
4.0
 31
0.0
  0
LINE
  5
17DF
  8
240
 10
-97.999999999999943
 20
8.0
 30
0.0
 11
-29.26794919243093
 21
8.0000000000000995
 31
0.0
  0
LINE
  5
17E0
  8
240
 10
-97.999999999999943
 20
-8.0
 30
0.0
 11
-29.267949192430709
 21
-7.9999999999999432
 31
0.0
  0
ARC
  5
17E1
  8
240
 10
-97.999999999999943
 20
-7.0
 30
0.0
 40
1.0
 50
180.0
 51
270.0
  0
LINE
  5
17E2
  8
240
 10
-98.999999999999943
 20
0.0
 30
0.0
 11
-98.999999999999943
 21
7.0
 31
0.0
  0
LINE
  5
17E3
  8
240
 10
-98.999999999999943
 20
0.0
 30
0.0
 11
-98.999999999999943
 21
-7.0
 31
0.0
  0
ARC
  5
17E4
  8
243
 10
-97.999999999999943
 20
-4.9999999999999432
 30
0.0
 40
1.0
 50
90.0
 51
180.0
  0
ARC
  5
17E5
  8
243
 10
-97.999999999999943
 20
5.0
 30
0.0
 40
1.0
 50
180.0
 51
270.0
  0
ARC
  5
17E6
  8
240
 10
-97.999999999999943
 20
7.0
 30
0.0
 40
1.0
 50
90.0
 51
180.0
  0
LINE
  5
17E7
  8
240
 10
-21.173205080756521
 20
4.099999999999965
 30
0.0
 11
-0.2499999999999432
 21
4.0999999999999943
 31
0.0
  0
LINE
  5
17E8
  8
240
 10
8.6999999999999886
 20
-1.2499999999999709
 30
0.0
 11
-21.000000000000039
 21
-1.2499999999999709
 31
0.0
  0
LINE
  5
17E9
  8
241
 10
-3.8289711611730581
 20
1.425001180919508
 30
0.0
 11
-21.000000000000231
 21
1.4250011809194509
 31
0.0
  0
LINE
  5
17EA
  8
241
 10
-33.999999999999837
 20
3.8729833462074899
 30
0.0
 11
-28.99999999999995
 21
3.8729833462074899
 31
0.0
  0
LINE
  5
17EB
  8
241
 10
-33.999999999999837
 20
-3.8729833462074619
 30
0.0
 11
-28.99999999999995
 21
-3.8729833462074619
 31
0.0
  0
LINE
  5
17EC
  8
242
 10
-33.999999999999837
 20
3.8729833462074899
 30
0.0
 11
-28.99999999999995
 21
-3.8729833462074619
 31
0.0
  0
LINE
  5
17ED
  8
242
 10
-33.999999999999837
 20
-3.8729833462074619
 30
0.0
 11
-28.99999999999973
 21
3.8729833462078309
 31
0.0
  0
LINE
  5
17EE
  8
241
 10
-33.999999999999837
 20
-3.8729833462074619
 30
0.0
 11
-33.999999999999837
 21
3.8729833462074899
 31
0.0
  0
POLYLINE
  8
241
  5
19AB
  66
     1
 10
0.000000
 20
0.000000
 30
0.000000
  70
     8
  0
VERTEX
  8
241
  5
19AC
 10
-29.0000
 20
3.87298
 30
0.000000
  70
    32
  0
VERTEX
  8
241
  5
19AD
 10
-28.9673
 20
3.82427
 30
0.000000
  70
    32
  0
VERTEX
  8
241
  5
19AE
 10
-28.9347
 20
3.77555
 30
0.000000
  70
    32
  0
VERTEX
  8
241
  5
19AF
 10
-28.9020
 20
3.72683
 30
0.000000
  70
    32
  0
VERTEX
  8
241
  5
19B0
 10
-28.8694
 20
3.67812
 30
0.000000
  70
    32
  0
VERTEX
  8
241
  5
19B1
 10
-28.8368
 20
3.62940
 30
0.000000
  70
    32
  0
VERTEX
  8
241
  5
19B2
 10
-28.8043
 20
3.58068
 30
0.000000
  70
    32
  0
VERTEX
  8
241
  5
19B3
 10
-28.7718
 20
3.53197
 30
0.000000
  70
    32
  0
VERTEX
  8
241
  5
19B4
 10
-28.7394
 20
3.48325
 30
0.000000
  70
    32
  0
VERTEX
  8
241
  5
19B5
 10
-28.7071
 20
3.43453
 30
0.000000
  70
    32
  0
VERTEX
  8
241
  5
19B6
 10
-28.6749
 20
3.38582
 30
0.000000
  70
    32
  0
VERTEX
  8
241
  5
19B7
 10
-28.6428
 20
3.33710
 30
0.000000
  70
    32
  0
VERTEX
  8
241
  5
19B8
 10
-28.6108
 20
3.28838
 30
0.000000
  70
    32
  0
VERTEX
  8
241
  5
19B9
 10
-28.5789
 20
3.23967
 30
0.000000
  70
    32
  0
VERTEX
  8
241
  5
19BA
 10
-28.5472
 20
3.19095
 30
0.000000
  70
    32
  0
VERTEX
  8
241
  5
19BB
 10
-28.5156
 20
3.14223
 30
0.000000
  70
    32
  0
VERTEX
  8
241
  5
19BC
 10
-28.4842
 20
3.09351
 30
0.000000
  70
    32
  0
VERTEX
  8
241
  5
19BD
 10
-28.4529
 20
3.04480
 30
0.000000
  70
    32
  0
VERTEX
  8
241
  5
19BE
 10
-28.4218
 20
2.99608
 30
0.000000
  70
    32
  0
VERTEX
  8
241
  5
19BF
 10
-28.3909
 20
2.94736
 30
0.000000
  70
    32
  0
VERTEX
  8
241
  5
19C0
 10
-28.3602
 20
2.89865
 30
0.000000
  70
    32
  0
VERTEX
  8
241
  5
19C1
 10
-28.3297
 20
2.84993
 30
0.000000
  70
    32
  0
VERTEX
  8
241
  5
19C2
 10
-28.2994
 20
2.80121
 30
0.000000
  70
    32
  0
VERTEX
  8
241
  5
19C3
 10
-28.2693
 20
2.75250
 30
0.000000
  70
    32
  0
VERTEX
  8
241
  5
19C4
 10
-28.2395
 20
2.70378
 30
0.000000
  70
    32
  0
VERTEX
  8
241
  5
19C5
 10
-28.2099
 20
2.65506
 30
0.000000
  70
    32
  0
VERTEX
  8
241
  5
19C6
 10
-28.1806
 20
2.60635
 30
0.000000
  70
    32
  0
VERTEX
  8
241
  5
19C7
 10
-28.1516
 20
2.55763
 30
0.000000
  70
    32
  0
VERTEX
  8
241
  5
19C8
 10
-28.1228
 20
2.50891
 30
0.000000
  70
    32
  0
VERTEX
  8
241
  5
19C9
 10
-28.0943
 20
2.46020
 30
0.000000
  70
    32
  0
VERTEX
  8
241
  5
19CA
 10
-28.0661
 20
2.41148
 30
0.000000
  70
    32
  0
VERTEX
  8
241
  5
19CB
 10
-28.0383
 20
2.36276
 30
0.000000
  70
    32
  0
VERTEX
  8
241
  5
19CC
 10
-28.0107
 20
2.31405
 30
0.000000
  70
    32
  0
VERTEX
  8
241
  5
19CD
 10
-27.9835
 20
2.26533
 30
0.000000
  70
    32
  0
VERTEX
  8
241
  5
19CE
 10
-27.9566
 20
2.21661
 30
0.000000
  70
    32
  0
VERTEX
  8
241
  5
19CF
 10
-27.9301
 20
2.16790
 30
0.000000
  70
    32
  0
VERTEX
  8
241
  5
19D0
 10
-27.9039
 20
2.11918
 30
0.000000
  70
    32
  0
VERTEX
  8
241
  5
19D1
 10
-27.8781
 20
2.07046
 30
0.000000
  70
    32
  0
VERTEX
  8
241
  5
19D2
 10
-27.8527
 20
2.02175
 30
0.000000
  70
    32
  0
VERTEX
  8
241
  5
19D3
 10
-27.8277
 20
1.97303
 30
0.000000
  70
    32
  0
VERTEX
  8
241
  5
19D4
 10
-27.8031
 20
1.92431
 30
0.000000
  70
    32
  0
VERTEX
  8
241
  5
19D5
 10
-27.7789
 20
1.87560
 30
0.000000
  70
    32
  0
VERTEX
  8
241
  5
19D6
 10
-27.7551
 20
1.82688
 30
0.000000
  70
    32
  0
VERTEX
  8
241
  5
19D7
 10
-27.7318
 20
1.77816
 30
0.000000
  70
    32
  0
VERTEX
  8
241
  5
19D8
 10
-27.7089
 20
1.72945
 30
0.000000
  70
    32
  0
VERTEX
  8
241
  5
19D9
 10
-27.6865
 20
1.68073
 30
0.000000
  70
    32
  0
VERTEX
  8
241
  5
19DA
 10
-27.6645
 20
1.63201
 30
0.000000
  70
    32
  0
VERTEX
  8
241
  5
19DB
 10
-27.6430
 20
1.58330
 30
0.000000
  70
    32
  0
VERTEX
  8
241
  5
19DC
 10
-27.6220
 20
1.53458
 30
0.000000
  70
    32
  0
VERTEX
  8
241
  5
19DD
 10
-27.6014
 20
1.48586
 30
0.000000
  70
    32
  0
VERTEX
  8
241
  5
19DE
 10
-27.5814
 20
1.43714
 30
0.000000
  70
    32
  0
VERTEX
  8
241
  5
19DF
 10
-27.5619
 20
1.38843
 30
0.000000
  70
    32
  0
VERTEX
  8
241
  5
19E0
 10
-27.5430
 20
1.33971
 30
0.000000
  70
    32
  0
VERTEX
  8
241
  5
19E1
 10
-27.5245
 20
1.29099
 30
0.000000
  70
    32
  0
VERTEX
  8
241
  5
19E2
 10
-27.5067
 20
1.24228
 30
0.000000
  70
    32
  0
VERTEX
  8
241
  5
19E3
 10
-27.4893
 20
1.19356
 30
0.000000
  70
    32
  0
VERTEX
  8
241
  5
19E4
 10
-27.4726
 20
1.14484
 30
0.000000
  70
    32
  0
VERTEX
  8
241
  5
19E5
 10
-27.4564
 20
1.09613
 30
0.000000
  70
    32
  0
VERTEX
  8
241
  5
19E6
 10
-27.4408
 20
1.04741
 30
0.000000
  70
    32
  0
VERTEX
  8
241
  5
19E7
 10
-27.4259
 20
0.998694
 30
0.000000
  70
    32
  0
VERTEX
  8
241
  5
19E8
 10
-27.4115
 20
0.949977
 30
0.000000
  70
    32
  0
VERTEX
  8
241
  5
19E9
 10
-27.3977
 20
0.901260
 30
0.000000
  70
    32
  0
VERTEX
  8
241
  5
19EA
 10
-27.3846
 20
0.852544
 30
0.000000
  70
    32
  0
VERTEX
  8
241
  5
19EB
 10
-27.3721
 20
0.803827
 30
0.000000
  70
    32
  0
VERTEX
  8
241
  5
19EC
 10
-27.3603
 20
0.755110
 30
0.000000
  70
    32
  0
VERTEX
  8
241
  5
19ED
 10
-27.3491
 20
0.706393
 30
0.000000
  70
    32
  0
VERTEX
  8
241
  5
19EE
 10
-27.3386
 20
0.657676
 30
0.000000
  70
    32
  0
VERTEX
  8
241
  5
19EF
 10
-27.3288
 20
0.608960
 30
0.000000
  70
    32
  0
VERTEX
  8
241
  5
19F0
 10
-27.3197
 20
0.560243
 30
0.000000
  70
    32
  0
VERTEX
  8
241
  5
19F1
 10
-27.3113
 20
0.511526
 30
0.000000
  70
    32
  0
VERTEX
  8
241
  5
19F2
 10
-27.3036
 20
0.462809
 30
0.000000
  70
    32
  0
VERTEX
  8
241
  5
19F3
 10
-27.2966
 20
0.414093
 30
0.000000
  70
    32
  0
VERTEX
  8
241
  5
19F4
 10
-27.2903
 20
0.365376
 30
0.000000
  70
    32
  0
VERTEX
  8
241
  5
19F5
 10
-27.2848
 20
0.316659
 30
0.000000
  70
    32
  0
VERTEX
  8
241
  5
19F6
 10
-27.2801
 20
0.267942
 30
0.000000
  70
    32
  0
VERTEX
  8
241
  5
19F7
 10
-27.2761
 20
0.219225
 30
0.000000
  70
    32
  0
VERTEX
  8
241
  5
19F8
 10
-27.2729
 20
0.170509
 30
0.000000
  70
    32
  0
VERTEX
  8
241
  5
19F9
 10
-27.2705
 20
0.121792
 30
0.000000
  70
    32
  0
VERTEX
  8
241
  5
19FA
 10
-27.2689
 20
0.0730752
 30
0.000000
  70
    32
  0
VERTEX
  8
241
  5
19FB
 10
-27.2681
 20
0.0243584
 30
0.000000
  70
    32
  0
VERTEX
  8
241
  5
19FC
 10
-27.2681
 20
-0.0243584
 30
0.000000
  70
    32
  0
VERTEX
  8
241
  5
19FD
 10
-27.2689
 20
-0.0730752
 30
0.000000
  70
    32
  0
VERTEX
  8
241
  5
19FE
 10
-27.2705
 20
-0.121792
 30
0.000000
  70
    32
  0
VERTEX
  8
241
  5
19FF
 10
-27.2729
 20
-0.170509
 30
0.000000
  70
    32
  0
VERTEX
  8
241
  5
1A00
 10
-27.2761
 20
-0.219225
 30
0.000000
  70
    32
  0
VERTEX
  8
241
  5
1A01
 10
-27.2801
 20
-0.267942
 30
0.000000
  70
    32
  0
VERTEX
  8
241
  5
1A02
 10
-27.2848
 20
-0.316659
 30
0.000000
  70
    32
  0
VERTEX
  8
241
  5
1A03
 10
-27.2903
 20
-0.365376
 30
0.000000
  70
    32
  0
VERTEX
  8
241
  5
1A04
 10
-27.2966
 20
-0.414093
 30
0.000000
  70
    32
  0
VERTEX
  8
241
  5
1A05
 10
-27.3036
 20
-0.462809
 30
0.000000
  70
    32
  0
VERTEX
  8
241
  5
1A06
 10
-27.3113
 20
-0.511526
 30
0.000000
  70
    32
  0
VERTEX
  8
241
  5
1A07
 10
-27.3197
 20
-0.560243
 30
0.000000
  70
    32
  0
VERTEX
  8
241
  5
1A08
 10
-27.3288
 20
-0.608960
 30
0.000000
  70
    32
  0
VERTEX
  8
241
  5
1A09
 10
-27.3386
 20
-0.657676
 30
0.000000
  70
    32
  0
VERTEX
  8
241
  5
1A0A
 10
-27.3491
 20
-0.706393
 30
0.000000
  70
    32
  0
VERTEX
  8
241
  5
1A0B
 10
-27.3603
 20
-0.755110
 30
0.000000
  70
    32
  0
VERTEX
  8
241
  5
1A0C
 10
-27.3721
 20
-0.803827
 30
0.000000
  70
    32
  0
VERTEX
  8
241
  5
1A0D
 10
-27.3846
 20
-0.852544
 30
0.000000
  70
    32
  0
VERTEX
  8
241
  5
1A0E
 10
-27.3977
 20
-0.901260
 30
0.000000
  70
    32
  0
VERTEX
  8
241
  5
1A0F
 10
-27.4115
 20
-0.949977
 30
0.000000
  70
    32
  0
VERTEX
  8
241
  5
1A10
 10
-27.4259
 20
-0.998694
 30
0.000000
  70
    32
  0
VERTEX
  8
241
  5
1A11
 10
-27.4408
 20
-1.04741
 30
0.000000
  70
    32
  0
VERTEX
  8
241
  5
1A12
 10
-27.4564
 20
-1.09613
 30
0.000000
  70
    32
  0
VERTEX
  8
241
  5
1A13
 10
-27.4726
 20
-1.14484
 30
0.000000
  70
    32
  0
VERTEX
  8
241
  5
1A14
 10
-27.4893
 20
-1.19356
 30
0.000000
  70
    32
  0
VERTEX
  8
241
  5
1A15
 10
-27.5067
 20
-1.24228
 30
0.000000
  70
    32
  0
VERTEX
  8
241
  5
1A16
 10
-27.5245
 20
-1.29099
 30
0.000000
  70
    32
  0
VERTEX
  8
241
  5
1A17
 10
-27.5430
 20
-1.33971
 30
0.000000
  70
    32
  0
VERTEX
  8
241
  5
1A18
 10
-27.5619
 20
-1.38843
 30
0.000000
  70
    32
  0
VERTEX
  8
241
  5
1A19
 10
-27.5814
 20
-1.43714
 30
0.000000
  70
    32
  0
VERTEX
  8
241
  5
1A1A
 10
-27.6014
 20
-1.48586
 30
0.000000
  70
    32
  0
VERTEX
  8
241
  5
1A1B
 10
-27.6220
 20
-1.53458
 30
0.000000
  70
    32
  0
VERTEX
  8
241
  5
1A1C
 10
-27.6430
 20
-1.58330
 30
0.000000
  70
    32
  0
VERTEX
  8
241
  5
1A1D
 10
-27.6645
 20
-1.63201
 30
0.000000
  70
    32
  0
VERTEX
  8
241
  5
1A1E
 10
-27.6865
 20
-1.68073
 30
0.000000
  70
    32
  0
VERTEX
  8
241
  5
1A1F
 10
-27.7089
 20
-1.72945
 30
0.000000
  70
    32
  0
VERTEX
  8
241
  5
1A20
 10
-27.7318
 20
-1.77816
 30
0.000000
  70
    32
  0
VERTEX
  8
241
  5
1A21
 10
-27.7551
 20
-1.82688
 30
0.000000
  70
    32
  0
VERTEX
  8
241
  5
1A22
 10
-27.7789
 20
-1.87560
 30
0.000000
  70
    32
  0
VERTEX
  8
241
  5
1A23
 10
-27.8031
 20
-1.92431
 30
0.000000
  70
    32
  0
VERTEX
  8
241
  5
1A24
 10
-27.8277
 20
-1.97303
 30
0.000000
  70
    32
  0
VERTEX
  8
241
  5
1A25
 10
-27.8527
 20
-2.02175
 30
0.000000
  70
    32
  0
VERTEX
  8
241
  5
1A26
 10
-27.8781
 20
-2.07046
 30
0.000000
  70
    32
  0
VERTEX
  8
241
  5
1A27
 10
-27.9039
 20
-2.11918
 30
0.000000
  70
    32
  0
VERTEX
  8
241
  5
1A28
 10
-27.9301
 20
-2.16790
 30
0.000000
  70
    32
  0
VERTEX
  8
241
  5
1A29
 10
-27.9566
 20
-2.21661
 30
0.000000
  70
    32
  0
VERTEX
  8
241
  5
1A2A
 10
-27.9835
 20
-2.26533
 30
0.000000
  70
    32
  0
VERTEX
  8
241
  5
1A2B
 10
-28.0107
 20
-2.31405
 30
0.000000
  70
    32
  0
VERTEX
  8
241
  5
1A2C
 10
-28.0383
 20
-2.36276
 30
0.000000
  70
    32
  0
VERTEX
  8
241
  5
1A2D
 10
-28.0661
 20
-2.41148
 30
0.000000
  70
    32
  0
VERTEX
  8
241
  5
1A2E
 10
-28.0943
 20
-2.46020
 30
0.000000
  70
    32
  0
VERTEX
  8
241
  5
1A2F
 10
-28.1228
 20
-2.50891
 30
0.000000
  70
    32
  0
VERTEX
  8
241
  5
1A30
 10
-28.1516
 20
-2.55763
 30
0.000000
  70
    32
  0
VERTEX
  8
241
  5
1A31
 10
-28.1806
 20
-2.60635
 30
0.000000
  70
    32
  0
VERTEX
  8
241
  5
1A32
 10
-28.2099
 20
-2.65506
 30
0.000000
  70
    32
  0
VERTEX
  8
241
  5
1A33
 10
-28.2395
 20
-2.70378
 30
0.000000
  70
    32
  0
VERTEX
  8
241
  5
1A34
 10
-28.2693
 20
-2.75250
 30
0.000000
  70
    32
  0
VERTEX
  8
241
  5
1A35
 10
-28.2994
 20
-2.80121
 30
0.000000
  70
    32
  0
VERTEX
  8
241
  5
1A36
 10
-28.3297
 20
-2.84993
 30
0.000000
  70
    32
  0
VERTEX
  8
241
  5
1A37
 10
-28.3602
 20
-2.89865
 30
0.000000
  70
    32
  0
VERTEX
  8
241
  5
1A38
 10
-28.3909
 20
-2.94736
 30
0.000000
  70
    32
  0
VERTEX
  8
241
  5
1A39
 10
-28.4218
 20
-2.99608
 30
0.000000
  70
    32
  0
VERTEX
  8
241
  5
1A3A
 10
-28.4529
 20
-3.04480
 30
0.000000
  70
    32
  0
VERTEX
  8
241
  5
1A3B
 10
-28.4842
 20
-3.09351
 30
0.000000
  70
    32
  0
VERTEX
  8
241
  5
1A3C
 10
-28.5156
 20
-3.14223
 30
0.000000
  70
    32
  0
VERTEX
  8
241
  5
1A3D
 10
-28.5472
 20
-3.19095
 30
0.000000
  70
    32
  0
VERTEX
  8
241
  5
1A3E
 10
-28.5789
 20
-3.23967
 30
0.000000
  70
    32
  0
VERTEX
  8
241
  5
1A3F
 10
-28.6108
 20
-3.28838
 30
0.000000
  70
    32
  0
VERTEX
  8
241
  5
1A40
 10
-28.6428
 20
-3.33710
 30
0.000000
  70
    32
  0
VERTEX
  8
241
  5
1A41
 10
-28.6749
 20
-3.38582
 30
0.000000
  70
    32
  0
VERTEX
  8
241
  5
1A42
 10
-28.7071
 20
-3.43453
 30
0.000000
  70
    32
  0
VERTEX
  8
241
  5
1A43
 10
-28.7394
 20
-3.48325
 30
0.000000
  70
    32
  0
VERTEX
  8
241
  5
1A44
 10
-28.7718
 20
-3.53197
 30
0.000000
  70
    32
  0
VERTEX
  8
241
  5
1A45
 10
-28.8043
 20
-3.58068
 30
0.000000
  70
    32
  0
VERTEX
  8
241
  5
1A46
 10
-28.8368
 20
-3.62940
 30
0.000000
  70
    32
  0
VERTEX
  8
241
  5
1A47
 10
-28.8694
 20
-3.67812
 30
0.000000
  70
    32
  0
VERTEX
  8
241
  5
1A48
 10
-28.9020
 20
-3.72683
 30
0.000000
  70
    32
  0
VERTEX
  8
241
  5
1A49
 10
-28.9347
 20
-3.77555
 30
0.000000
  70
    32
  0
VERTEX
  8
241
  5
1A4A
 10
-28.9673
 20
-3.82427
 30
0.000000
  70
    32
  0
VERTEX
  8
241
  5
1A4B
 10
-29.0000
 20
-3.87298
 30
0.000000
  70
    32
  0
SEQEND
  8
241
  5
1A4C
  0
LINE
  5
17F0
  8
243
 10
-30.999999999999421
 20
4.0000000000001421
 30
0.0
 11
-28.690598923240831
 21
0.0
 31
0.0
  0
LINE
  5
17F1
  8
243
 10
-30.999999999999371
 20
-3.9999999999999432
 30
0.0
 11
-31.000000000000082
 21
4.0
 31
0.0
  0
ARC
  5
17F2
  8
240
 10
-21.000000000000039
 20
-4.2499999999999432
 30
0.0
 40
3.0000000000001981
 50
90.0
 51
180.0
  0
ARC
  5
17F3
  8
241
 10
-21.000000000000231
 20
-1.5749988190805191
 30
0.0
 40
3.0
 50
90.0
 51
180.0
  0
LINE
  5
17F4
  8
241
 10
-24.000000000000231
 20
-1.5749988190805191
 30
0.0
 11
-24.000000000000231
 21
-4.2499999999999432
 31
0.0
  0
LINE
  5
17F5
  8
243
 10
-30.999999999999421
 20
-4.0000000000001421
 30
0.0
 11
-28.690598923240831
 21
0.0
 31
0.0
  0
LINE
  5
17F6
  8
240
 10
-23.999999999979021
 20
-5.1132486540402624
 30
0.0
 11
-28.767949192430748
 21
-7.8660254037844046
 31
0.0
  0
LINE
  5
17F7
  8
241
 10
-28.99999999999995
 20
-3.8729833462074619
 30
0.0
 11
-29.000000000000529
 21
-7.9634330440024916
 31
0.0
  0
LINE
  5
17F8
  8
240
 10
-23.999999999979021
 20
-5.1132486540402624
 30
0.0
 11
-24.000000000000309
 21
-4.2499999999999432
 31
0.0
  0
LINE
  5
17F9
  8
240
 10
-23.173205080756532
 20
4.6358983848622302
 30
0.0
 11
-28.76794919243094
 21
7.8660254037845334
 31
0.0
  0
LINE
  5
17FA
  8
241
 10
-28.99999999999995
 20
3.8729833462074899
 30
0.0
 11
-28.99999999999995
 21
7.9634330440024277
 31
0.0
  0
ARC
  5
17FB
  8
240
 10
-21.173205080756521
 20
8.0999999999999641
 30
0.0
 40
4.0
 50
239.9999999999998
 51
270.0
  0
LINE
  5
17FC
  8
240
 10
9.0000000000000568
 20
6.6500000000000048
 30
0.0
 11
9.0000000000006537
 21
-0.949999999999278
 31
0.0
  0
LINE
  5
17FD
  8
241
 10
-0.49999999999892
 20
0.0487906467344317
 30
0.0
 11
9.0000000000011084
 21
0.0487906467344317
 31
0.0
  0
LINE
  5
17FE
  8
241
 10
5.3441432673272402
 20
3.0116552867065698
 30
0.0
 11
8.9999999999998863
 21
3.0116552867065129
 31
0.0
  0
LINE
  5
17FF
  8
240
 10
8.9999999999999432
 20
-0.9499999999999602
 30
0.0
 11
8.6999999999999886
 21
-1.2499999999999709
 31
0.0
  0
LINE
  5
1800
  8
240
 10
8.6999999999999886
 20
6.9500000000000171
 30
0.0
 11
4.932287565553418
 21
6.9500000000000171
 31
0.0
  0
LINE
  5
1801
  8
241
 10
5.3000000000005789
 20
5.2884046834088556
 30
0.0
 11
9.0000000000001705
 21
5.2884046834088556
 31
0.0
  0
LINE
  5
1802
  8
240
 10
8.6999999999999886
 20
6.9500000000000171
 30
0.0
 11
9.0000000000000568
 21
6.6500000000000048
 31
0.0
  0
LINE
  5
1803
  8
241
 10
5.3000000000000114
 20
3.6821200218850829
 30
0.0
 11
5.2999999999997547
 21
6.949125113364758
 31
0.0
  0
LINE
  5
1804
  8
241
 10
-0.0000000000000568
 20
2.200000000000037
 30
0.0
 11
-0.0000000000000077
 21
4.1877501000800281
 31
0.0
  0
LINE
  5
1805
  8
240
 10
-0.0000000000000077
 20
4.1877501000800281
 30
0.0
 11
0.0000000000000568
 21
6.800000000000173
 31
0.0
  0
LINE
  5
1806
  8
245
 10
2.5000000000001128
 20
7.1821200218846712
 30
0.0
 11
2.5000000000001128
 21
1.7821200218846649
 31
0.0
  0
LINE
  5
1807
  8
241
 10
3.3000000000000109
 20
1.682120021884969
 30
0.0
 11
1.700000000000216
 21
1.682120021884969
 31
0.0
  0
LINE
  5
1808
  8
245
 10
-0.200000000000017
 20
4.4821200218846684
 30
0.0
 11
5.1999999999999877
 21
4.4821200218846684
 31
0.0
  0
CIRCLE
  5
1809
  8
242
 10
2.4999999999999849
 20
4.4821200218846684
 30
0.0
 40
1.0
  0
ARC
  5
180A
  8
241
 10
1.700000000000216
 20
3.6821200218849688
 30
0.0
 40
2.0
 50
251.09158479933589
 51
270.0
  0
ARC
  5
180B
  8
241
 10
0.1999999999999886
 20
2.200000000000037
 30
0.0
 40
0.2
 50
180.0
 51
270.0
  0
LINE
  5
180C
  8
241
 10
0.200000000000216
 20
2.000000000000048
 30
0.0
 11
4.8000000000000114
 21
2.000000000000048
 31
0.0
  0
LINE
  5
180D
  8
241
 10
-0.2199999999975262
 20
3.254483542738356
 30
0.0
 11
-0.2199999999975262
 21
4.101126586496604
 31
0.0
  0
LINE
  5
180E
  8
241
 10
4.999999999999261
 20
2.200000000000037
 30
0.0
 11
4.9999999999996021
 21
6.949125113364758
 31
0.0
  0
ARC
  5
180F
  8
241
 10
3.3000000000000109
 20
3.6821200218849688
 30
0.0
 40
2.0
 50
288.9084152006622
 51
302.74777599149672
  0
ARC
  5
1810
  8
241
 10
3.3000000000000109
 20
3.6821200218849688
 30
0.0
 40
2.0
 50
328.21166938290747
 51
346.54417158695389
  0
ARC
  5
1811
  8
241
 10
3.3000000000000109
 20
3.6821200218849688
 30
0.0
 40
2.0
 50
270.0
 51
288.90841520066408
  0
ARC
  5
1812
  8
241
 10
4.8000000000000114
 20
2.200000000000037
 30
0.0
 40
0.2
 50
270.0
 51
0.0
  0
ARC
  5
1813
  8
241
 10
3.3000000000000109
 20
3.6821200218849688
 30
0.0
 40
2.0
 50
346.5441715869519
 51
0.0000000000032569
  0
LINE
  5
1814
  8
240
 10
4.8000000000000114
 20
6.9999999999999059
 30
0.0
 11
0.1999999999999886
 21
7.0000000000001616
 31
0.0
  0
ARC
  5
1815
  8
240
 10
0.1999999999999886
 20
6.800000000000173
 30
0.0
 40
0.2
 50
89.999999999996746
 51
180.0
  0
ARC
  5
1816
  8
241
 10
4.8000000000000114
 20
6.800000000000173
 30
0.0
 40
0.2
 50
0.0
 51
48.590377890656029
  0
ARC
  5
1817
  8
240
 10
4.8000000000000114
 20
6.800000000000173
 30
0.0
 40
0.2
 50
48.590377890656029
 51
90.0
  0
ARC
  5
1818
  8
240
 10
-0.2499999999999432
 20
4.5
 30
0.0
 40
0.4
 50
269.99998239990259
 51
308.68218745347758
  0
ARC
  5
1819
  8
241
 10
0.5999999999999659
 20
2.6821200218846002
 30
0.0
 40
1.0
 50
126.8698976458433
 51
316.99046801882753
  0
LINE
  5
181A
  8
241
 10
-0.2726505249283093
 20
3.170465249507842
 30
0.0
 11
-25.049999999999219
 21
3.170465249507842
 31
0.0
  0
LINE
  5
181B
  8
241
 10
-0.2199999999975261
 20
4.0293787927216433
 30
0.0
 11
-25.050000000000029
 21
4.0293787927216442
 31
0.0
  0
POLYLINE
  8
241
  5
1A4D
  66
     1
 10
0.000000
 20
0.000000
 30
0.000000
  70
     8
  0
VERTEX
  8
241
  5
1A4E
 10
-2.11914
 20
3.17061
 30
0.000000
  70
    32
  0
VERTEX
  8
241
  5
1A4F
 10
-2.16414
 20
3.14306
 30
0.000000
  70
    32
  0
VERTEX
  8
241
  5
1A50
 10
-2.20879
 20
3.11556
 30
0.000000
  70
    32
  0
VERTEX
  8
241
  5
1A51
 10
-2.25307
 20
3.08812
 30
0.000000
  70
    32
  0
VERTEX
  8
241
  5
1A52
 10
-2.29697
 20
3.06073
 30
0.000000
  70
    32
  0
VERTEX
  8
241
  5
1A53
 10
-2.34048
 20
3.03339
 30
0.000000
  70
    32
  0
VERTEX
  8
241
  5
1A54
 10
-2.38360
 20
3.00611
 30
0.000000
  70
    32
  0
VERTEX
  8
241
  5
1A55
 10
-2.42630
 20
2.97889
 30
0.000000
  70
    32
  0
VERTEX
  8
241
  5
1A56
 10
-2.46859
 20
2.95173
 30
0.000000
  70
    32
  0
VERTEX
  8
241
  5
1A57
 10
-2.51045
 20
2.92464
 30
0.000000
  70
    32
  0
VERTEX
  8
241
  5
1A58
 10
-2.55186
 20
2.89760
 30
0.000000
  70
    32
  0
VERTEX
  8
241
  5
1A59
 10
-2.59283
 20
2.87063
 30
0.000000
  70
    32
  0
VERTEX
  8
241
  5
1A5A
 10
-2.63333
 20
2.84373
 30
0.000000
  70
    32
  0
VERTEX
  8
241
  5
1A5B
 10
-2.67337
 20
2.81689
 30
0.000000
  70
    32
  0
VERTEX
  8
241
  5
1A5C
 10
-2.71292
 20
2.79013
 30
0.000000
  70
    32
  0
VERTEX
  8
241
  5
1A5D
 10
-2.75197
 20
2.76343
 30
0.000000
  70
    32
  0
VERTEX
  8
241
  5
1A5E
 10
-2.79053
 20
2.73681
 30
0.000000
  70
    32
  0
VERTEX
  8
241
  5
1A5F
 10
-2.82857
 20
2.71026
 30
0.000000
  70
    32
  0
VERTEX
  8
241
  5
1A60
 10
-2.86609
 20
2.68378
 30
0.000000
  70
    32
  0
VERTEX
  8
241
  5
1A61
 10
-2.90307
 20
2.65738
 30
0.000000
  70
    32
  0
VERTEX
  8
241
  5
1A62
 10
-2.93950
 20
2.63106
 30
0.000000
  70
    32
  0
VERTEX
  8
241
  5
1A63
 10
-2.97539
 20
2.60482
 30
0.000000
  70
    32
  0
VERTEX
  8
241
  5
1A64
 10
-3.01070
 20
2.57866
 30
0.000000
  70
    32
  0
VERTEX
  8
241
  5
1A65
 10
-3.04544
 20
2.55259
 30
0.000000
  70
    32
  0
VERTEX
  8
241
  5
1A66
 10
-3.07959
 20
2.52659
 30
0.000000
  70
    32
  0
VERTEX
  8
241
  5
1A67
 10
-3.11315
 20
2.50069
 30
0.000000
  70
    32
  0
VERTEX
  8
241
  5
1A68
 10
-3.14609
 20
2.47487
 30
0.000000
  70
    32
  0
VERTEX
  8
241
  5
1A69
 10
-3.17842
 20
2.44914
 30
0.000000
  70
    32
  0
VERTEX
  8
241
  5
1A6A
 10
-3.21012
 20
2.42349
 30
0.000000
  70
    32
  0
VERTEX
  8
241
  5
1A6B
 10
-3.24118
 20
2.39795
 30
0.000000
  70
    32
  0
VERTEX
  8
241
  5
1A6C
 10
-3.27159
 20
2.37249
 30
0.000000
  70
    32
  0
VERTEX
  8
241
  5
1A6D
 10
-3.30134
 20
2.34713
 30
0.000000
  70
    32
  0
VERTEX
  8
241
  5
1A6E
 10
-3.33042
 20
2.32186
 30
0.000000
  70
    32
  0
VERTEX
  8
241
  5
1A6F
 10
-3.35882
 20
2.29670
 30
0.000000
  70
    32
  0
VERTEX
  8
241
  5
1A70
 10
-3.38653
 20
2.27163
 30
0.000000
  70
    32
  0
VERTEX
  8
241
  5
1A71
 10
-3.41353
 20
2.24666
 30
0.000000
  70
    32
  0
VERTEX
  8
241
  5
1A72
 10
-3.43982
 20
2.22180
 30
0.000000
  70
    32
  0
VERTEX
  8
241
  5
1A73
 10
-3.46539
 20
2.19703
 30
0.000000
  70
    32
  0
VERTEX
  8
241
  5
1A74
 10
-3.49023
 20
2.17238
 30
0.000000
  70
    32
  0
VERTEX
  8
241
  5
1A75
 10
-3.51432
 20
2.14783
 30
0.000000
  70
    32
  0
VERTEX
  8
241
  5
1A76
 10
-3.53765
 20
2.12339
 30
0.000000
  70
    32
  0
VERTEX
  8
241
  5
1A77
 10
-3.56023
 20
2.09905
 30
0.000000
  70
    32
  0
VERTEX
  8
241
  5
1A78
 10
-3.58202
 20
2.07483
 30
0.000000
  70
    32
  0
VERTEX
  8
241
  5
1A79
 10
-3.60303
 20
2.05073
 30
0.000000
  70
    32
  0
VERTEX
  8
241
  5
1A7A
 10
-3.62325
 20
2.02673
 30
0.000000
  70
    32
  0
VERTEX
  8
241
  5
1A7B
 10
-3.64265
 20
2.00286
 30
0.000000
  70
    32
  0
VERTEX
  8
241
  5
1A7C
 10
-3.66124
 20
1.97909
 30
0.000000
  70
    32
  0
VERTEX
  8
241
  5
1A7D
 10
-3.67900
 20
1.95545
 30
0.000000
  70
    32
  0
VERTEX
  8
241
  5
1A7E
 10
-3.69593
 20
1.93193
 30
0.000000
  70
    32
  0
VERTEX
  8
241
  5
1A7F
 10
-3.71200
 20
1.90853
 30
0.000000
  70
    32
  0
VERTEX
  8
241
  5
1A80
 10
-3.72722
 20
1.88525
 30
0.000000
  70
    32
  0
VERTEX
  8
241
  5
1A81
 10
-3.74156
 20
1.86210
 30
0.000000
  70
    32
  0
VERTEX
  8
241
  5
1A82
 10
-3.75503
 20
1.83908
 30
0.000000
  70
    32
  0
VERTEX
  8
241
  5
1A83
 10
-3.76760
 20
1.81618
 30
0.000000
  70
    32
  0
VERTEX
  8
241
  5
1A84
 10
-3.77928
 20
1.79341
 30
0.000000
  70
    32
  0
VERTEX
  8
241
  5
1A85
 10
-3.79004
 20
1.77077
 30
0.000000
  70
    32
  0
VERTEX
  8
241
  5
1A86
 10
-3.79988
 20
1.74827
 30
0.000000
  70
    32
  0
VERTEX
  8
241
  5
1A87
 10
-3.80879
 20
1.72589
 30
0.000000
  70
    32
  0
VERTEX
  8
241
  5
1A88
 10
-3.81675
 20
1.70366
 30
0.000000
  70
    32
  0
VERTEX
  8
241
  5
1A89
 10
-3.82376
 20
1.68156
 30
0.000000
  70
    32
  0
VERTEX
  8
241
  5
1A8A
 10
-3.82981
 20
1.65960
 30
0.000000
  70
    32
  0
VERTEX
  8
241
  5
1A8B
 10
-3.83488
 20
1.63777
 30
0.000000
  70
    32
  0
VERTEX
  8
241
  5
1A8C
 10
-3.83897
 20
1.61609
 30
0.000000
  70
    32
  0
VERTEX
  8
241
  5
1A8D
 10
-3.84206
 20
1.59455
 30
0.000000
  70
    32
  0
VERTEX
  8
241
  5
1A8E
 10
-3.84415
 20
1.57316
 30
0.000000
  70
    32
  0
VERTEX
  8
241
  5
1A8F
 10
-3.84522
 20
1.55191
 30
0.000000
  70
    32
  0
VERTEX
  8
241
  5
1A90
 10
-3.84526
 20
1.53081
 30
0.000000
  70
    32
  0
VERTEX
  8
241
  5
1A91
 10
-3.84427
 20
1.50986
 30
0.000000
  70
    32
  0
VERTEX
  8
241
  5
1A92
 10
-3.84223
 20
1.48906
 30
0.000000
  70
    32
  0
VERTEX
  8
241
  5
1A93
 10
-3.83913
 20
1.46841
 30
0.000000
  70
    32
  0
VERTEX
  8
241
  5
1A94
 10
-3.83496
 20
1.44791
 30
0.000000
  70
    32
  0
VERTEX
  8
241
  5
1A95
 10
-3.82971
 20
1.42757
 30
0.000000
  70
    32
  0
VERTEX
  8
241
  5
1A96
 10
-3.82338
 20
1.40738
 30
0.000000
  70
    32
  0
VERTEX
  8
241
  5
1A97
 10
-3.81597
 20
1.38735
 30
0.000000
  70
    32
  0
VERTEX
  8
241
  5
1A98
 10
-3.80748
 20
1.36747
 30
0.000000
  70
    32
  0
VERTEX
  8
241
  5
1A99
 10
-3.79795
 20
1.34775
 30
0.000000
  70
    32
  0
VERTEX
  8
241
  5
1A9A
 10
-3.78737
 20
1.32817
 30
0.000000
  70
    32
  0
VERTEX
  8
241
  5
1A9B
 10
-3.77575
 20
1.30874
 30
0.000000
  70
    32
  0
VERTEX
  8
241
  5
1A9C
 10
-3.76313
 20
1.28946
 30
0.000000
  70
    32
  0
VERTEX
  8
241
  5
1A9D
 10
-3.74949
 20
1.27032
 30
0.000000
  70
    32
  0
VERTEX
  8
241
  5
1A9E
 10
-3.73486
 20
1.25132
 30
0.000000
  70
    32
  0
VERTEX
  8
241
  5
1A9F
 10
-3.71925
 20
1.23247
 30
0.000000
  70
    32
  0
VERTEX
  8
241
  5
1AA0
 10
-3.70268
 20
1.21375
 30
0.000000
  70
    32
  0
VERTEX
  8
241
  5
1AA1
 10
-3.68515
 20
1.19517
 30
0.000000
  70
    32
  0
VERTEX
  8
241
  5
1AA2
 10
-3.66667
 20
1.17672
 30
0.000000
  70
    32
  0
VERTEX
  8
241
  5
1AA3
 10
-3.64726
 20
1.15841
 30
0.000000
  70
    32
  0
VERTEX
  8
241
  5
1AA4
 10
-3.62694
 20
1.14023
 30
0.000000
  70
    32
  0
VERTEX
  8
241
  5
1AA5
 10
-3.60570
 20
1.12219
 30
0.000000
  70
    32
  0
VERTEX
  8
241
  5
1AA6
 10
-3.58358
 20
1.10426
 30
0.000000
  70
    32
  0
VERTEX
  8
241
  5
1AA7
 10
-3.56057
 20
1.08647
 30
0.000000
  70
    32
  0
VERTEX
  8
241
  5
1AA8
 10
-3.53669
 20
1.06880
 30
0.000000
  70
    32
  0
VERTEX
  8
241
  5
1AA9
 10
-3.51196
 20
1.05125
 30
0.000000
  70
    32
  0
VERTEX
  8
241
  5
1AAA
 10
-3.48638
 20
1.03383
 30
0.000000
  70
    32
  0
VERTEX
  8
241
  5
1AAB
 10
-3.45997
 20
1.01652
 30
0.000000
  70
    32
  0
VERTEX
  8
241
  5
1AAC
 10
-3.43274
 20
0.999329
 30
0.000000
  70
    32
  0
VERTEX
  8
241
  5
1AAD
 10
-3.40471
 20
0.982256
 30
0.000000
  70
    32
  0
VERTEX
  8
241
  5
1AAE
 10
-3.37588
 20
0.965296
 30
0.000000
  70
    32
  0
VERTEX
  8
241
  5
1AAF
 10
-3.34626
 20
0.948448
 30
0.000000
  70
    32
  0
VERTEX
  8
241
  5
1AB0
 10
-3.31588
 20
0.931711
 30
0.000000
  70
    32
  0
VERTEX
  8
241
  5
1AB1
 10
-3.28474
 20
0.915083
 30
0.000000
  70
    32
  0
VERTEX
  8
241
  5
1AB2
 10
-3.25286
 20
0.898561
 30
0.000000
  70
    32
  0
VERTEX
  8
241
  5
1AB3
 10
-3.22024
 20
0.882144
 30
0.000000
  70
    32
  0
VERTEX
  8
241
  5
1AB4
 10
-3.18690
 20
0.865831
 30
0.000000
  70
    32
  0
VERTEX
  8
241
  5
1AB5
 10
-3.15286
 20
0.849619
 30
0.000000
  70
    32
  0
VERTEX
  8
241
  5
1AB6
 10
-3.11812
 20
0.833507
 30
0.000000
  70
    32
  0
VERTEX
  8
241
  5
1AB7
 10
-3.08270
 20
0.817493
 30
0.000000
  70
    32
  0
VERTEX
  8
241
  5
1AB8
 10
-3.04660
 20
0.801575
 30
0.000000
  70
    32
  0
VERTEX
  8
241
  5
1AB9
 10
-3.00985
 20
0.785751
 30
0.000000
  70
    32
  0
VERTEX
  8
241
  5
1ABA
 10
-2.97245
 20
0.770020
 30
0.000000
  70
    32
  0
VERTEX
  8
241
  5
1ABB
 10
-2.93442
 20
0.754380
 30
0.000000
  70
    32
  0
VERTEX
  8
241
  5
1ABC
 10
-2.89577
 20
0.738828
 30
0.000000
  70
    32
  0
VERTEX
  8
241
  5
1ABD
 10
-2.85651
 20
0.723364
 30
0.000000
  70
    32
  0
VERTEX
  8
241
  5
1ABE
 10
-2.81666
 20
0.707986
 30
0.000000
  70
    32
  0
VERTEX
  8
241
  5
1ABF
 10
-2.77622
 20
0.692691
 30
0.000000
  70
    32
  0
VERTEX
  8
241
  5
1AC0
 10
-2.73521
 20
0.677478
 30
0.000000
  70
    32
  0
VERTEX
  8
241
  5
1AC1
 10
-2.69364
 20
0.662345
 30
0.000000
  70
    32
  0
VERTEX
  8
241
  5
1AC2
 10
-2.65153
 20
0.647290
 30
0.000000
  70
    32
  0
VERTEX
  8
241
  5
1AC3
 10
-2.60888
 20
0.632313
 30
0.000000
  70
    32
  0
VERTEX
  8
241
  5
1AC4
 10
-2.56571
 20
0.617409
 30
0.000000
  70
    32
  0
VERTEX
  8
241
  5
1AC5
 10
-2.52203
 20
0.602579
 30
0.000000
  70
    32
  0
VERTEX
  8
241
  5
1AC6
 10
-2.47786
 20
0.587820
 30
0.000000
  70
    32
  0
VERTEX
  8
241
  5
1AC7
 10
-2.43320
 20
0.573131
 30
0.000000
  70
    32
  0
VERTEX
  8
241
  5
1AC8
 10
-2.38807
 20
0.558509
 30
0.000000
  70
    32
  0
VERTEX
  8
241
  5
1AC9
 10
-2.34248
 20
0.543953
 30
0.000000
  70
    32
  0
VERTEX
  8
241
  5
1ACA
 10
-2.29644
 20
0.529461
 30
0.000000
  70
    32
  0
VERTEX
  8
241
  5
1ACB
 10
-2.24997
 20
0.515032
 30
0.000000
  70
    32
  0
VERTEX
  8
241
  5
1ACC
 10
-2.20307
 20
0.500663
 30
0.000000
  70
    32
  0
VERTEX
  8
241
  5
1ACD
 10
-2.15577
 20
0.486352
 30
0.000000
  70
    32
  0
VERTEX
  8
241
  5
1ACE
 10
-2.10807
 20
0.472099
 30
0.000000
  70
    32
  0
VERTEX
  8
241
  5
1ACF
 10
-2.05998
 20
0.457901
 30
0.000000
  70
    32
  0
VERTEX
  8
241
  5
1AD0
 10
-2.01152
 20
0.443756
 30
0.000000
  70
    32
  0
VERTEX
  8
241
  5
1AD1
 10
-1.96270
 20
0.429663
 30
0.000000
  70
    32
  0
VERTEX
  8
241
  5
1AD2
 10
-1.91354
 20
0.415620
 30
0.000000
  70
    32
  0
VERTEX
  8
241
  5
1AD3
 10
-1.86404
 20
0.401625
 30
0.000000
  70
    32
  0
VERTEX
  8
241
  5
1AD4
 10
-1.81421
 20
0.387676
 30
0.000000
  70
    32
  0
VERTEX
  8
241
  5
1AD5
 10
-1.76408
 20
0.373772
 30
0.000000
  70
    32
  0
VERTEX
  8
241
  5
1AD6
 10
-1.71364
 20
0.359910
 30
0.000000
  70
    32
  0
VERTEX
  8
241
  5
1AD7
 10
-1.66293
 20
0.346090
 30
0.000000
  70
    32
  0
VERTEX
  8
241
  5
1AD8
 10
-1.61194
 20
0.332308
 30
0.000000
  70
    32
  0
VERTEX
  8
241
  5
1AD9
 10
-1.56068
 20
0.318564
 30
0.000000
  70
    32
  0
VERTEX
  8
241
  5
1ADA
 10
-1.50918
 20
0.304856
 30
0.000000
  70
    32
  0
VERTEX
  8
241
  5
1ADB
 10
-1.45745
 20
0.291181
 30
0.000000
  70
    32
  0
VERTEX
  8
241
  5
1ADC
 10
-1.40549
 20
0.277539
 30
0.000000
  70
    32
  0
VERTEX
  8
241
  5
1ADD
 10
-1.35332
 20
0.263927
 30
0.000000
  70
    32
  0
VERTEX
  8
241
  5
1ADE
 10
-1.30095
 20
0.250343
 30
0.000000
  70
    32
  0
VERTEX
  8
241
  5
1ADF
 10
-1.24839
 20
0.236786
 30
0.000000
  70
    32
  0
VERTEX
  8
241
  5
1AE0
 10
-1.19566
 20
0.223254
 30
0.000000
  70
    32
  0
VERTEX
  8
241
  5
1AE1
 10
-1.14277
 20
0.209745
 30
0.000000
  70
    32
  0
VERTEX
  8
241
  5
1AE2
 10
-1.08973
 20
0.196257
 30
0.000000
  70
    32
  0
VERTEX
  8
241
  5
1AE3
 10
-1.03656
 20
0.182789
 30
0.000000
  70
    32
  0
VERTEX
  8
241
  5
1AE4
 10
-0.983255
 20
0.169339
 30
0.000000
  70
    32
  0
VERTEX
  8
241
  5
1AE5
 10
-0.929843
 20
0.155904
 30
0.000000
  70
    32
  0
VERTEX
  8
241
  5
1AE6
 10
-0.876332
 20
0.142484
 30
0.000000
  70
    32
  0
VERTEX
  8
241
  5
1AE7
 10
-0.822733
 20
0.129077
 30
0.000000
  70
    32
  0
VERTEX
  8
241
  5
1AE8
 10
-0.769060
 20
0.115680
 30
0.000000
  70
    32
  0
VERTEX
  8
241
  5
1AE9
 10
-0.715325
 20
0.102292
 30
0.000000
  70
    32
  0
VERTEX
  8
241
  5
1AEA
 10
-0.661541
 20
0.0889114
 30
0.000000
  70
    32
  0
VERTEX
  8
241
  5
1AEB
 10
-0.607719
 20
0.0755359
 30
0.000000
  70
    32
  0
VERTEX
  8
241
  5
1AEC
 10
-0.553872
 20
0.0621640
 30
0.000000
  70
    32
  0
VERTEX
  8
241
  5
1AED
 10
-0.500013
 20
0.0487939
 30
0.000000
  70
    32
  0
SEQEND
  8
241
  5
1AEE
  0
POLYLINE
  5
181D
  8
241
 10
-25.050000000000036
 20
4.0293787927227944
 30
0.0
 66
     1
 70
     8
  0
VERTEX
  8
241
  5
1AEF
 10
-25.0500
 20
4.02938
 30
0.000000
  70
    32
  0
VERTEX
  8
241
  5
1AF0
 10
-25.0807
 20
4.02925
 30
0.000000
  70
    32
  0
VERTEX
  8
241
  5
1AF1
 10
-25.1113
 20
4.02886
 30
0.000000
  70
    32
  0
VERTEX
  8
241
  5
1AF2
 10
-25.1420
 20
4.02822
 30
0.000000
  70
    32
  0
VERTEX
  8
241
  5
1AF3
 10
-25.1725
 20
4.02731
 30
0.000000
  70
    32
  0
VERTEX
  8
241
  5
1AF4
 10
-25.2030
 20
4.02615
 30
0.000000
  70
    32
  0
VERTEX
  8
241
  5
1AF5
 10
-25.2334
 20
4.02473
 30
0.000000
  70
    32
  0
VERTEX
  8
241
  5
1AF6
 10
-25.2637
 20
4.02306
 30
0.000000
  70
    32
  0
VERTEX
  8
241
  5
1AF7
 10
-25.2939
 20
4.02113
 30
0.000000
  70
    32
  0
VERTEX
  8
241
  5
1AF8
 10
-25.3239
 20
4.01894
 30
0.000000
  70
    32
  0
VERTEX
  8
241
  5
1AF9
 10
-25.3537
 20
4.01651
 30
0.000000
  70
    32
  0
VERTEX
  8
241
  5
1AFA
 10
-25.3834
 20
4.01382
 30
0.000000
  70
    32
  0
VERTEX
  8
241
  5
1AFB
 10
-25.4129
 20
4.01089
 30
0.000000
  70
    32
  0
VERTEX
  8
241
  5
1AFC
 10
-25.4421
 20
4.00770
 30
0.000000
  70
    32
  0
VERTEX
  8
241
  5
1AFD
 10
-25.4711
 20
4.00427
 30
0.000000
  70
    32
  0
VERTEX
  8
241
  5
1AFE
 10
-25.4999
 20
4.00060
 30
0.000000
  70
    32
  0
VERTEX
  8
241
  5
1AFF
 10
-25.5284
 20
3.99669
 30
0.000000
  70
    32
  0
VERTEX
  8
241
  5
1B00
 10
-25.5566
 20
3.99254
 30
0.000000
  70
    32
  0
VERTEX
  8
241
  5
1B01
 10
-25.5844
 20
3.98815
 30
0.000000
  70
    32
  0
VERTEX
  8
241
  5
1B02
 10
-25.6120
 20
3.98352
 30
0.000000
  70
    32
  0
VERTEX
  8
241
  5
1B03
 10
-25.6392
 20
3.97867
 30
0.000000
  70
    32
  0
VERTEX
  8
241
  5
1B04
 10
-25.6661
 20
3.97359
 30
0.000000
  70
    32
  0
VERTEX
  8
241
  5
1B05
 10
-25.6926
 20
3.96828
 30
0.000000
  70
    32
  0
VERTEX
  8
241
  5
1B06
 10
-25.7187
 20
3.96275
 30
0.000000
  70
    32
  0
VERTEX
  8
241
  5
1B07
 10
-25.7445
 20
3.95700
 30
0.000000
  70
    32
  0
VERTEX
  8
241
  5
1B08
 10
-25.7698
 20
3.95104
 30
0.000000
  70
    32
  0
VERTEX
  8
241
  5
1B09
 10
-25.7946
 20
3.94486
 30
0.000000
  70
    32
  0
VERTEX
  8
241
  5
1B0A
 10
-25.8190
 20
3.93848
 30
0.000000
  70
    32
  0
VERTEX
  8
241
  5
1B0B
 10
-25.8430
 20
3.93190
 30
0.000000
  70
    32
  0
VERTEX
  8
241
  5
1B0C
 10
-25.8665
 20
3.92511
 30
0.000000
  70
    32
  0
VERTEX
  8
241
  5
1B0D
 10
-25.8894
 20
3.91813
 30
0.000000
  70
    32
  0
VERTEX
  8
241
  5
1B0E
 10
-25.9119
 20
3.91095
 30
0.000000
  70
    32
  0
VERTEX
  8
241
  5
1B0F
 10
-25.9339
 20
3.90359
 30
0.000000
  70
    32
  0
VERTEX
  8
241
  5
1B10
 10
-25.9553
 20
3.89605
 30
0.000000
  70
    32
  0
VERTEX
  8
241
  5
1B11
 10
-25.9762
 20
3.88833
 30
0.000000
  70
    32
  0
VERTEX
  8
241
  5
1B12
 10
-25.9965
 20
3.88043
 30
0.000000
  70
    32
  0
VERTEX
  8
241
  5
1B13
 10
-26.0163
 20
3.87237
 30
0.000000
  70
    32
  0
VERTEX
  8
241
  5
1B14
 10
-26.0354
 20
3.86414
 30
0.000000
  70
    32
  0
VERTEX
  8
241
  5
1B15
 10
-26.0540
 20
3.85575
 30
0.000000
  70
    32
  0
VERTEX
  8
241
  5
1B16
 10
-26.0720
 20
3.84721
 30
0.000000
  70
    32
  0
VERTEX
  8
241
  5
1B17
 10
-26.0893
 20
3.83852
 30
0.000000
  70
    32
  0
VERTEX
  8
241
  5
1B18
 10
-26.1061
 20
3.82968
 30
0.000000
  70
    32
  0
VERTEX
  8
241
  5
1B19
 10
-26.1222
 20
3.82071
 30
0.000000
  70
    32
  0
VERTEX
  8
241
  5
1B1A
 10
-26.1376
 20
3.81160
 30
0.000000
  70
    32
  0
VERTEX
  8
241
  5
1B1B
 10
-26.1524
 20
3.80237
 30
0.000000
  70
    32
  0
VERTEX
  8
241
  5
1B1C
 10
-26.1665
 20
3.79301
 30
0.000000
  70
    32
  0
VERTEX
  8
241
  5
1B1D
 10
-26.1800
 20
3.78354
 30
0.000000
  70
    32
  0
VERTEX
  8
241
  5
1B1E
 10
-26.1928
 20
3.77396
 30
0.000000
  70
    32
  0
VERTEX
  8
241
  5
1B1F
 10
-26.2048
 20
3.76427
 30
0.000000
  70
    32
  0
VERTEX
  8
241
  5
1B20
 10
-26.2162
 20
3.75448
 30
0.000000
  70
    32
  0
VERTEX
  8
241
  5
1B21
 10
-26.2269
 20
3.74460
 30
0.000000
  70
    32
  0
VERTEX
  8
241
  5
1B22
 10
-26.2369
 20
3.73463
 30
0.000000
  70
    32
  0
VERTEX
  8
241
  5
1B23
 10
-26.2462
 20
3.72459
 30
0.000000
  70
    32
  0
VERTEX
  8
241
  5
1B24
 10
-26.2547
 20
3.71446
 30
0.000000
  70
    32
  0
VERTEX
  8
241
  5
1B25
 10
-26.2625
 20
3.70427
 30
0.000000
  70
    32
  0
VERTEX
  8
241
  5
1B26
 10
-26.2696
 20
3.69402
 30
0.000000
  70
    32
  0
VERTEX
  8
241
  5
1B27
 10
-26.2760
 20
3.68370
 30
0.000000
  70
    32
  0
VERTEX
  8
241
  5
1B28
 10
-26.2816
 20
3.67334
 30
0.000000
  70
    32
  0
VERTEX
  8
241
  5
1B29
 10
-26.2865
 20
3.66294
 30
0.000000
  70
    32
  0
VERTEX
  8
241
  5
1B2A
 10
-26.2906
 20
3.65249
 30
0.000000
  70
    32
  0
VERTEX
  8
241
  5
1B2B
 10
-26.2940
 20
3.64202
 30
0.000000
  70
    32
  0
VERTEX
  8
241
  5
1B2C
 10
-26.2966
 20
3.63151
 30
0.000000
  70
    32
  0
VERTEX
  8
241
  5
1B2D
 10
-26.2985
 20
3.62099
 30
0.000000
  70
    32
  0
VERTEX
  8
241
  5
1B2E
 10
-26.2996
 20
3.61046
 30
0.000000
  70
    32
  0
VERTEX
  8
241
  5
1B2F
 10
-26.3000
 20
3.59992
 30
0.000000
  70
    32
  0
VERTEX
  8
241
  5
1B30
 10
-26.2996
 20
3.58938
 30
0.000000
  70
    32
  0
VERTEX
  8
241
  5
1B31
 10
-26.2985
 20
3.57885
 30
0.000000
  70
    32
  0
VERTEX
  8
241
  5
1B32
 10
-26.2966
 20
3.56833
 30
0.000000
  70
    32
  0
VERTEX
  8
241
  5
1B33
 10
-26.2940
 20
3.55783
 30
0.000000
  70
    32
  0
VERTEX
  8
241
  5
1B34
 10
-26.2906
 20
3.54735
 30
0.000000
  70
    32
  0
VERTEX
  8
241
  5
1B35
 10
-26.2865
 20
3.53691
 30
0.000000
  70
    32
  0
VERTEX
  8
241
  5
1B36
 10
-26.2816
 20
3.52650
 30
0.000000
  70
    32
  0
VERTEX
  8
241
  5
1B37
 10
-26.2760
 20
3.51614
 30
0.000000
  70
    32
  0
VERTEX
  8
241
  5
1B38
 10
-26.2696
 20
3.50583
 30
0.000000
  70
    32
  0
VERTEX
  8
241
  5
1B39
 10
-26.2625
 20
3.49557
 30
0.000000
  70
    32
  0
VERTEX
  8
241
  5
1B3A
 10
-26.2547
 20
3.48538
 30
0.000000
  70
    32
  0
VERTEX
  8
241
  5
1B3B
 10
-26.2462
 20
3.47526
 30
0.000000
  70
    32
  0
VERTEX
  8
241
  5
1B3C
 10
-26.2369
 20
3.46521
 30
0.000000
  70
    32
  0
VERTEX
  8
241
  5
1B3D
 10
-26.2269
 20
3.45524
 30
0.000000
  70
    32
  0
VERTEX
  8
241
  5
1B3E
 10
-26.2162
 20
3.44536
 30
0.000000
  70
    32
  0
VERTEX
  8
241
  5
1B3F
 10
-26.2048
 20
3.43558
 30
0.000000
  70
    32
  0
VERTEX
  8
241
  5
1B40
 10
-26.1928
 20
3.42589
 30
0.000000
  70
    32
  0
VERTEX
  8
241
  5
1B41
 10
-26.1800
 20
3.41631
 30
0.000000
  70
    32
  0
VERTEX
  8
241
  5
1B42
 10
-26.1665
 20
3.40683
 30
0.000000
  70
    32
  0
VERTEX
  8
241
  5
1B43
 10
-26.1524
 20
3.39748
 30
0.000000
  70
    32
  0
VERTEX
  8
241
  5
1B44
 10
-26.1376
 20
3.38824
 30
0.000000
  70
    32
  0
VERTEX
  8
241
  5
1B45
 10
-26.1222
 20
3.37914
 30
0.000000
  70
    32
  0
VERTEX
  8
241
  5
1B46
 10
-26.1061
 20
3.37016
 30
0.000000
  70
    32
  0
VERTEX
  8
241
  5
1B47
 10
-26.0893
 20
3.36133
 30
0.000000
  70
    32
  0
VERTEX
  8
241
  5
1B48
 10
-26.0720
 20
3.35264
 30
0.000000
  70
    32
  0
VERTEX
  8
241
  5
1B49
 10
-26.0540
 20
3.34409
 30
0.000000
  70
    32
  0
VERTEX
  8
241
  5
1B4A
 10
-26.0354
 20
3.33571
 30
0.000000
  70
    32
  0
VERTEX
  8
241
  5
1B4B
 10
-26.0163
 20
3.32748
 30
0.000000
  70
    32
  0
VERTEX
  8
241
  5
1B4C
 10
-25.9965
 20
3.31941
 30
0.000000
  70
    32
  0
VERTEX
  8
241
  5
1B4D
 10
-25.9762
 20
3.31152
 30
0.000000
  70
    32
  0
VERTEX
  8
241
  5
1B4E
 10
-25.9553
 20
3.30379
 30
0.000000
  70
    32
  0
VERTEX
  8
241
  5
1B4F
 10
-25.9339
 20
3.29625
 30
0.000000
  70
    32
  0
VERTEX
  8
241
  5
1B50
 10
-25.9119
 20
3.28889
 30
0.000000
  70
    32
  0
VERTEX
  8
241
  5
1B51
 10
-25.8894
 20
3.28172
 30
0.000000
  70
    32
  0
VERTEX
  8
241
  5
1B52
 10
-25.8665
 20
3.27473
 30
0.000000
  70
    32
  0
VERTEX
  8
241
  5
1B53
 10
-25.8430
 20
3.26795
 30
0.000000
  70
    32
  0
VERTEX
  8
241
  5
1B54
 10
-25.8190
 20
3.26136
 30
0.000000
  70
    32
  0
VERTEX
  8
241
  5
1B55
 10
-25.7946
 20
3.25498
 30
0.000000
  70
    32
  0
VERTEX
  8
241
  5
1B56
 10
-25.7698
 20
3.24880
 30
0.000000
  70
    32
  0
VERTEX
  8
241
  5
1B57
 10
-25.7445
 20
3.24284
 30
0.000000
  70
    32
  0
VERTEX
  8
241
  5
1B58
 10
-25.7187
 20
3.23709
 30
0.000000
  70
    32
  0
VERTEX
  8
241
  5
1B59
 10
-25.6926
 20
3.23156
 30
0.000000
  70
    32
  0
VERTEX
  8
241
  5
1B5A
 10
-25.6661
 20
3.22626
 30
0.000000
  70
    32
  0
VERTEX
  8
241
  5
1B5B
 10
-25.6392
 20
3.22117
 30
0.000000
  70
    32
  0
VERTEX
  8
241
  5
1B5C
 10
-25.6120
 20
3.21632
 30
0.000000
  70
    32
  0
VERTEX
  8
241
  5
1B5D
 10
-25.5844
 20
3.21170
 30
0.000000
  70
    32
  0
VERTEX
  8
241
  5
1B5E
 10
-25.5566
 20
3.20731
 30
0.000000
  70
    32
  0
VERTEX
  8
241
  5
1B5F
 10
-25.5284
 20
3.20316
 30
0.000000
  70
    32
  0
VERTEX
  8
241
  5
1B60
 10
-25.4999
 20
3.19924
 30
0.000000
  70
    32
  0
VERTEX
  8
241
  5
1B61
 10
-25.4711
 20
3.19557
 30
0.000000
  70
    32
  0
VERTEX
  8
241
  5
1B62
 10
-25.4421
 20
3.19214
 30
0.000000
  70
    32
  0
VERTEX
  8
241
  5
1B63
 10
-25.4129
 20
3.18896
 30
0.000000
  70
    32
  0
VERTEX
  8
241
  5
1B64
 10
-25.3834
 20
3.18602
 30
0.000000
  70
    32
  0
VERTEX
  8
241
  5
1B65
 10
-25.3537
 20
3.18334
 30
0.000000
  70
    32
  0
VERTEX
  8
241
  5
1B66
 10
-25.3239
 20
3.18090
 30
0.000000
  70
    32
  0
VERTEX
  8
241
  5
1B67
 10
-25.2939
 20
3.17872
 30
0.000000
  70
    32
  0
VERTEX
  8
241
  5
1B68
 10
-25.2637
 20
3.17679
 30
0.000000
  70
    32
  0
VERTEX
  8
241
  5
1B69
 10
-25.2334
 20
3.17511
 30
0.000000
  70
    32
  0
VERTEX
  8
241
  5
1B6A
 10
-25.2030
 20
3.17369
 30
0.000000
  70
    32
  0
VERTEX
  8
241
  5
1B6B
 10
-25.1725
 20
3.17253
 30
0.000000
  70
    32
  0
VERTEX
  8
241
  5
1B6C
 10
-25.1420
 20
3.17163
 30
0.000000
  70
    32
  0
VERTEX
  8
241
  5
1B6D
 10
-25.1113
 20
3.17098
 30
0.000000
  70
    32
  0
VERTEX
  8
241
  5
1B6E
 10
-25.0807
 20
3.17059
 30
0.000000
  70
    32
  0
VERTEX
  8
241
  5
1B6F
 10
-25.0500
 20
3.17047
 30
0.000000
  70
    32
  0
SEQEND
  8
241
  5
1B70
  0
ARC
  5
181E
  8
240
 10
-29.26794919243093
 20
7.0000000000000986
 30
0.0
 40
1.0
 50
59.999999999999858
 51
90.0
  0
ARC
  5
181F
  8
240
 10
-29.267949192430709
 20
-6.9999999999999432
 30
0.0
 40
1.0
 50
270.0
 51
299.99999999999801
  0
LINE
  5
1820
  8
247
 10
-86.088686627304767
 20
5.8720633323760927
 30
0.0
 11
-86.088686627304767
 21
5.8720633323760927
 31
0.0
1001
HATCH_DISTANCE
1040
1.0
1001
HATCH_DISPLAY
1070
     0
1001
HATCH_TYPE
1070
     7
  0
LINE
  5
1821
  8
247
 10
-86.179976147568453
 20
6.1615645225616378
 30
0.0
 11
-86.088686627304767
 21
5.8720633323760927
 31
0.0
1001
HATCH_DISTANCE
1040
1.0
1001
HATCH_DISPLAY
1070
     0
1001
HATCH_TYPE
1070
     7
  0
LINE
  5
1822
  8
247
 10
-86.179976147568453
 20
6.1615645225616378
 30
0.0
 11
-86.179976147568453
 21
6.1615645225616378
 31
0.0
1001
HATCH_DISTANCE
1040
1.0
1001
HATCH_DISPLAY
1070
     0
1001
HATCH_TYPE
1070
     7
  0
LINE
  5
1823
  8
247
 10
-86.088686627304767
 20
5.8720633323760927
 30
0.0
 11
-86.179976147568453
 21
6.1615645225616378
 31
0.0
1001
HATCH_DISTANCE
1040
1.0
1001
HATCH_DISPLAY
1070
     0
1001
HATCH_TYPE
1070
     7
  0
LINE
  5
1824
  8
247
 10
-86.088686627304767
 20
5.8720633323760927
 30
0.0
 11
-86.088686627304767
 21
5.8720633323760927
 31
0.0
  0
LINE
  5
1825
  8
247
 10
-86.179976147568453
 20
6.1615645225616378
 30
0.0
 11
-86.088686627304767
 21
5.8720633323760927
 31
0.0
  0
LINE
  5
1826
  8
247
 10
-86.179976147568453
 20
6.1615645225616378
 30
0.0
 11
-86.179976147568453
 21
6.1615645225616378
 31
0.0
  0
LINE
  5
1827
  8
247
 10
-86.088686627304767
 20
5.8720633323760927
 30
0.0
 11
-86.179976147568453
 21
6.1615645225616378
 31
0.0
  0
LINE
  5
1828
  8
247
 10
-86.088686627304767
 20
5.8720633323760927
 30
0.0
 11
-86.088686627304767
 21
5.8720633323760927
 31
0.0
1001
HATCH_DISTANCE
1040
1.0
1001
HATCH_DISPLAY
1070
     0
1001
HATCH_TYPE
1070
     7
  0
LINE
  5
1829
  8
247
 10
-86.179976147568453
 20
6.1615645225616378
 30
0.0
 11
-86.088686627304767
 21
5.8720633323760927
 31
0.0
1001
HATCH_DISTANCE
1040
1.0
1001
HATCH_DISPLAY
1070
     0
1001
HATCH_TYPE
1070
     7
  0
LINE
  5
182A
  8
247
 10
-86.179976147568453
 20
6.1615645225616378
 30
0.0
 11
-86.179976147568453
 21
6.1615645225616378
 31
0.0
1001
HATCH_DISTANCE
1040
1.0
1001
HATCH_DISPLAY
1070
     0
1001
HATCH_TYPE
1070
     7
  0
LINE
  5
182B
  8
247
 10
-86.088686627304767
 20
5.8720633323760927
 30
0.0
 11
-86.179976147568453
 21
6.1615645225616378
 31
0.0
1001
HATCH_DISTANCE
1040
1.0
1001
HATCH_DISPLAY
1070
     0
1001
HATCH_TYPE
1070
     7
  0
LINE
  5
182C
  8
247
 10
-86.088686627304767
 20
5.8720633323760927
 30
0.0
 11
-86.088686627304767
 21
5.8720633323760927
 31
0.0
  0
LINE
  5
182D
  8
247
 10
-86.179976147568453
 20
6.1615645225616378
 30
0.0
 11
-86.088686627304767
 21
5.8720633323760927
 31
0.0
  0
LINE
  5
182E
  8
247
 10
-86.179976147568453
 20
6.1615645225616378
 30
0.0
 11
-86.179976147568453
 21
6.1615645225616378
 31
0.0
  0
LINE
  5
182F
  8
247
 10
-86.088686627304767
 20
5.8720633323760927
 30
0.0
 11
-86.179976147568453
 21
6.1615645225616378
 31
0.0
  0
LINE
  5
1830
  8
247
 10
-88.132544201767658
 20
6.2141501243682793
 30
0.0
 11
-88.920904797470769
 21
6.2141501243682793
 31
0.0
1001
HATCH_DISTANCE
1040
1.0
1001
HATCH_DISPLAY
1070
     0
1001
HATCH_TYPE
1070
     7
  0
LINE
  5
1831
  8
247
 10
-88.914827984726656
 20
3.4859927232833798
 30
0.0
 11
-88.132544201767658
 21
6.2141501243682793
 31
0.0
1001
HATCH_DISTANCE
1040
1.0
1001
HATCH_DISPLAY
1070
     0
1001
HATCH_TYPE
1070
     7
  0
LINE
  5
1832
  8
247
 10
-89.592821759140719
 20
3.4859927232833798
 30
0.0
 11
-88.914827984726656
 21
3.4859927232833798
 31
0.0
1001
HATCH_DISTANCE
1040
1.0
1001
HATCH_DISPLAY
1070
     0
1001
HATCH_TYPE
1070
     7
  0
LINE
  5
1833
  8
247
 10
-88.9061419190528
 20
5.8807150657745293
 30
0.0
 11
-89.592821759140719
 21
3.4859927232833798
 31
0.0
1001
HATCH_DISTANCE
1040
1.0
1001
HATCH_DISPLAY
1070
     0
1001
HATCH_TYPE
1070
     7
  0
LINE
  5
1834
  8
247
 10
-89.016520184433659
 20
5.8807150657745293
 30
0.0
 11
-88.9061419190528
 21
5.8807150657745293
 31
0.0
1001
HATCH_DISTANCE
1040
1.0
1001
HATCH_DISPLAY
1070
     0
1001
HATCH_TYPE
1070
     7
  0
LINE
  5
1835
  8
247
 10
-88.920904797470769
 20
6.2141501243682793
 30
0.0
 11
-89.016520184433659
 21
5.8807150657745293
 31
0.0
1001
HATCH_DISTANCE
1040
1.0
1001
HATCH_DISPLAY
1070
     0
1001
HATCH_TYPE
1070
     7
  0
LINE
  5
1836
  8
247
 10
-88.132544201767658
 20
6.2141501243682793
 30
0.0
 11
-88.920904797470769
 21
6.2141501243682793
 31
0.0
  0
LINE
  5
1837
  8
247
 10
-88.914827984726656
 20
3.4859927232833798
 30
0.0
 11
-88.132544201767658
 21
6.2141501243682793
 31
0.0
  0
LINE
  5
1838
  8
247
 10
-89.592821759140719
 20
3.4859927232833798
 30
0.0
 11
-88.914827984726656
 21
3.4859927232833798
 31
0.0
  0
LINE
  5
1839
  8
247
 10
-88.9061419190528
 20
5.8807150657745293
 30
0.0
 11
-89.592821759140719
 21
3.4859927232833798
 31
0.0
  0
LINE
  5
183A
  8
247
 10
-89.016520184433659
 20
5.8807150657745293
 30
0.0
 11
-88.9061419190528
 21
5.8807150657745293
 31
0.0
  0
LINE
  5
183B
  8
247
 10
-88.920904797470769
 20
6.2141501243682793
 30
0.0
 11
-89.016520184433659
 21
5.8807150657745293
 31
0.0
  0
LINE
  5
183C
  8
247
 10
-88.932643991371066
 20
3.4859927232833741
 30
0.0
 11
-88.907665560124556
 21
3.510971154529904
 31
0.0
  0
LINE
  5
183D
  8
247
 10
-89.269403595911172
 20
3.4859927232833812
 30
0.0
 11
-88.77228082859142
 21
3.9831154906031472
 31
0.0
  0
LINE
  5
183E
  8
247
 10
-89.587458134539574
 20
3.5046977891950561
 30
0.0
 11
-88.636896097058269
 21
4.4552598266763681
 31
0.0
  0
LINE
  5
183F
  8
247
 10
-89.452071555418598
 20
3.9768439728561509
 30
0.0
 11
-88.501511365525133
 21
4.9274041627496104
 31
0.0
  0
LINE
  5
1840
  8
247
 10
-89.316684976297609
 20
4.4489901565172332
 30
0.0
 11
-88.366126633991996
 21
5.3995484988228384
 31
0.0
  0
LINE
  5
1841
  8
247
 10
-89.18129839717659
 20
4.9211363401783279
 30
0.0
 11
-88.23074190245886
 21
5.8716928348960664
 31
0.0
  0
LINE
  5
1842
  8
247
 10
-89.0459118180556
 20
5.3932825238394031
 30
0.0
 11
-88.225044217526744
 21
6.214150124368266
 31
0.0
  0
LINE
  5
1843
  8
247
 10
-88.910525238934625
 20
5.8654287075005049
 30
0.0
 11
-88.561803822066821
 21
6.2141501243682811
 31
0.0
  0
LINE
  5
1844
  8
247
 10
-88.929887144497755
 20
6.1828264064774601
 30
0.0
 11
-88.898563426606927
 21
6.2141501243682731
 31
0.0
  0
LINE
  5
1845
  8
247
 10
-85.261293461690997
 20
3.1162279984823078
 30
0.0
 11
-84.267742040481266
 21
4.1097794196920461
 31
0.0
  0
LINE
  5
1846
  8
247
 10
-84.583612044788325
 20
4.1306690199250999
 30
0.0
 11
-84.185590982698145
 21
4.52869008201528
 31
0.0
  0
LINE
  5
1847
  8
247
 10
-85.680204124014253
 20
3.0340769406991859
 30
0.0
 11
-85.282183061924073
 21
3.4320980027893659
 31
0.0
  0
LINE
  5
1848
  8
247
 10
-84.487292132048168
 20
4.5637485372053561
 30
0.0
 11
-84.199365719807403
 21
4.8516749494461058
 31
0.0
  0
LINE
  5
1849
  8
247
 10
-86.019744593442184
 20
3.0312960758113472
 30
0.0
 11
-85.715262579204349
 21
3.3357780900491809
 31
0.0
  0
LINE
  5
184A
  8
247
 10
-84.511203581581995
 20
4.8765966922116268
 30
0.0
 11
-84.263814937924835
 21
5.1239853358687881
 31
0.0
  0
LINE
  5
184B
  8
247
 10
-86.356504197982247
 20
3.0312960758113539
 30
0.0
 11
-86.053373102268054
 21
3.3344271715255531
 31
0.0
  0
LINE
  5
184C
  8
247
 10
-84.591383380211326
 20
5.1331764981223946
 30
0.0
 11
-84.364124008152146
 21
5.3604358701815613
 31
0.0
  0
LINE
  5
184D
  8
247
 10
-86.693263802522338
 20
3.0312960758113472
 30
0.0
 11
-86.390132706808146
 21
3.3344271715255469
 31
0.0
  0
LINE
  5
184E
  8
247
 10
-84.711045763435195
 20
5.3502737194386043
 30
0.0
 11
-84.493692191886439
 21
5.5676272909873603
 31
0.0
  0
LINE
  5
184F
  8
247
 10
-87.030023407062458
 20
3.0312960758113539
 30
0.0
 11
-86.726892311348251
 21
3.3344271715255531
 31
0.0
  0
LINE
  5
1850
  8
247
 10
-84.863834078305871
 20
5.53424500910804
 30
0.0
 11
-84.649487986723358
 21
5.7485911006905317
 31
0.0
  0
LINE
  5
1851
  8
247
 10
-87.36678301160255
 20
3.0312960758113539
 30
0.0
 11
-87.063651915888343
 21
3.3344271715255611
 31
0.0
  0
LINE
  5
1852
  8
247
 10
-85.048015732352255
 20
5.6868229596017272
 30
0.0
 11
-84.830621062358318
 21
5.9042176295956628
 31
0.0
  0
LINE
  5
1853
  8
247
 10
-87.703542616142627
 20
3.0312960758113472
 30
0.0
 11
-87.400411520428435
 21
3.3344271715255611
 31
0.0
  0
LINE
  5
1854
  8
247
 10
-85.265347591939758
 20
5.806250704554329
 30
0.0
 11
-85.037994014380445
 21
6.0336042821136502
 31
0.0
  0
LINE
  5
1855
  8
247
 10
-88.040302220682733
 20
3.031296075811361
 30
0.0
 11
-87.737171124968526
 21
3.3344271715255678
 31
0.0
  0
LINE
  5
1856
  8
247
 10
-85.522227693081348
 20
5.8861302079528173
 30
0.0
 11
-85.274655622925991
 21
6.1337022781082018
 31
0.0
  0
LINE
  5
1857
  8
247
 10
-88.377061825222825
 20
3.0312960758113539
 30
0.0
 11
-88.073930729508618
 21
3.3344271715255611
 31
0.0
  0
LINE
  5
1858
  8
247
 10
-85.835558726918947
 20
5.9095587786553159
 30
0.0
 11
-85.547239782241419
 21
6.1978777233328444
 31
0.0
  0
LINE
  5
1859
  8
247
 10
-88.713821429762916
 20
3.0312960758113539
 30
0.0
 11
-88.410690334048724
 21
3.3344271715255469
 31
0.0
  0
LINE
  5
185A
  8
247
 10
-86.117725254431292
 20
5.9641518556830491
 30
0.0
 11
-85.87065014165546
 21
6.2112269684588952
 31
0.0
  0
LINE
  5
185B
  8
247
 10
-89.050581034303008
 20
3.0312960758113539
 30
0.0
 11
-88.747449938588773
 21
3.3344271715255678
 31
0.0
  0
LINE
  5
185C
  8
247
 10
-89.387340638843114
 20
3.0312960758113539
 30
0.0
 11
-89.084209543128893
 21
3.3344271715255611
 31
0.0
  0
LINE
  5
185D
  8
247
 10
-89.724100243383205
 20
3.031296075811361
 30
0.0
 11
-89.420969147668984
 21
3.334427171525582
 31
0.0
  0
LINE
  5
185E
  8
247
 10
-90.060859847923297
 20
3.0312960758113472
 30
0.0
 11
-89.757728752209061
 21
3.3344271715255678
 31
0.0
  0
LINE
  5
185F
  8
247
 10
-90.397619452463374
 20
3.0312960758113681
 30
0.0
 11
-90.094488356749153
 21
3.3344271715255749
 31
0.0
  0
LINE
  5
1860
  8
247
 10
-90.734379057003494
 20
3.0312960758113539
 30
0.0
 11
-90.431247961289259
 21
3.3344271715255611
 31
0.0
  0
LINE
  5
1861
  8
247
 10
-91.071138661543571
 20
3.0312960758113681
 30
0.0
 11
-90.76800756582935
 21
3.3344271715255749
 31
0.0
  0
LINE
  5
1862
  8
247
 10
-91.407898266083635
 20
3.031296075811361
 30
0.0
 11
-91.104767170369456
 21
3.3344271715255611
 31
0.0
  0
LINE
  5
1863
  8
247
 10
-91.74465787062374
 20
3.0312960758113761
 30
0.0
 11
-91.441526774909534
 21
3.3344271715255678
 31
0.0
  0
LINE
  5
1864
  8
247
 10
-92.074625815419466
 20
3.0380877355557341
 30
0.0
 11
-91.778286379449597
 21
3.3344271715255678
 31
0.0
  0
LINE
  5
1865
  8
247
 10
-92.358714977695399
 20
3.0907581778199078
 30
0.0
 11
-92.103062841842686
 21
3.3464103136726351
 31
0.0
  0
LINE
  5
1866
  8
247
 10
-92.604076931073607
 20
3.1821558289817768
 30
0.0
 11
-92.372576800221964
 21
3.4136559598334411
 31
0.0
  0
LINE
  5
1867
  8
247
 10
-92.818836891664958
 20
3.3041554729305309
 30
0.0
 11
-92.599545863322575
 21
3.5234465012729208
 31
0.0
  0
LINE
  5
1868
  8
247
 10
-93.006788165660964
 20
3.4529638034746091
 30
0.0
 11
-92.792226615310554
 21
3.6675253538250341
 31
0.0
  0
LINE
  5
1869
  8
247
 10
-93.169338850052256
 20
3.6271727236234241
 30
0.0
 11
-92.953392721601176
 21
3.843118852074475
 31
0.0
  0
LINE
  5
186A
  8
247
 10
-93.306080356382694
 20
3.8271908218330641
 30
0.0
 11
-93.082254356089578
 21
4.0510168221261793
 31
0.0
  0
LINE
  5
186B
  8
247
 10
-91.559011761903207
 20
5.9110190208526481
 30
0.0
 11
-91.320198682715841
 21
6.1498321000400216
 31
0.0
  0
LINE
  5
186C
  8
247
 10
-93.414630399225416
 20
4.055400383530432
 30
0.0
 11
-93.173956554241073
 21
4.2960742285147901
 31
0.0
  0
LINE
  5
186D
  8
247
 10
-91.895771366443284
 20
5.9110190208526561
 30
0.0
 11
-91.592640262927674
 21
6.2141501243682811
 31
0.0
  0
LINE
  5
186E
  8
247
 10
-93.489585082532642
 20
4.3172053047633048
 30
0.0
 11
-93.215667925285473
 21
4.5911224620104667
 31
0.0
  0
LINE
  5
186F
  8
247
 10
-92.282266769381906
 20
5.861283222454162
 30
0.0
 11
-91.929400713428663
 21
6.2141492784073762
 31
0.0
  0
LINE
  5
1870
  8
247
 10
-93.519185811861433
 20
4.6243641799746271
 30
0.0
 11
-93.166319755908205
 21
4.9772302359278413
 31
0.0
  0
LINE
  5
1871
  8
247
 10
-93.471691299474202
 20
5.0086182969019504
 30
0.0
 11
-92.313654830356015
 21
6.1666547660201232
 31
0.0
  0
LINE
  5
1872
  8
247
 10
-86.754570565626608
 20
3.6435085217873029
 30
0.0
 11
-86.470389731414187
 21
3.9276893559997532
 31
0.0
  0
LINE
  5
1873
  8
247
 10
-87.244249108939925
 20
3.4905895830140561
 30
0.0
 11
-86.335003690536396
 21
4.3998350014175784
 31
0.0
  0
LINE
  5
1874
  8
247
 10
-87.101233686391765
 20
3.9703646101023078
 30
0.0
 11
-86.199617649658677
 21
4.871980646835417
 31
0.0
  0
LINE
  5
1875
  8
247
 10
-87.560492684227881
 20
3.5111056122662059
 30
0.0
 11
-87.204611806398162
 21
3.8669864900959112
 31
0.0
  0
LINE
  5
1876
  8
247
 10
-86.94847774707911
 20
4.4598801539550621
 30
0.0
 11
-86.376405347466687
 21
5.0319525535674918
 31
0.0
  0
LINE
  5
1877
  8
247
 10
-87.805274929373269
 20
3.6030829716609172
 30
0.0
 11
-87.540588254500634
 21
3.8677696465335378
 31
0.0
  0
LINE
  5
1878
  8
247
 10
-87.016296055522389
 20
4.728821450051881
 30
0.0
 11
-86.713164952006792
 21
5.0319525535674989
 31
0.0
  0
LINE
  5
1879
  8
247
 10
-88.002546629090716
 20
3.7425708764835761
 30
0.0
 11
-87.68150822775732
 21
4.0636092778169441
 31
0.0
  0
LINE
  5
187A
  8
247
 10
-86.270109867394723
 20
5.8117672427196458
 30
0.0
 11
-86.238549191813149
 21
5.843327918301191
 31
0.0
  0
LINE
  5
187B
  8
247
 10
-88.158361334424654
 20
3.9235157756897219
 30
0.0
 11
-87.606167264726807
 21
4.4757098453875344
 31
0.0
  0
LINE
  5
187C
  8
247
 10
-86.691242651248686
 20
5.7273940634057681
 30
0.0
 11
-86.319282838667036
 21
6.0993538759874042
 31
0.0
  0
LINE
  5
187D
  8
247
 10
-88.270230711199716
 20
4.1484060034547241
 30
0.0
 11
-87.470780763652726
 21
4.9478559510017117
 31
0.0
  0
LINE
  5
187E
  8
247
 10
-86.884605449363804
 20
5.8707908698307421
 30
0.0
 11
-86.657622944829086
 21
6.0977733743654801
 31
0.0
  0
LINE
  5
187F
  8
247
 10
-88.323804136194994
 20
4.431592182999573
 30
0.0
 11
-87.335394262578674
 21
5.4200020566158846
 31
0.0
  0
LINE
  5
1880
  8
247
 10
-88.276087044012172
 20
4.8160688797224651
 30
0.0
 11
-86.902741314242533
 21
6.1894146094921041
 31
0.0
  0
LINE
  5
1881
  8
247
 10
-88.164285272643355
 20
5.2646302556314017
 30
0.0
 11
-87.219598120560136
 21
6.2093174077146003
 31
0.0
  0
TEXT
  5
1882
  8
247
 10
-83.175511192094277
 20
3.4634916193898619
 30
0.0
 40
2.5
  1
ST16-BFM8/14-20
  7
YOKO
 11
-83.175511192094277
 21
3.4634916193898619
 31
0.0
 73
     1
  0
LINE
  5
1883
  8
247
 10
-86.23323695079111
 20
5.8264815147491307
 30
0.0
 11
-86.324526471054796
 21
6.1159827049346758
 31
0.0
  0
ARC
  5
1884
  8
247
 10
-85.774237317002019
 20
4.6227232750030458
 30
0.0
 40
1.288299322128293
 50
110.8721834020772
 51
132.54194893738571
  0
ARC
  5
1885
  8
247
 10
-86.963438671982516
 20
5.5624205406280458
 30
0.0
 40
0.3182875066995621
 50
1.7101213820643839
 51
163.99839835444811
  0
LINE
  5
1886
  8
247
 10
-87.677927655136799
 20
4.2254530723663342
 30
0.0
 11
-87.269396466171955
 21
5.6501623924346944
 31
0.0
  0
ARC
  5
1887
  8
247
 10
-87.371969860947345
 20
4.1377226646514824
 30
0.0
 40
0.3182872831821442
 50
164.0002730571837
 51
344.00027305718362
  0
LINE
  5
1888
  8
247
 10
-87.066012066757878
 20
4.0499922569366467
 30
0.0
 11
-86.87135950938486
 21
4.7288214500518801
 31
0.0
  0
LINE
  5
1889
  8
247
 10
-87.123633068955158
 20
4.7288214500518801
 30
0.0
 11
-86.87135950938486
 21
4.7288214500518801
 31
0.0
  0
LINE
  5
188A
  8
247
 10
-87.123633068955158
 20
4.7288214500518801
 30
0.0
 11
-87.036715191757878
 21
5.031952553567506
 31
0.0
  0
LINE
  5
188B
  8
247
 10
-87.036715191757878
 20
5.031952553567506
 30
0.0
 11
-86.153746289169987
 21
5.0319525535674909
 31
0.0
  0
LINE
  5
188C
  8
247
 10
-86.597044629013723
 20
3.4859927232833869
 30
0.0
 11
-86.153746289169987
 21
5.0319525535674909
 31
0.0
  0
LINE
  5
188D
  8
247
 10
-86.77486292735361
 20
3.6637995775314351
 30
0.0
 11
-86.597044629013723
 21
3.4859927232833869
 31
0.0
  0
ARC
  5
188E
  8
247
 10
-87.339422863877004
 20
4.4711577232452324
 30
0.0
 40
0.9851760864257813
 50
163.99975070172709
 51
304.96387329163082
  0
ARC
  5
188F
  8
247
 10
-85.72871271983405
 20
4.4193617637725771
 30
0.0
 40
2.5780792236328121
 50
155.20517736984181
 51
172.7948259620502
  0
ARC
  5
1890
  8
247
 10
-87.122122448837956
 20
5.2289854820342949
 30
0.0
 40
0.9851660728454588
 50
53.4440121970555
 51
164.00018438768501
  0
ARC
  5
1891
  8
247
 10
-85.774237317002019
 20
4.6227232750030458
 30
0.0
 40
1.591427564620969
 50
110.22964506332001
 51
118.57168892371681
  0
LINE
  5
1892
  8
247
 10
-91.301756543076237
 20
6.2141501243682864
 30
0.0
 11
-91.388674420273517
 21
5.9110190208526632
 31
0.0
  0
LINE
  5
1893
  8
247
 10
-91.927759808457111
 20
6.2141501243682864
 30
0.0
 11
-91.301756543076237
 21
6.2141501243682864
 31
0.0
  0
LINE
  5
1894
  8
247
 10
-91.927759808457111
 20
5.9110190208526632
 30
0.0
 11
-91.388674420273517
 21
5.9110190208526632
 31
0.0
  0
ARC
  5
1895
  8
247
 10
-91.927759808457111
 20
4.6227232750030458
 30
0.0
 40
1.288295745849608
 50
90.0
 51
270.0
  0
ARC
  5
1896
  8
247
 10
-91.927759808457111
 20
4.6227232750030458
 30
0.0
 40
1.591426849365233
 50
90.0
 51
270.0
  0
LINE
  5
1897
  8
247
 10
-91.927759808457111
 20
3.0312960758113681
 30
0.0
 11
-85.774237317002019
 21
3.0312960758113539
 31
0.0
  0
LINE
  5
1898
  8
247
 10
-91.927759808457111
 20
3.334427171525574
 30
0.0
 11
-85.774237317002019
 21
3.334427171525558
 31
0.0
  0
ARC
  5
1899
  8
247
 10
-85.774237317002019
 20
4.6227232750030458
 30
0.0
 40
1.591426849365233
 50
270.0
 51
104.7707939660941
  0
ARC
  5
189A
  8
247
 10
-85.774237317002019
 20
4.6227232750030458
 30
0.0
 40
1.288295745849608
 50
270.0
 51
104.1274364964119
  0
LINE
  5
189B
  8
247
 10
-86.088686627304767
 20
5.872063332376082
 30
0.0
 11
-86.179976147568453
 21
6.1615645225616307
 31
0.0
  0
LINE
  5
189C
  8
247
 10
-88.914827984726656
 20
3.4859927232833869
 30
0.0
 11
-88.132544201767658
 21
6.2141501243682864
 31
0.0
  0
LINE
  5
189D
  8
247
 10
-91.768698376572345
 20
3.4859927232833869
 30
0.0
 11
-91.073332470810968
 21
5.9110190208517803
 31
0.0
  0
LINE
  5
189E
  8
247
 10
-90.404738025594938
 20
4.3712159208401546
 30
0.0
 11
-89.410758349663553
 21
5.3651955967715841
 31
0.0
  0
LINE
  5
189F
  8
247
 10
-91.555005590551772
 20
4.2312271695036658
 30
0.0
 11
-90.493916386291886
 21
5.2923163737635104
 31
0.0
  0
ARC
  5
18A0
  8
247
 10
-90.501265210068453
 20
5.4866377647491378
 30
0.0
 40
0.4546839594841006
 50
261.6626016879294
 51
66.338155095189762
  0
LINE
  5
18A1
  8
247
 10
-90.522290875413475
 20
4.5904226755617508
 30
0.0
 11
-89.437542667813744
 21
5.6751708831614698
 31
0.0
  0
ARC
  5
18A2
  8
247
 10
-90.163080853379
 20
5.4563338096710128
 30
0.0
 40
0.7578227519989014
 50
287.66957754739798
 51
90.236159842671626
  0
LINE
  5
18A3
  8
247
 10
-91.419619968874784
 20
4.7033723957207316
 30
0.0
 11
-90.358535233322002
 21
5.7644571312734882
 31
0.0
  0
LINE
  5
18A4
  8
247
 10
-90.318782084500384
 20
5.9030959401942029
 30
0.0
 11
-90.567194616015357
 21
5.036759096168808
 31
0.0
  0
LINE
  5
18A5
  8
247
 10
-89.592821759140719
 20
3.4859927232833869
 30
0.0
 11
-88.9061419190528
 21
5.8807150657745382
 31
0.0
  0
LINE
  5
18A6
  8
247
 10
-88.920904797470769
 20
6.2141501243682864
 30
0.0
 11
-88.132544201767658
 21
6.2141501243682864
 31
0.0
  0
LINE
  5
18A7
  8
247
 10
-90.254474947152175
 20
5.8685174174433259
 30
0.0
 11
-89.941847467517846
 21
6.1811448970776564
 31
0.0
  0
LINE
  5
18A8
  8
247
 10
-90.095141661003908
 20
5.6910910990515191
 30
0.0
 11
-89.717159577460862
 21
6.0690731825945479
 31
0.0
  0
LINE
  5
18A9
  8
247
 10
-91.144091290390506
 20
6.2141501243682864
 30
0.0
 11
-90.166204413205975
 21
6.2141501243681718
 31
0.0
  0
LINE
  5
18AA
  8
247
 10
-91.148848725520807
 20
5.6476628481548943
 30
0.0
 11
-90.582361449307456
 21
6.2141501243682287
 31
0.0
  0
LINE
  5
18AB
  8
247
 10
-91.231009167588311
 20
5.9110190208526632
 30
0.0
 11
-91.073332470810968
 21
5.9110190208517803
 31
0.0
  0
LINE
  5
18AC
  8
247
 10
-91.144091290390506
 20
6.2141501243682864
 30
0.0
 11
-91.231009167588311
 21
5.9110190208526632
 31
0.0
  0
LINE
  5
18AD
  8
247
 10
-91.222252157363144
 20
5.9110190208526339
 30
0.0
 11
-90.919121053847533
 21
6.2141501243682589
 31
0.0
  0
LINE
  5
18AE
  8
247
 10
-90.056288860028374
 20
5.39318429548696
 30
0.0
 11
-89.549028222462397
 21
5.9004449330529516
 31
0.0
  0
LINE
  5
18AF
  8
247
 10
-91.284234347197781
 20
5.1755176219377992
 30
0.0
 11
-90.245601844767407
 21
6.2141501243681718
 31
0.0
  0
LINE
  5
18B0
  8
247
 10
-89.016520184433659
 20
5.8807150657745382
 30
0.0
 11
-88.9061419190528
 21
5.8807150657745382
 31
0.0
  0
LINE
  5
18B1
  8
247
 10
-89.016520184433659
 20
5.8807150657745382
 30
0.0
 11
-88.920904797470769
 21
6.2141501243682864
 31
0.0
  0
LINE
  5
18B2
  8
247
 10
-90.953201618611672
 20
3.4859927232833869
 30
0.0
 11
-89.840944678753971
 21
4.5982496631410887
 31
0.0
  0
ARC
  5
18B3
  8
247
 10
-90.510763806259845
 20
4.2438093956085128
 30
0.0
 40
0.7578163146972659
 50
270.0
 51
40.329840654168393
  0
LINE
  5
18B4
  8
247
 10
-90.616442014071566
 20
3.485992723283359
 30
0.0
 11
-89.759463296712568
 21
4.3429714406423852
 31
0.0
  0
LINE
  5
18B5
  8
247
 10
-91.690391212228704
 20
3.7590819432866018
 30
0.0
 11
-90.407811740806267
 21
5.0416614147090542
 31
0.0
  0
ARC
  5
18B6
  8
247
 10
-90.848948162949327
 20
4.2741247947784347
 30
0.0
 40
0.4546969681978227
 50
261.6628542111489
 51
66.338192159110065
  0
LINE
  5
18B7
  8
247
 10
-90.666461419456056
 20
4.6905955876769232
 30
0.0
 11
-90.914878037671116
 21
3.824233047235265
 31
0.0
  0
LINE
  5
18B8
  8
247
 10
-91.626720827691855
 20
3.4859927232833869
 30
0.0
 11
-90.764688421008216
 21
4.3480251299670387
 31
0.0
  0
LINE
  5
18B9
  8
247
 10
-90.222864852019285
 20
3.5428102807955622
 30
0.0
 11
-89.809764691446915
 21
3.9559104413679189
 31
0.0
  0
LINE
  5
18BA
  8
247
 10
-91.768698376572345
 20
3.4859927232833869
 30
0.0
 11
-90.510763806259845
 21
3.4859927232833869
 31
0.0
  0
LINE
  5
18BB
  8
247
 10
-91.289961223151764
 20
3.4859927232833869
 30
0.0
 11
-90.90006706678011
 21
3.875886879655055
 31
0.0
  0
LINE
  5
18BC
  8
247
 10
-89.592821759140719
 20
3.4859927232833869
 30
0.0
 11
-88.914827984726656
 21
3.4859927232833869
 31
0.0
  0
ENDBLK
  5
18C0
  8
0
  0
BLOCK
  8
0
  2
*U19
 70
     1
 10
0.0
 20
0.0
 30
0.0
  3
*U19
  1

  0
TEXT
  5
18DC
  8
250
 62
    40
 10
155.8571428571428
 20
64.107142857142861
 30
0.0
 40
1.5
  1
(
 50
90.0
  0
TEXT
  5
18DD
  8
250
 62
    40
 10
155.8571428571428
 20
65.107142857142861
 30
0.0
 40
1.5
  1
\U+2205
 50
90.0
  0
TEXT
  5
18DE
  8
250
 62
    40
 10
155.8571428571428
 20
66.464285714285722
 30
0.0
 40
1.5
  1
5
 50
90.0
  0
TEXT
  5
18DF
  8
250
 62
    40
 10
155.8571428571428
 20
67.892857142857153
 30
0.0
 40
1.5
  1
)
 50
90.0
  0
ENDBLK
  5
18E1
  8
0
  0
BLOCK
  8
0
  2
*U20
 70
     1
 10
0.0
 20
0.0
 30
0.0
  3
*U20
  1

  0
TEXT
  5
18E3
  8
250
 62
    40
 10
122.0
 20
72.072142857142836
 30
0.0
 40
1.5
  1
\U+2205
 50
90.0
  0
TEXT
  5
18E4
  8
250
 62
    40
 10
122.0
 20
73.429285714285683
 30
0.0
 40
1.5
  1
8.2
 50
90.0
  0
TEXT
  5
18E5
  8
250
 62
    40
 10
120.59999999999989
 20
77.000714285714253
 30
0.0
 40
1.05
  1
 0
 50
90.0
  0
TEXT
  5
18E6
  8
250
 62
    40
 10
122.0
 20
77.000714285714253
 30
0.0
 40
1.05
  1
 -0.1
 50
90.0
  0
ENDBLK
  5
18E8
  8
0
  0
BLOCK
  8
0
  2
*U21
 70
     1
 10
0.0
 20
0.0
 30
0.0
  3
*U21
  1

  0
INSERT
  5
18EA
  8
250
  6
CONTINUOUS
  2
_OPEN
 10
14.00000000000057
 20
0.0
 30
0.0
 41
1.1149999999999991
 42
1.1149999999999991
 43
1.1149999999999991
 50
128.3849322923293
  0
POLYLINE
  5
18EB
  8
250
  6
CONTINUOUS
 66
     1
 10
0.0
 20
0.0
 30
0.0
  0
VERTEX
  5
18EC
  8
250
  6
CONTINUOUS
 10
14.692349953383349
 20
-0.8740003100976931
 30
0.0
  0
VERTEX
  5
18ED
  8
250
  6
CONTINUOUS
 10
23.956020854452959
 20
-12.568160468004921
 30
0.0
  0
SEQEND
  5
18EE
  8
250
  6
CONTINUOUS
  0
ENDBLK
  5
18F0
  8
0
  0
BLOCK
  8
0
  2
*U22
 70
     1
 10
0.0
 20
0.0
 30
0.0
  3
*U22
  1

  0
TEXT
  5
18F2
  8
250
 62
    40
 10
25.456020854452959
 20
-12.068160468004921
 30
0.0
 40
1.5
  1
センタ穴
  7
YOKO
  0
ENDBLK
  5
18F4
  8
0
  0
BLOCK
  8
0
  2
*U23
 70
     1
 10
0.0
 20
0.0
 30
0.0
  3
*U23
  1

  0
TEXT
  5
18F6
  8
250
 62
    40
 10
25.17030656873867
 20
-14.8538747537192
 30
0.0
 40
1.5
  1
(A-1,M時用)
  7
YOKO
  0
ENDBLK
  5
18F8
  8
0
  0
BLOCK
  8
0
  2
*U24
 70
     1
 10
0.0
 20
0.0
 30
0.0
  3
*U24
  1

  0
TEXT
  5
18FA
  8
250
 62
    40
 10
-102.66232170475649
 20
-11.73684235686296
 30
0.0
 40
1.5
  1
R1
 50
49.768604984405059
  0
ENDBLK
  5
18FC
  8
0
  0
BLOCK
  8
0
  2
*U25
 70
     1
 10
0.0
 20
0.0
 30
0.0
  3
*U25
  1

  0
INSERT
  5
18FE
  8
250
  6
CONTINUOUS
  2
_OPEN
 10
-98.645876110082384
 20
-7.763442237778853
 30
0.0
 41
1.1149999999999991
 42
1.1149999999999991
 43
1.1149999999999991
 50
49.768604984406132
  0
POLYLINE
  5
18FF
  8
250
  6
CONTINUOUS
 66
     1
 10
0.0
 20
0.0
 30
0.0
  0
VERTEX
  5
1900
  8
250
  6
CONTINUOUS
 10
-99.366027972824284
 20
-8.6146803329022816
 30
0.0
  0
VERTEX
  5
1901
  8
250
  6
CONTINUOUS
 10
-102.09606455441499
 20
-11.841654058253081
 30
0.0
  0
SEQEND
  5
1902
  8
250
  6
CONTINUOUS
  0
ENDBLK
  5
1904
  8
0
  0
BLOCK
  8
0
  2
*U26
 70
     1
 10
0.0
 20
0.0
 30
0.0
  3
*U26
  1

  0
TEXT
  5
1906
  8
250
 62
    40
 10
-95.718711777430727
 20
8.8357039674761246
 30
0.0
 40
1.5
  1
R1
 50
53.5413891233597
  0
ENDBLK
  5
1908
  8
0
  0
BLOCK
  8
0
  2
*U27
 70
     1
 10
0.0
 20
0.0
 30
0.0
  3
*U27
  1

  0
INSERT
  5
190A
  8
250
  6
CONTINUOUS
  2
_OPEN
 10
-98.594241944317176
 20
4.1957136631683483
 30
0.0
 41
1.1149999999999991
 42
1.1149999999999991
 43
1.1149999999999991
 50
233.54138912336171
  0
POLYLINE
  5
190B
  8
250
  6
CONTINUOUS
 66
     1
 10
0.0
 20
0.0
 30
0.0
  0
VERTEX
  5
190C
  8
250
  6
CONTINUOUS
 10
-97.931662176403464
 20
5.0924929287356653
 30
0.0
  0
VERTEX
  5
190D
  8
250
  6
CONTINUOUS
 10
-93.361232428875795
 20
11.27841473135987
 30
0.0
  0
SEQEND
  5
190E
  8
250
  6
CONTINUOUS
  0
ENDBLK
  5
1910
  8
0
  0
BLOCK
  8
0
  2
*U28
 70
     1
 10
0.0
 20
0.0
 30
0.0
  3
*U28
  1

  0
INSERT
  5
1912
  8
250
  6
CONTINUOUS
  2
_OPEN
 10
-22.848657775132232
 20
-1.8872760570805549
 30
0.0
 41
1.1149999999999991
 42
1.1149999999999991
 43
1.1149999999999991
 50
128.04056728805151
  0
POLYLINE
  5
1913
  8
250
  6
CONTINUOUS
 66
     1
 10
0.0
 20
0.0
 30
0.0
  0
VERTEX
  5
1914
  8
250
  6
CONTINUOUS
 10
-22.161573302041472
 20
-2.7654217891988671
 30
0.0
  0
VERTEX
  5
1915
  8
250
  6
CONTINUOUS
 10
-17.627173116004339
 20
-8.5607269183820947
 30
0.0
  0
SEQEND
  5
1916
  8
250
  6
CONTINUOUS
  0
ENDBLK
  5
1918
  8
0
  0
BLOCK
  8
0
  2
*U29
 70
     1
 10
0.0
 20
0.0
 30
0.0
  3
*U29
  1

  0
TEXT
  5
191A
  8
250
 62
    40
 10
-19.353472738838231
 20
-5.542986411422369
 30
0.0
 40
1.5
  1
R3
 50
308.04056728805142
  0
ENDBLK
  5
191C
  8
0
  0
BLOCK
  8
0
  2
*U30
 70
     1
 10
0.0
 20
0.0
 30
0.0
  3
*U30
  1

  0
INSERT
  5
191E
  8
250
  6
CONTINUOUS
  2
_OPEN
 10
-33.999999999999858
 20
2.2062366344386528
 30
0.0
 41
1.1149999999999991
 42
1.1149999999999991
 43
1.1149999999999991
 50
300.0
  0
POLYLINE
  5
191F
  8
250
  6
CONTINUOUS
 66
     1
 10
0.0
 20
0.0
 30
0.0
  0
VERTEX
  5
1920
  8
250
  6
CONTINUOUS
 10
-34.557499999999862
 20
3.171854959658301
 30
0.0
  0
VERTEX
  5
1921
  8
250
  6
CONTINUOUS
 10
-39.541392880985832
 20
11.804210649006791
 30
0.0
  0
SEQEND
  5
1922
  8
250
  6
CONTINUOUS
  0
ENDBLK
  5
1924
  8
0
  0
BLOCK
  8
0
  2
*U31
 70
     1
 10
0.0
 20
0.0
 30
0.0
  3
*U31
  1

  0
TEXT
  5
1926
  8
250
 62
    40
 10
-45.898535738128679
 20
12.304210649006791
 30
0.0
 40
1.5
  1
C0.3
  7
YOKO
  0
ENDBLK
  5
1928
  8
0
  0
BLOCK
  8
0
  2
*U32
 70
     1
 10
0.0
 20
0.0
 30
0.0
  3
*U32
  1

  0
INSERT
  5
192A
  8
250
  6
CONTINUOUS
  2
_OPEN
 10
-28.95517781832395
 20
7.9498284411089344
 30
0.0
 41
1.1149999999999991
 42
1.1149999999999991
 43
1.1149999999999991
 50
251.77367401136991
  0
POLYLINE
  5
192B
  8
250
  6
CONTINUOUS
 66
     1
 10
0.0
 20
0.0
 30
0.0
  0
VERTEX
  5
192C
  8
250
  6
CONTINUOUS
 10
-28.60643773619466
 20
9.0088871529452792
 30
0.0
  0
VERTEX
  5
192D
  8
250
  6
CONTINUOUS
 10
-27.700050904402641
 20
11.76141523816608
 30
0.0
  0
SEQEND
  5
192E
  8
250
  6
CONTINUOUS
  0
ENDBLK
  5
1930
  8
0
  0
BLOCK
  8
0
  2
*U33
 70
     1
 10
0.0
 20
0.0
 30
0.0
  3
*U33
  1

  0
TEXT
  5
1932
  8
250
 62
    40
 10
-28.889871122915881
 20
9.7467644883993856
 30
0.0
 40
1.5
  1
R1
 50
71.773674011369934
  0
ENDBLK
  5
1934
  8
0
  0
BLOCK
  8
0
  2
*U34
 70
     1
 10
0.0
 20
0.0
 30
0.0
  3
*U34
  1

  0
INSERT
  5
1936
  8
250
  6
CONTINUOUS
  2
_OPEN
 10
-22.356563894886019
 20
4.2790496055271339
 30
0.0
 41
1.1149999999999991
 42
1.1149999999999991
 43
1.1149999999999991
 50
252.7921035056705
  0
POLYLINE
  5
1937
  8
250
  6
CONTINUOUS
 66
     1
 10
0.0
 20
0.0
 30
0.0
  0
VERTEX
  5
1938
  8
250
  6
CONTINUOUS
 10
-22.02670262544747
 20
5.3441395279864468
 30
0.0
  0
VERTEX
  5
1939
  8
250
  6
CONTINUOUS
 10
-21.110769754582972
 20
8.3015975892721752
 30
0.0
  0
SEQEND
  5
193A
  8
250
  6
CONTINUOUS
  0
ENDBLK
  5
193C
  8
0
  0
BLOCK
  8
0
  2
*U35
 70
     1
 10
0.0
 20
0.0
 30
0.0
  3
*U35
  1

  0
TEXT
  5
193E
  8
250
 62
    40
 10
-22.480889943539729
 20
5.5677173512231484
 30
0.0
 40
1.5
  1
R4
 50
72.792103505668109
  0
ENDBLK
  5
1940
  8
0
  0
BLOCK
  8
0
  2
*U36
 70
     1
 10
0.0
 20
0.0
 30
0.0
  3
*U36
  1

  0
INSERT
  5
1942
  8
250
  6
CONTINUOUS
  2
_OPEN
 10
8.8500000000005343
 20
-6.950000000000002
 30
0.0
 41
1.1149999999999991
 42
1.1149999999999991
 43
1.1149999999999991
 50
134.99999999999849
  0
POLYLINE
  5
1943
  8
250
  6
CONTINUOUS
 66
     1
 10
0.0
 20
0.0
 30
0.0
  0
VERTEX
  5
1944
  8
250
  6
CONTINUOUS
 10
9.6384240610235121
 20
-7.7384240610230233
 30
0.0
  0
VERTEX
  5
1945
  8
250
  6
CONTINUOUS
 10
15.270403528033849
 20
-13.37040352803365
 30
0.0
  0
SEQEND
  5
1946
  8
250
  6
CONTINUOUS
  0
ENDBLK
  5
1948
  8
0
  0
BLOCK
  8
0
  2
*U37
 70
     1
 10
0.0
 20
0.0
 30
0.0
  3
*U37
  1

  0
TEXT
  5
194A
  8
250
 62
    40
 10
11.17928583120192
 20
-8.5721790500149329
 30
0.0
 40
1.5
  1
C0.3
 50
314.99999999999869
  0
ENDBLK
  5
194C
  8
0
  0
BLOCK
  8
0
  2
*U38
 70
     1
 10
0.0
 20
0.0
 30
0.0
  3
*U38
  1

  0
INSERT
  5
194E
  8
250
  6
CONTINUOUS
  2
_OPEN
 10
8.8499999999999641
 20
-1.099999999999965
 30
0.0
 41
1.1149999999999991
 42
1.1149999999999991
 43
1.1149999999999991
 50
135.0000000000054
  0
POLYLINE
  5
194F
  8
250
  6
CONTINUOUS
 66
     1
 10
0.0
 20
0.0
 30
0.0
  0
VERTEX
  5
1950
  8
250
  6
CONTINUOUS
 10
9.6384240610230414
 20
-1.8884240610228911
 30
0.0
  0
VERTEX
  5
1951
  8
250
  6
CONTINUOUS
 10
16.190549983743661
 20
-8.4405499837422795
 30
0.0
  0
SEQEND
  5
1952
  8
250
  6
CONTINUOUS
  0
ENDBLK
  5
1954
  8
0
  0
BLOCK
  8
0
  2
*U39
 70
     1
 10
0.0
 20
0.0
 30
0.0
  3
*U39
  1

  0
TEXT
  5
1956
  8
250
 62
    40
 10
12.099432286911121
 20
-3.642325505724068
 30
0.0
 40
1.5
  1
C0.3
 50
315.0000000000054
  0
ENDBLK
  5
1958
  8
0
  0
BLOCK
  8
0
  2
*U40
 70
     1
 10
0.0
 20
0.0
 30
0.0
  3
*U40
  1

  0
INSERT
  5
195A
  8
250
  6
CONTINUOUS
  2
_OPEN
 10
0.1999999999998749
 20
-7.0499999999999972
 30
0.0
 41
1.1149999999999991
 42
1.1149999999999991
 43
1.1149999999999991
 50
45.000000000008129
  0
POLYLINE
  5
195B
  8
250
  6
CONTINUOUS
 66
     1
 10
0.0
 20
0.0
 30
0.0
  0
VERTEX
  5
195C
  8
250
  6
CONTINUOUS
 10
-0.5884240610230135
 20
-7.8384240610231091
 30
0.0
  0
VERTEX
  5
195D
  8
250
  6
CONTINUOUS
 10
-5.905995731204797
 20
-13.155995731206399
 30
0.0
  0
SEQEND
  5
195E
  8
250
  6
CONTINUOUS
  0
ENDBLK
  5
1960
  8
0
  0
BLOCK
  8
0
  2
*U41
 70
     1
 10
0.0
 20
0.0
 30
0.0
  3
*U41
  1

  0
TEXT
  5
1962
  8
250
 62
    40
 10
-5.2493964686422769
 20
-11.79228968745584
 30
0.0
 40
1.5
  1
C0.1
 50
45.000000000008129
  0
ENDBLK
  5
1964
  8
0
  0
BLOCK
  8
0
  2
*U42
 70
     1
 10
0.0
 20
0.0
 30
0.0
  3
*U42
  1

  0
INSERT
  5
1966
  8
250
  6
CONTINUOUS
  2
_OPEN
 10
0.0579036568567517
 20
-4.244666222183028
 30
0.0
 41
1.1149999999999991
 42
1.1149999999999991
 43
1.1149999999999991
 50
39.667735046805902
  0
POLYLINE
  5
1967
  8
250
  6
CONTINUOUS
 66
     1
 10
0.0
 20
0.0
 30
0.0
  0
VERTEX
  5
1968
  8
250
  6
CONTINUOUS
 10
-0.8003777866312329
 20
-4.9564091278478344
 30
0.0
  0
VERTEX
  5
1969
  8
250
  6
CONTINUOUS
 10
-6.1280446208812691
 20
-9.3744576616866322
 30
0.0
  0
SEQEND
  5
196A
  8
250
  6
CONTINUOUS
  0
ENDBLK
  5
196C
  8
0
  0
BLOCK
  8
0
  2
*U43
 70
     1
 10
0.0
 20
0.0
 30
0.0
  3
*U43
  1

  0
TEXT
  5
196E
  8
250
 62
    40
 10
-5.9752834975021791
 20
-8.5982243516443653
 30
0.0
 40
1.5
  1
R0.4
 50
39.667735046804317
  0
ENDBLK
  5
1970
  8
0
  0
BLOCK
  8
0
  2
*U44
 70
     1
 10
0.0
 20
0.0
 30
0.0
  3
*U44
  1

  0
INSERT
  5
1972
  8
250
  6
CONTINUOUS
  2
_OPEN
 10
0.1999999999997612
 20
6.900000000000019
 30
0.0
 41
1.1149999999999991
 42
1.1149999999999991
 43
1.1149999999999991
 50
315.00000000005701
  0
POLYLINE
  5
1973
  8
250
  6
CONTINUOUS
 66
     1
 10
0.0
 20
0.0
 30
0.0
  0
VERTEX
  5
1974
  8
250
  6
CONTINUOUS
 10
-0.5884240610240238
 20
7.6884240610222347
 30
0.0
  0
VERTEX
  5
1975
  8
250
  6
CONTINUOUS
 10
-6.1549633778359967
 20
13.254963377823129
 30
0.0
  0
SEQEND
  5
1976
  8
250
  6
CONTINUOUS
  0
ENDBLK
  5
1978
  8
0
  0
BLOCK
  8
0
  2
*U45
 70
     1
 10
0.0
 20
0.0
 30
0.0
  3
*U45
  1

  0
TEXT
  5
197A
  8
250
 62
    40
 10
-4.7912574426893073
 20
12.59836422386608
 30
0.0
 40
1.5
  1
C0.1
 50
315.00000000005701
  0
ENDBLK
  5
197C
  8
0
  0
BLOCK
  8
0
  2
*U46
 70
     1
 10
0.0
 20
0.0
 30
0.0
  3
*U46
  1

  0
TEXT
  5
197E
  8
250
 62
    40
 10
21.35714285714289
 20
-2.3452380952380931
 30
0.0
 40
1.5
  1
(
 50
90.0
  0
TEXT
  5
197F
  8
250
 62
    40
 10
21.35714285714289
 20
-1.3452380952380929
 30
0.0
 40
1.5
  1
\U+2205
 50
90.0
  0
TEXT
  5
1980
  8
250
 62
    40
 10
21.307142857142878
 20
0.0119047619047632
 30
0.0
 40
1.399999999999999
  1
5
 50
90.0
  0
TEXT
  5
1981
  8
250
 62
    40
 10
21.35714285714289
 20
1.345238095238096
 30
0.0
 40
1.5
  1
)
 50
90.0
  0
ENDBLK
  5
1983
  8
0
  0
BLOCK
  8
0
  2
*U47
 70
     1
 10
0.0
 20
0.0
 30
0.0
  3
*U47
  1

  0
TEXT
  5
1985
  8
250
 62
    40
 10
-12.49999999999994
 20
5.5721428571428211
 30
0.0
 40
1.5
  1
\U+2205
 50
90.0
  0
TEXT
  5
1986
  8
250
 62
    40
 10
-12.49999999999994
 20
6.9292857142856779
 30
0.0
 40
1.399999999999999
  1
8.2
 50
90.0
  0
TEXT
  5
1987
  8
250
 62
    40
 10
-13.89999999999994
 20
10.26261904761901
 30
0.0
 40
1.05
  1
 0
 50
90.0
  0
TEXT
  5
1988
  8
250
 62
    40
 10
-12.49999999999994
 20
10.26261904761901
 30
0.0
 40
1.05
  1
 -0.1
 50
90.0
  0
ENDBLK
  5
198A
  8
0
  0
BLOCK
  8
0
  2
*U48
 70
     1
 10
0.0
 20
0.0
 30
0.0
  3
*U48
  1

  0
TEXT
  5
198C
  8
AM_5
 62
    40
 10
-49.199999999999939
 20
29.0
 30
0.0
 40
2.7999999999999989
  1
108
  0
ENDBLK
  5
198E
  8
0
  0
BLOCK
  8
0
  2
*U49
 70
     1
 10
0.0
 20
0.0
 30
0.0
  3
*U49
  1

  0
TEXT
  5
1990
  8
AM_5
 62
    40
 10
3.233333333333388
 20
22.0
 30
0.0
 40
2.7999999999999989
  1
9
  0
ENDBLK
  5
1992
  8
0
  0
BLOCK
  8
0
  2
*U50
 70
     1
 10
0.0
 20
0.0
 30
0.0
  3
*U50
  1

  0
TEXT
  5
1994
  8
AM_5
 62
    40
 10
-110.9999999999999
 20
-3.8000000000000118
 30
0.0
 40
2.7999999999999989
  1
\U+220516
 50
90.0
  0
ENDBLK
  5
1996
  8
0
  0
BLOCK
  8
0
  2
*U51
 70
     1
 10
0.0
 20
0.0
 30
0.0
  3
*U51
  1

  0
TEXT
  5
1998
  8
AM_5
 62
    40
 10
13.50526879546646
 20
-5.7999999999999989
 30
0.0
 40
2.7999999999999989
  1
\U+220513.6
 50
90.0
  0
ENDBLK
  5
199A
  8
0
  0
BLOCK
  8
0
  2
*U52
 70
     1
 10
0.0
 20
0.0
 30
0.0
  3
*U52
  1

  0
TEXT
  5
199C
  8
AM_5
 62
    40
 10
20.50526879546646
 20
-5.7333333333333334
 30
0.0
 40
2.7999999999999989
  1
\U+220513.9
 50
90.0
  0
ENDBLK
  5
199E
  8
0
  0
BLOCK
  8
0
  2
*U53
 70
     1
 10
0.0
 20
0.0
 30
0.0
  3
*U53
  1

  0
TEXT
  5
19A0
  8
AM_5
 62
    40
 10
-12.66666666666667
 20
22.0
 30
0.0
 40
2.7999999999999989
  1
20
  0
ENDBLK
  5
19A2
  8
0
  0
BLOCK
  8
0
  2
*U54
 70
     1
 10
0.0
 20
0.0
 30
0.0
  3
*U54
  1

  0
TEXT
  5
19A4
  8
AM_5
 62
    40
 10
20.0
 20
-3.8666666666666671
 30
0.0
 40
2.7999999999999989
  1
\U+220514
 50
90.0
  0
ENDBLK
  5
19A6
  8
0
  0
BLOCK
  8
0
  2
*U55
 70
     1
 10
0.0
 20
0.0
 30
0.0
  3
*U55
  1

  0
TEXT
  5
19A8
  8
250
 10
-49.199999999999939
 20
29.0
 30
0.0
 40
2.7999999999999989
  1
108
  0
ENDBLK
  5
19AA
  8
0
  0
ENDSEC
  0
SECTION
  2
ENTITIES
  0
TEXT
  5
16F4
  8
241
 10
-100.9223531821153
 20
39.394231981323259
 30
0.0
 40
4.0
  1
ST16-BFM8/14-20
  7
YOKO
  0
LINE
  5
1799
  8
250
 10
-20.000000000000011
 20
4.5999999999999668
 30
0.0
 11
-20.000000000000011
 21
22.0
 31
0.0
  0
LINE
  5
179A
  8
250
 10
-0.0000000000000113
 20
7.300000000000173
 30
0.0
 11
-0.0000000000000104
 21
22.0
 31
0.0
  0
LINE
  5
179B
  8
250
 10
-17.77000000000001
 20
21.0
 30
0.0
 11
-2.2300000000000102
 21
21.0
 31
0.0
  0
LINE
  5
179F
  8
250
 10
9.0000000000000568
 20
7.1500000000000048
 30
0.0
 11
9.0000000000000586
 21
22.0
 31
0.0
  0
LINE
  5
17A0
  8
250
 10
0.0000000000000532
 20
7.1500000000002268
 30
0.0
 11
0.0000000000000541
 21
22.0
 31
0.0
  0
LINE
  5
17A1
  8
250
 10
6.7700000000000564
 20
21.0
 30
0.0
 11
2.2300000000000542
 21
21.0
 31
0.0
  0
LINE
  5
17A5
  8
250
 10
-98.999999999999943
 20
7.5
 30
0.0
 11
-98.999999999999943
 21
29.0
 31
0.0
  0
LINE
  5
17A6
  8
250
 10
9.0000000000000568
 20
7.1500000000000048
 30
0.0
 11
9.0000000000000586
 21
29.0
 31
0.0
  0
LINE
  5
17A7
  8
250
 10
-96.769999999999939
 20
28.0
 30
0.0
 11
6.7700000000000582
 21
28.0
 31
0.0
  0
INSERT
  5
17AA
  8
240
  2
*U55
 10
0.0
 20
0.0
 30
0.0
  0
LINE
  5
17AB
  8
250
 10
-98.499999999999943
 20
8.0
 30
0.0
 11
-110.9999999999999
 21
8.0000000000000036
 31
0.0
  0
LINE
  5
17AC
  8
250
 10
-98.499999999999943
 20
-7.9999999999999991
 30
0.0
 11
-110.9999999999999
 21
-7.9999999999999956
 31
0.0
  0
LINE
  5
17AD
  8
250
 10
-109.9999999999999
 20
5.770000000000004
 30
0.0
 11
-109.9999999999999
 21
-5.769999999999996
 31
0.0
  0
LINE
  5
17B1
  8
250
 10
5.3000000000000114
 20
7.0000000000001741
 30
0.0
 11
22.0
 21
7.0000000000001679
 31
0.0
  0
LINE
  5
17B2
  8
250
 10
21.0
 20
4.7700000000001692
 30
0.0
 11
21.0
 21
-4.6000000000000041
 31
0.0
  0
TEXT
  5
17B5
  8
250
 10
20.0
 20
-3.8666666666666671
 30
0.0
 40
2.7999999999999989
  1
\U+220514
 50
90.0
  0
LINE
  5
17B6
  8
250
 10
20.62833333333333
 20
4.7700000000001701
 30
0.0
 11
21.0
 21
7.0000000000001688
 31
0.0
  0
LINE
  5
17B7
  8
250
 10
21.37166666666667
 20
4.7700000000001701
 30
0.0
 11
21.0
 21
7.0000000000001688
 31
0.0
  0
LINE
  5
17B8
  8
250
 10
21.0
 20
7.0000000000001688
 30
0.0
 11
21.0
 21
4.7700000000001701
 31
0.0
  0
TEXT
  5
17B9
  8
250
 10
-12.66666666666667
 20
22.0
 30
0.0
 40
2.7999999999999989
  1
20
  0
LINE
  5
17BA
  8
250
 10
-2.2300000000000102
 20
21.37166666666667
 30
0.0
 11
-0.0000000000000105
 21
21.0
 31
0.0
  0
LINE
  5
17BB
  8
250
 10
-2.2300000000000102
 20
20.62833333333333
 30
0.0
 11
-0.0000000000000105
 21
21.0
 31
0.0
  0
LINE
  5
17BC
  8
250
 10
-0.0000000000000105
 20
21.0
 30
0.0
 11
-2.2300000000000102
 21
21.0
 31
0.0
  0
LINE
  5
17BD
  8
250
 10
-17.77000000000001
 20
20.62833333333333
 30
0.0
 11
-20.000000000000011
 21
21.0
 31
0.0
  0
LINE
  5
17BE
  8
250
 10
-17.77000000000001
 20
21.37166666666667
 30
0.0
 11
-20.000000000000011
 21
21.0
 31
0.0
  0
LINE
  5
17BF
  8
250
 10
-20.000000000000011
 20
21.0
 30
0.0
 11
-17.77000000000001
 21
21.0
 31
0.0
  0
TEXT
  5
17C0
  8
250
 10
3.233333333333388
 20
22.0
 30
0.0
 40
2.7999999999999989
  1
9
  0
LINE
  5
17C1
  8
250
 10
2.2300000000000542
 20
20.62833333333333
 30
0.0
 11
0.000000000000054
 21
21.0
 31
0.0
  0
LINE
  5
17C2
  8
250
 10
2.2300000000000542
 20
21.37166666666667
 30
0.0
 11
0.000000000000054
 21
21.0
 31
0.0
  0
LINE
  5
17C3
  8
250
 10
0.000000000000054
 20
21.0
 30
0.0
 11
2.2300000000000542
 21
21.0
 31
0.0
  0
LINE
  5
17C4
  8
250
 10
6.7700000000000564
 20
21.37166666666667
 30
0.0
 11
9.0000000000000568
 21
21.0
 31
0.0
  0
LINE
  5
17C5
  8
250
 10
6.7700000000000564
 20
20.62833333333333
 30
0.0
 11
9.0000000000000568
 21
21.0
 31
0.0
  0
LINE
  5
17C6
  8
250
 10
9.0000000000000568
 20
21.0
 30
0.0
 11
6.7700000000000564
 21
21.0
 31
0.0
  0
LINE
  5
17C7
  8
250
 10
6.7700000000000582
 20
28.371666666666659
 30
0.0
 11
9.0000000000000586
 21
28.0
 31
0.0
  0
LINE
  5
17C8
  8
250
 10
6.7700000000000582
 20
27.62833333333333
 30
0.0
 11
9.0000000000000586
 21
28.0
 31
0.0
  0
LINE
  5
17C9
  8
250
 10
9.0000000000000586
 20
28.0
 30
0.0
 11
6.7700000000000582
 21
28.0
 31
0.0
  0
LINE
  5
17CA
  8
250
 10
-96.769999999999939
 20
27.62833333333333
 30
0.0
 11
-98.999999999999943
 21
28.0
 31
0.0
  0
LINE
  5
17CB
  8
250
 10
-96.769999999999939
 20
28.371666666666659
 30
0.0
 11
-98.999999999999943
 21
28.0
 31
0.0
  0
LINE
  5
17CC
  8
250
 10
-98.999999999999943
 20
28.0
 30
0.0
 11
-96.769999999999939
 21
28.0
 31
0.0
  0
TEXT
  5
17CD
  8
250
 10
-110.9999999999999
 20
-3.8000000000000118
 30
0.0
 40
2.7999999999999989
  1
\U+220516
 50
90.0
  0
LINE
  5
17CE
  8
250
 10
-109.6283333333333
 20
-5.7699999999999969
 30
0.0
 11
-109.9999999999999
 21
-7.9999999999999973
 31
0.0
  0
LINE
  5
17CF
  8
250
 10
-110.3716666666666
 20
-5.7699999999999969
 30
0.0
 11
-109.9999999999999
 21
-7.9999999999999973
 31
0.0
  0
LINE
  5
17D0
  8
250
 10
-109.9999999999999
 20
-7.9999999999999973
 30
0.0
 11
-109.9999999999999
 21
-5.7699999999999969
 31
0.0
  0
LINE
  5
17D1
  8
250
 10
-110.3716666666666
 20
5.7700000000000031
 30
0.0
 11
-109.9999999999999
 21
8.0000000000000036
 31
0.0
  0
LINE
  5
17D2
  8
250
 10
-109.6283333333333
 20
5.7700000000000031
 30
0.0
 11
-109.9999999999999
 21
8.0000000000000036
 31
0.0
  0
LINE
  5
17D3
  8
250
 10
-109.9999999999999
 20
8.0000000000000036
 30
0.0
 11
-109.9999999999999
 21
5.7700000000000031
 31
0.0
  0
INSERT
  5
18C2
  8
240
  2
A$C25D9604C
 10
0.0
 20
0.0
 30
0.0
  0
VIEWPORT
  5
22
 67
     1
  8
0
 10
261.51769911504419
 20
148.5
 30
0.0
 40
523.0353982300885
 41
297.0
 68
     1
 69
     1
1001
ACAD
1000
MVIEW
1002
{
1070
    16
1010
0.0
1020
0.0
1030
0.0
1010
0.0
1020
0.0
1030
1.0
1040
0.0
1040
297.0
1040
261.51769911504419
1040
148.5
1040
50.0
1040
0.0
1040
0.0
1070
     0
1070
   100
1070
     1
1070
     1
1070
     0
1070
     0
1070
     0
1070
     0
1040
0.0
1040
0.0
1040
0.0
1040
1.0
1040
1.0
1040
10.0
1040
10.0
1070
     0
1002
{
1002
}
1002
}
1001
GENIUS_GENODEF_13
1002
{
1000
HIER
1070
     0
1002
}
1002
{
1000
MANEDIT
1070
     0
1002
}
1002
{
1000
NOSEL
1070
     0
1002
}
1002
{
1000
BEHIND
1070
     0
1002
}
1002
{
1000
OTHER
1070
     0
1002
}
1002
{
1000
REACTOR
1002
}
1001
GENIUS_GENOBJ-N-SDF_13
1002
{
1000
OWNER
1000
GEN
1002
}
1001
GENIUS_GENSCREG_15
1000
PF
1040
1.0
1000
DF
1040
1.0
1000
MIN
1011
0.0
1021
0.0
1031
-0.0
1021
0.0
1031
0.0
1000
MAX
1011
523.0353982300885
1021
0.0
1031
-0.0
1021
297.0
1031
0.0
1000
FLAGS
1070
     2
  0
ENDSEC
  0
EOF
