  0
SECTION
  2
HEADER
  9
$ACADVER
  1
AC1009
  9
$INSBASE
 10
0.0
 20
0.0
 30
0.0
  9
$EXTMIN
 10
-107.8220209183893
 20
-8.2095332120190392
 30
-0.0015258207003583
  9
$EXTMAX
 10
22.015777959273919
 20
41.85836821312364
 30
0.0000000349246037
  9
$LIMMIN
 10
0.0
 20
0.0
  9
$LIMMAX
 10
297.0
 20
210.0
  9
$ORTHOMODE
 70
     1
  9
$REGENMODE
 70
     1
  9
$FILLMODE
 70
     1
  9
$QTEXTMODE
 70
     0
  9
$MIRRTEXT
 70
     1
  9
$DRAGMODE
 70
     2
  9
$LTSCALE
 40
10.0
  9
$OSMODE
 70
  3071
  9
$ATTMODE
 70
     1
  9
$TEXTSIZE
 40
3.0
  9
$TRACEWID
 40
1.0
  9
$TEXTSTYLE
  7
YOKO
  9
$CLAYER
  8
240
  9
$CELTYPE
  6
BYLAYER
  9
$CECOLOR
 62
   256
  9
$DIMSCALE
 40
1.0
  9
$DIMASZ
 40
2.2299999999999991
  9
$DIMEXO
 40
0.5
  9
$DIMDLI
 40
7.0
  9
$DIMRND
 40
0.0
  9
$DIMDLE
 40
0.0
  9
$DIMEXE
 40
1.0
  9
$DIMTP
 40
0.0
  9
$DIMTM
 40
0.01
  9
$DIMTXT
 40
2.7999999999999989
  9
$DIMCEN
 40
0.0
  9
$DIMTSZ
 40
0.0
  9
$DIMTOL
 70
     0
  9
$DIMLIM
 70
     0
  9
$DIMTIH
 70
     0
  9
$DIMTOH
 70
     0
  9
$DIMSE1
 70
     0
  9
$DIMSE2
 70
     0
  9
$DIMTAD
 70
     3
  9
$DIMZIN
 70
     9
  9
$DIMBLK
  1
OPEN
  9
$DIMASO
 70
     1
  9
$DIMSHO
 70
     1
  9
$DIMPOST
  1

  9
$DIMAPOST
  1

  9
$DIMALT
 70
     0
  9
$DIMALTD
 70
     2
  9
$DIMALTF
 40
25.399999999999999
  9
$DIMLFAC
 40
1.0
  9
$DIMTOFL
 70
     1
  9
$DIMTVP
 40
0.0
  9
$DIMTIX
 70
     1
  9
$DIMSOXD
 70
     0
  9
$DIMSAH
 70
     0
  9
$DIMBLK1
  1

  9
$DIMBLK2
  1

  9
$DIMSTYLE
  2
BIGT
  9
$DIMCLRD
 70
   256
  9
$DIMCLRE
 70
   256
  9
$DIMCLRT
 70
    40
  9
$DIMTFAC
 40
1.0
  9
$DIMGAP
 40
1.0
  9
$LUNITS
 70
     2
  9
$LUPREC
 70
     3
  9
$SKETCHINC
 40
1.0
  9
$FILLETRAD
 40
0.0
  9
$AUNITS
 70
     0
  9
$AUPREC
 70
     3
  9
$MENU
  1
.
  9
$ELEVATION
 40
0.0
  9
$PELEVATION
 40
0.0
  9
$THICKNESS
 40
0.0
  9
$LIMCHECK
 70
     0
  9
$BLIPMODE
 70
     0
  9
$CHAMFERA
 40
0.25
  9
$CHAMFERB
 40
0.25
  9
$SKPOLY
 70
     0
  9
$TDCREATE
 40
2455735.7024407871
  9
$TDUPDATE
 40
2455735.7118645948
  9
$TDINDWG
 40
0.0094243519
  9
$TDUSRTIMER
 40
0.0094243519
  9
$USRTIMER
 70
     1
  9
$ANGBASE
 50
0.0
  9
$ANGDIR
 70
     0
  9
$PDMODE
 70
     1
  9
$PDSIZE
 40
0.0
  9
$PLINEWID
 40
0.0
  9
$COORDS
 70
     1
  9
$SPLFRAME
 70
     0
  9
$SPLINETYPE
 70
     6
  9
$SPLINESEGS
 70
     4
  9
$ATTDIA
 70
     1
  9
$ATTREQ
 70
     1
  9
$HANDLING
 70
     1
  9
$HANDSEED
  5
1D20
  9
$SURFTAB1
 70
     6
  9
$SURFTAB2
 70
     6
  9
$SURFTYPE
 70
     6
  9
$SURFU
 70
     6
  9
$SURFV
 70
     6
  9
$UCSNAME
  2

  9
$UCSORG
 10
0.0
 20
0.0
 30
0.0
  9
$UCSXDIR
 10
1.0
 20
0.0
 30
0.0
  9
$UCSYDIR
 10
0.0
 20
1.0
 30
0.0
  9
$PUCSNAME
  2

  9
$PUCSORG
 10
0.0
 20
0.0
 30
0.0
  9
$PUCSXDIR
 10
1.0
 20
0.0
 30
0.0
  9
$PUCSYDIR
 10
0.0
 20
1.0
 30
0.0
  9
$USERI1
 70
     1
  9
$USERI2
 70
     0
  9
$USERI3
 70
     0
  9
$USERI4
 70
     0
  9
$USERI5
 70
     0
  9
$USERR1
 40
0.0
  9
$USERR2
 40
0.0
  9
$USERR3
 40
0.0
  9
$USERR4
 40
0.0
  9
$USERR5
 40
0.0
  9
$WORLDVIEW
 70
     1
  9
$SHADEDGE
 70
     3
  9
$SHADEDIF
 70
    70
  9
$TILEMODE
 70
     1
  9
$MAXACTVP
 70
    16
  9
$PLIMCHECK
 70
     0
  9
$PEXTMIN
 10
1.0000000000000000E+020
 20
1.0000000000000000E+020
 30
1.0000000000000000E+020
  9
$PEXTMAX
 10
-1.0000000000000000E+020
 20
-1.0000000000000000E+020
 30
-1.0000000000000000E+020
  9
$PLIMMIN
 10
0.0
 20
0.0
  9
$PLIMMAX
 10
420.0
 20
297.0
  9
$UNITMODE
 70
     0
  9
$VISRETAIN
 70
     1
  9
$PLINEGEN
 70
     0
  9
$PSLTSCALE
 70
     1
  0
ENDSEC
  0
SECTION
  2
TABLES
  0
TABLE
  2
VPORT
 70
   231
  0
VPORT
  2
*ACTIVE
 70
     0
 10
0.0
 20
0.0
 11
1.0
 21
1.0
 12
-42.903121479557711
 22
16.8244175005523
 13
0.0
 23
0.0
 14
7.0
 24
7.0
 15
7.0
 25
7.0
 16
0.0
 26
0.0
 36
1.0
 17
0.0
 27
0.0
 37
0.0
 40
87.378366553759605
 41
1.4921630094043881
 42
50.0
 43
0.0
 44
0.0
 50
0.0
 51
0.0
 71
     0
 72
  2000
 73
     1
 74
     0
 75
     0
 76
     1
 77
     0
 78
     0
  0
ENDTAB
  0
TABLE
  2
LTYPE
 70
    13
  0
LTYPE
  2
CONTINUOUS
 70
     0
  3
Solid line
 72
    65
 73
     0
 40
0.0
  0
LTYPE
  2
CENTER2
 70
     0
  3
___ _ ___ _ ___ _ ___ _ ___ _ ___ _ ___ _ ___ _
 72
    65
 73
     4
 40
1.125
 49
0.75
 49
-0.125
 49
0.125
 49
-0.125
  0
LTYPE
  2
HIDDEN2
 70
     0
  3
_ _ _ _ _ _ _ _ _ _ _ _ _ _ _ _ _ _ _ _ _ _ _ _
 72
    65
 73
     2
 40
0.1875
 49
0.125
 49
-0.0625
  0
LTYPE
  2
PHANTOM2
 70
     0
  3
___ _ _ ___ _ _ ___ _ _ ___ _ _ ___ _ _ ___ _ _
 72
    65
 73
     6
 40
1.25
 49
0.625
 49
-0.125
 49
0.125
 49
-0.125
 49
0.125
 49
-0.125
  0
LTYPE
  2
CENTER
 70
     0
  3
____ _ ____ _ ____ _ ____ _ ____ _ ____ _ ____ 
 72
    65
 73
     4
 40
2.0
 49
1.25
 49
-0.25
 49
0.25
 49
-0.25
  0
LTYPE
  2
AM_ISO02W050
 70
     0
  3
__ __ __ __ __ __ __ __ __ __ __ __ __ __ __
 72
    65
 73
     2
 40
7.5
 49
6.0
 49
-1.5
  0
LTYPE
  2
AMCONSTR
 70
     0
  3
_______________________
 72
    65
 73
     2
 40
9999.0
 49
9999.0
 49
0.0
  0
LTYPE
  2
ACISOWELD
 70
     0
  3
_ _ _ _ _
 72
    65
 73
     2
 40
2.0
 49
2.0
 49
-1.0
  0
LTYPE
  2
ACISOTGB
 70
     0
  3
__ . . __ . .
 72
    65
 73
     6
 40
9.0
 49
4.0
 49
-1.0
 49
1.0
 49
-1.0
 49
1.0
 49
-1.0
  0
LTYPE
  2
ACISOTGL
 70
     0
  3
_ _ _ _ _
 72
    65
 73
     2
 40
3.0
 49
2.0
 49
-1.0
  0
LTYPE
  2
ACJISTGB
 70
     0
  3
__ . . __ . .
 72
    65
 73
     6
 40
9.0
 49
4.0
 49
-1.0
 49
1.0
 49
-1.0
 49
1.0
 49
-1.0
  0
LTYPE
  2
ACJISTGL
 70
     0
  3
_ _ _ _ _
 72
    65
 73
     2
 40
3.0
 49
2.0
 49
-1.0
  0
LTYPE
  2
HIDDEN
 70
     0
  3
Hidden __ __ __ __ __ __ __ __ __ __ __ __ __ _
 72
    65
 73
     2
 40
9.5249999999999986
 49
6.3499999999999988
 49
-3.1749999999999989
  0
ENDTAB
  0
TABLE
  2
LAYER
 70
    15
  0
LAYER
  2
0
 70
     0
 62
     7
  6
CONTINUOUS
  0
LAYER
  2
DEFPOINTS
 70
     0
 62
     7
  6
CONTINUOUS
  0
LAYER
  2
245
 70
     0
 62
     2
  6
CENTER2
  0
LAYER
  2
240
 70
     0
 62
     4
  6
CONTINUOUS
  0
LAYER
  2
241
 70
     0
 62
   211
  6
CONTINUOUS
  0
LAYER
  2
242
 70
     0
 62
     3
  6
CONTINUOUS
  0
LAYER
  2
243
 70
     0
 62
   211
  6
HIDDEN2
  0
LAYER
  2
244
 70
     0
 62
     3
  6
HIDDEN2
  0
LAYER
  2
246
 70
     0
 62
     3
  6
PHANTOM2
  0
LAYER
  2
247
 70
     0
 62
    60
  6
CONTINUOUS
  0
LAYER
  2
248
 70
     0
 62
    60
  6
HIDDEN2
  0
LAYER
  2
250
 70
     0
 62
     3
  6
CONTINUOUS
  0
LAYER
  2
251
 70
     0
 62
    40
  6
CONTINUOUS
  0
LAYER
  2
AM_5
 70
     0
 62
     3
  6
CONTINUOUS
  0
LAYER
  2
AM_CL
 70
     0
 62
   254
  6
AMCONSTR
  0
ENDTAB
  0
TABLE
  2
STYLE
 70
     6
  0
STYLE
  2
STANDARD
 70
     0
 40
0.0
 41
1.0
 50
0.0
 71
     0
 42
3.0
  3
romans.shx
  4
extfont.shx
  0
STYLE
  2
ACISOTS
 70
     0
 40
1.0
 41
1.0
 50
0.0
 71
     0
 42
3.0
  3
amgdt.shx
  4
extfont.shx
  0
STYLE
  2
ACISOGDT
 70
     0
 40
0.0
 41
1.0
 50
0.0
 71
     0
 42
3.0
  3
amgdt.shx
  4
extfont.shx
  0
STYLE
  2
ACJISTS
 70
     0
 40
1.0
 41
1.0
 50
0.0
 71
     0
 42
3.0
  3
amgdt.shx
  4
extfont.shx
  0
STYLE
  2
ACJISGDT
 70
     0
 40
0.0
 41
1.0
 50
0.0
 71
     0
 42
3.0
  3
amgdt.shx
  4
extfont.shx
  0
STYLE
  2
YOKO
 70
     0
 40
0.0
 41
1.0
 50
0.0
 71
     0
 42
3.0
  3
romans.shx
  4
extfont.shx
  0
ENDTAB
  0
TABLE
  2
VIEW
 70
     0
  0
ENDTAB
  0
TABLE
  2
UCS
 70
     0
  0
ENDTAB
  0
TABLE
  2
APPID
 70
    32
  0
APPID
  2
ACAD
 70
     0
  0
APPID
  2
GLOBAL
 70
     0
  0
APPID
  2
DETAIL
 70
     0
  0
APPID
  2
GRPNAME
 70
     0
  0
APPID
  2
GPARA
 70
     0
  0
APPID
  2
MCAD_NO_VIS
 70
     0
  0
APPID
  2
ACAD_TEMP_GRAPHIC
 70
     0
  0
APPID
  2
ACATTRIBSERVICES
 70
     0
  0
APPID
  2
GENIUS_GENSCREG_15
 70
     0
  0
APPID
  2
GENIUS_GENODEF_13
 70
     0
  0
APPID
  2
GENIUS_GENOBJ-N-SDF_13
 70
     0
  0
APPID
  2
GENIUS_GENREC_14
 70
     0
  0
APPID
  2
GENIUS_GENOBJ-N-REC_13
 70
     0
  0
APPID
  2
GENIUS_GENDIMSH_14
 70
     0
  0
APPID
  2
GENIUS_GENOBJ-N-DIM_13
 70
     0
  0
APPID
  2
GENIUS_GENDIM_13
 70
     0
  0
APPID
  2
GENIUS_GENDTOL_13
 70
     0
  0
APPID
  2
GENIUS_GENOLIS_13
 70
     0
  0
APPID
  2
GENIUS_GENOENT_13
 70
     0
  0
APPID
  2
GENIUS_GENOBJ-F-FEM_13
 70
     0
  0
APPID
  2
GENIUS_GENOREF_13
 70
     0
  0
APPID
  2
GENIUS_GEFFEM_13
 70
     0
  0
APPID
  2
GENIUS_GEFFEMP_13
 70
     0
  0
APPID
  2
AD_DRAW
 70
     0
  0
APPID
  2
DESIGNERASSEMBLIES
 70
     0
  0
APPID
  2
ACADM_DIM_EDIT
 70
     0
  0
APPID
  2
AMDT_DM_ADJ
 70
     0
  0
APPID
  2
ITEMNAME
 70
     0
  0
APPID
  2
GRADE_0
 70
     0
  0
APPID
  2
HATCH_TYPE
 70
     0
  0
APPID
  2
HATCH_DISPLAY
 70
     0
  0
APPID
  2
HATCH_DISTANCE
 70
     0
  0
ENDTAB
  0
TABLE
  2
DIMSTYLE
 70
    25
  0
DIMSTYLE
  2
BIGT
 70
     0
  3

  4

  5
OPEN
  6

  7

 40
1.0
 41
2.2299999999999991
 42
0.5
 43
7.0
 44
1.0
 45
0.0
 46
0.0
 47
0.0
 48
0.01
140
2.7999999999999989
141
0.0
142
0.0
143
25.399999999999999
144
1.0
145
0.0
146
1.0
147
1.0
 71
     0
 72
     0
 73
     0
 74
     0
 75
     0
 76
     0
 77
     3
 78
     9
170
     0
171
     2
172
     1
173
     0
174
     1
175
     0
176
   256
177
   256
178
    40
  0
DIMSTYLE
  2
AM_ISO
 70
     0
  3

  4
"
  5

  6

  7

 40
1.0
 41
2.5
 42
1.0
 43
10.0
 44
1.0
 45
0.0
 46
0.0
 47
0.1
 48
0.1
140
3.5
141
0.0
142
0.0
143
0.0393701
144
1.0
145
0.0
146
0.71
147
1.5
 71
     0
 72
     0
 73
     0
 74
     0
 75
     0
 76
     0
 77
     1
 78
     8
170
     0
171
     2
172
     1
173
     0
174
     0
175
     0
176
   256
177
   256
178
     2
  0
DIMSTYLE
  2
AM_ISO$3
 70
     0
  3

  4
"
  5

  6

  7

 40
1.0
 41
2.5
 42
1.0
 43
10.0
 44
1.0
 45
0.0
 46
0.0
 47
0.1
 48
0.1
140
3.5
141
0.0
142
0.0
143
0.0393701
144
1.0
145
0.0
146
0.71
147
1.5
 71
     0
 72
     0
 73
     0
 74
     1
 75
     0
 76
     0
 77
     1
 78
     8
170
     0
171
     2
172
     0
173
     0
174
     0
175
     0
176
   256
177
   256
178
     2
  0
DIMSTYLE
  2
AM_ISO$4
 70
     0
  3

  4
"
  5

  6

  7

 40
1.0
 41
2.5
 42
1.0
 43
10.0
 44
1.0
 45
0.0
 46
0.0
 47
0.1
 48
0.1
140
3.5
141
0.0
142
0.0
143
0.0393701
144
1.0
145
0.0
146
0.71
147
1.5
 71
     0
 72
     0
 73
     0
 74
     1
 75
     0
 76
     0
 77
     1
 78
     8
170
     0
171
     2
172
     0
173
     0
174
     0
175
     0
176
   256
177
   256
178
     2
  0
DIMSTYLE
  2
AM_ISO$6
 70
     0
  3

  4
"
  5

  6

  7

 40
1.0
 41
2.5
 42
1.0
 43
10.0
 44
1.0
 45
0.0
 46
0.0
 47
0.1
 48
0.1
140
3.5
141
0.0
142
0.0
143
0.0393701
144
1.0
145
0.0
146
0.71
147
1.5
 71
     0
 72
     0
 73
     0
 74
     0
 75
     0
 76
     0
 77
     0
 78
     8
170
     0
171
     2
172
     1
173
     0
174
     0
175
     0
176
   256
177
   256
178
     2
  0
DIMSTYLE
  2
AM_ISO$7
 70
     0
  3

  4
"
  5

  6

  7

 40
1.0
 41
2.5
 42
1.0
 43
10.0
 44
1.0
 45
0.0
 46
0.0
 47
0.1
 48
0.1
140
5.0
141
0.0
142
0.0
143
0.0393701
144
1.0
145
0.0
146
0.71
147
1.5
 71
     0
 72
     0
 73
     0
 74
     0
 75
     0
 76
     0
 77
     1
 78
     8
170
     0
171
     2
172
     1
173
     0
174
     0
175
     0
176
   256
177
   256
178
     2
  0
DIMSTYLE
  2
AM_ISO$SF
 70
     0
  3

  4
"
  5

  6

  7

 40
1.0
 41
2.5
 42
1.0
 43
10.0
 44
1.0
 45
0.0
 46
0.0
 47
0.1
 48
0.1
140
3.5
141
0.0
142
0.0
143
0.0393701
144
1.0
145
0.0
146
0.71
147
1.5
 71
     0
 72
     0
 73
     0
 74
     0
 75
     1
 76
     1
 77
     1
 78
     8
170
     0
171
     2
172
     1
173
     0
174
     0
175
     0
176
   256
177
   256
178
     2
  0
DIMSTYLE
  2
AM_ISO$SH
 70
     0
  3

  4
"
  5

  6
GENAXEH
  7

 40
1.0
 41
2.5
 42
1.0
 43
10.0
 44
1.0
 45
0.0
 46
0.0
 47
0.1
 48
0.1
140
3.5
141
0.0
142
0.0
143
0.0393701
144
2.0
145
0.0
146
0.71
147
1.5
 71
     0
 72
     0
 73
     0
 74
     0
 75
     1
 76
     1
 77
     1
 78
     8
170
     0
171
     2
172
     1
173
     1
174
     0
175
     0
176
   256
177
   256
178
     2
  0
DIMSTYLE
  2
BIGT$2
 70
     0
  3

  4

  5
OPEN
  6

  7

 40
1.0
 41
2.2299999999999991
 42
0.5
 43
7.0
 44
1.0
 45
0.0
 46
0.0
 47
0.0
 48
0.01
140
2.7999999999999989
141
0.0
142
0.0
143
25.399999999999999
144
1.0
145
0.0
146
1.0
147
1.0
 71
     0
 72
     0
 73
     0
 74
     0
 75
     0
 76
     0
 77
     3
 78
     9
170
     0
171
     2
172
     1
173
     0
174
     0
175
     0
176
   256
177
   256
178
    40
  0
DIMSTYLE
  2
BIGT$3
 70
     0
  3

  4

  5
OPEN
  6

  7

 40
1.0
 41
2.2299999999999991
 42
0.5
 43
2.5
 44
1.0
 45
0.0
 46
0.0
 47
0.0
 48
0.01
140
2.7999999999999989
141
0.0
142
0.0
143
25.399999999999999
144
1.0
145
0.0
146
1.0
147
1.0
 71
     0
 72
     0
 73
     0
 74
     0
 75
     0
 76
     0
 77
     3
 78
     9
170
     0
171
     2
172
     1
173
     0
174
     0
175
     0
176
   256
177
   256
178
    40
  0
DIMSTYLE
  2
BIGT$7
 70
     0
  3

  4

  5
OPEN
  6

  7

 40
0.0
 41
2.2299999999999991
 42
0.5
 43
7.0
 44
1.0
 45
0.0
 46
0.0
 47
0.0
 48
0.01
140
2.7999999999999989
141
0.0
142
0.0
143
25.399999999999999
144
1.0
145
0.0
146
1.0
147
1.0
 71
     0
 72
     0
 73
     0
 74
     0
 75
     0
 76
     0
 77
     3
 78
     9
170
     0
171
     2
172
     0
173
     0
174
     0
175
     0
176
   256
177
   256
178
    40
  0
DIMSTYLE
  2
BIGT$6
 70
     0
  3

  4

  5
OPEN
  6

  7

 40
1.0
 41
2.2299999999999991
 42
0.5
 43
2.5
 44
1.0
 45
0.0
 46
0.0
 47
0.0
 48
0.01
140
2.7999999999999989
141
0.0
142
0.0
143
25.399999999999999
144
1.0
145
0.0
146
1.0
147
1.0
 71
     0
 72
     0
 73
     0
 74
     0
 75
     0
 76
     0
 77
     3
 78
     9
170
     0
171
     2
172
     1
173
     0
174
     0
175
     0
176
   256
177
   256
178
    40
  0
DIMSTYLE
  2
BIGT$0
 70
     0
  3

  4

  5
OPEN
  6

  7

 40
1.0
 41
2.2299999999999991
 42
0.5
 43
7.0
 44
1.0
 45
0.0
 46
0.0
 47
0.0
 48
0.01
140
2.7999999999999989
141
0.0
142
0.0
143
25.399999999999999
144
1.0
145
0.0
146
1.0
147
1.0
 71
     0
 72
     0
 73
     0
 74
     0
 75
     0
 76
     0
 77
     3
 78
     9
170
     0
171
     2
172
     1
173
     0
174
     0
175
     0
176
   256
177
   256
178
    40
  0
DIMSTYLE
  2
BIGT$4
 70
     0
  3

  4

  5
OPEN
  6

  7

 40
1.0
 41
2.2299999999999991
 42
0.5
 43
2.5
 44
1.0
 45
0.0
 46
0.0
 47
0.0
 48
0.01
140
2.7999999999999989
141
0.0
142
0.0
143
25.399999999999999
144
1.0
145
0.0
146
1.0
147
1.0
 71
     0
 72
     0
 73
     0
 74
     0
 75
     0
 76
     0
 77
     3
 78
     9
170
     0
171
     2
172
     1
173
     0
174
     0
175
     0
176
   256
177
   256
178
    40
  0
DIMSTYLE
  2
BIGT$SH
 70
     0
  3

  4

  5
OPEN
  6

  7

 40
1.0
 41
2.2299999999999991
 42
0.5
 43
7.0
 44
1.0
 45
0.0
 46
0.0
 47
0.0
 48
0.0
140
2.7999999999999989
141
0.0
142
0.0
143
25.399999999999999
144
1.0
145
0.0
146
1.0
147
1.0
 71
     0
 72
     0
 73
     0
 74
     0
 75
     0
 76
     0
 77
     3
 78
     9
170
     0
171
     2
172
     1
173
     0
174
     0
175
     0
176
   256
177
   256
178
    40
  0
DIMSTYLE
  2
BIGT$SF
 70
     0
  3

  4

  5
OPEN
  6

  7

 40
1.0
 41
2.2299999999999991
 42
0.5
 43
7.0
 44
1.0
 45
0.0
 46
0.0
 47
0.0
 48
0.0
140
2.7999999999999989
141
0.0
142
0.0
143
25.399999999999999
144
1.0
145
0.0
146
1.0
147
1.0
 71
     0
 72
     0
 73
     0
 74
     0
 75
     0
 76
     0
 77
     3
 78
     9
170
     0
171
     2
172
     1
173
     0
174
     0
175
     0
176
   256
177
   256
178
    40
  0
DIMSTYLE
  2
TECHNICAL_OSAKA
 70
     0
  3

  4
"
  5
OPEN30
  6

  7

 40
1.0
 41
2.5
 42
1.0
 43
10.0
 44
1.0
 45
0.0
 46
0.0
 47
0.1
 48
0.1
140
2.7999999999999989
141
0.0
142
0.0
143
0.0393701
144
1.0
145
0.0
146
0.71
147
1.5
 71
     0
 72
     0
 73
     0
 74
     0
 75
     0
 76
     0
 77
     3
 78
     8
170
     0
171
     2
172
     1
173
     0
174
     0
175
     0
176
   256
177
   256
178
    40
  0
DIMSTYLE
  2
TECHNICAL_OSAKA$3
 70
     0
  3

  4
"
  5
OPEN30
  6

  7

 40
1.0
 41
2.5
 42
1.0
 43
10.0
 44
1.0
 45
0.0
 46
0.0
 47
0.1
 48
0.1
140
2.7999999999999989
141
0.0
142
0.0
143
0.0393701
144
1.0
145
0.0
146
0.71
147
1.5
 71
     0
 72
     0
 73
     0
 74
     1
 75
     0
 76
     0
 77
     3
 78
     8
170
     0
171
     2
172
     0
173
     0
174
     0
175
     0
176
   256
177
   256
178
    40
  0
DIMSTYLE
  2
TECHNICAL_OSAKA$4
 70
     0
  3

  4
"
  5
OPEN30
  6

  7

 40
1.0
 41
2.5
 42
1.0
 43
10.0
 44
1.0
 45
0.0
 46
0.0
 47
0.1
 48
0.1
140
2.7999999999999989
141
0.0
142
0.0
143
0.0393701
144
1.0
145
0.0
146
0.71
147
1.5
 71
     0
 72
     0
 73
     0
 74
     1
 75
     0
 76
     0
 77
     3
 78
     8
170
     0
171
     2
172
     0
173
     0
174
     0
175
     0
176
   256
177
   256
178
    40
  0
DIMSTYLE
  2
TECHNICAL_OSAKA$6
 70
     0
  3

  4
"
  5
OPEN30
  6

  7

 40
1.0
 41
2.5
 42
1.0
 43
10.0
 44
1.0
 45
0.0
 46
0.0
 47
0.1
 48
0.1
140
2.7999999999999989
141
0.0
142
0.0
143
0.0393701
144
1.0
145
0.0
146
0.71
147
1.5
 71
     0
 72
     0
 73
     0
 74
     0
 75
     0
 76
     0
 77
     0
 78
     8
170
     0
171
     2
172
     1
173
     0
174
     0
175
     0
176
   256
177
   256
178
    40
  0
DIMSTYLE
  2
TECHNICAL_OSAKA$7
 70
     0
  3

  4
"
  5
OPEN30
  6

  7

 40
1.0
 41
2.5
 42
1.0
 43
10.0
 44
1.0
 45
0.0
 46
0.0
 47
0.1
 48
0.1
140
2.7999999999999989
141
0.0
142
0.0
143
0.0393701
144
1.0
145
0.0
146
0.71
147
1.5
 71
     0
 72
     0
 73
     0
 74
     0
 75
     0
 76
     0
 77
     3
 78
     8
170
     0
171
     2
172
     1
173
     0
174
     0
175
     0
176
   256
177
   256
178
    40
  0
DIMSTYLE
  2
TECHNICAL_OSAKA$SF
 70
     0
  3

  4
"
  5
OPEN30
  6
OPEN30
  7
OPEN30
 40
1.0
 41
2.5
 42
1.0
 43
10.0
 44
1.0
 45
0.0
 46
0.0
 47
0.1
 48
0.1
140
3.5
141
0.0
142
0.0
143
0.0393701
144
1.0
145
0.0
146
0.71
147
1.5
 71
     0
 72
     0
 73
     0
 74
     0
 75
     1
 76
     1
 77
     3
 78
     8
170
     0
171
     2
172
     1
173
     0
174
     0
175
     0
176
   256
177
   256
178
    40
  0
DIMSTYLE
  2
TECHNICAL_OSAKA$SH
 70
     0
  3

  4
"
  5
OPEN30
  6
GENAXEH
  7
OPEN30
 40
1.0
 41
2.5
 42
1.0
 43
10.0
 44
1.0
 45
0.0
 46
0.0
 47
0.1
 48
0.1
140
3.5
141
0.0
142
0.0
143
0.0393701
144
2.0
145
0.0
146
0.71
147
1.5
 71
     0
 72
     0
 73
     0
 74
     0
 75
     1
 76
     1
 77
     3
 78
     8
170
     0
171
     2
172
     1
173
     1
174
     0
175
     0
176
   256
177
   256
178
    40
  0
DIMSTYLE
  2
GRADE
 70
     0
  3

  4

  5

  6

  7

 40
1.0
 41
2.0
 42
2.0
 43
3.75
 44
2.0
 45
0.0
 46
0.0
 47
0.0
 48
0.0
140
4.0
141
0.0
142
0.0
143
25.399999999999999
144
1.0
145
0.0
146
1.0
147
1.0
 71
     0
 72
     0
 73
     0
 74
     0
 75
     0
 76
     0
 77
     3
 78
     8
170
     0
171
     2
172
     1
173
     1
174
     0
175
     0
176
     0
177
     0
178
     0
  0
DIMSTYLE
  2
ISO1
 70
     0
  3

  4

  5

  6

  7

 40
1.0
 41
10.0
 42
2.5
 43
15.0
 44
5.0
 45
0.0
 46
0.0
 47
0.0
 48
0.0
140
10.0
141
10.0
142
0.0
143
0.0394
144
1.0
145
4.0
146
1.0
147
2.5
 71
     0
 72
     0
 73
     1
 74
     0
 75
     0
 76
     0
 77
     1
 78
     8
170
     0
171
     2
172
     1
173
     0
174
     0
175
     0
176
     0
177
     0
178
     0
  0
ENDTAB
  0
ENDSEC
  0
SECTION
  2
BLOCKS
  0
BLOCK
  8
0
  2
$MODEL_SPACE
 70
     0
 10
0.0
 20
0.0
 30
0.0
  3
$MODEL_SPACE
  1

  0
ENDBLK
  5
1C
  8
0
  0
BLOCK
 67
     1
  8
0
  2
$PAPER_SPACE
 70
     0
 10
0.0
 20
0.0
 30
0.0
  3
$PAPER_SPACE
  1

  0
ENDBLK
  5
19
 67
     1
  8
0
  0
BLOCK
  8
0
  2
_OPEN
 70
     0
 10
0.0
 20
0.0
 30
0.0
  3
_OPEN
  1

  0
LINE
  5
595
  8
0
  6
BYBLOCK
 62
     0
 10
-1.0
 20
0.1666666666666666
 30
0.0
 11
0.0
 21
0.0
 31
0.0
  0
LINE
  5
596
  8
0
  6
BYBLOCK
 62
     0
 10
-1.0
 20
-0.1666666666666666
 30
0.0
 11
0.0
 21
0.0
 31
0.0
  0
LINE
  5
597
  8
0
  6
BYBLOCK
 62
     0
 10
0.0
 20
0.0
 30
0.0
 11
-1.0
 21
0.0
 31
0.0
  0
ENDBLK
  5
599
  8
0
  0
BLOCK
  8
0
  2
GENAXEH
 70
     0
 10
0.0
 20
0.0
 30
0.0
  3
GENAXEH
  1

  0
LINE
  5
6E8
  8
0
 10
-1.0
 20
0.0
 30
0.0
 11
1.0
 21
0.0
 31
0.0
  0
ENDBLK
  5
6EA
  8
0
  0
BLOCK
  8
0
  2
_OPEN30
 70
     0
 10
0.0
 20
0.0
 30
0.0
  3
_OPEN30
  1

  0
LINE
  5
E8F
  8
0
  6
BYBLOCK
 62
     0
 10
-1.0
 20
0.26794919
 30
0.0
 11
0.0
 21
0.0
 31
0.0
  0
LINE
  5
E90
  8
0
  6
BYBLOCK
 62
     0
 10
0.0
 20
0.0
 30
0.0
 11
-1.0
 21
-0.26794919
 31
0.0
  0
LINE
  5
E91
  8
0
  6
BYBLOCK
 62
     0
 10
0.0
 20
0.0
 30
0.0
 11
-1.0
 21
0.0
 31
0.0
  0
ENDBLK
  5
E93
  8
0
  0
BLOCK
  8
0
  2
FM00_4
 70
     0
 10
0.0
 20
0.0
 30
0.0
  3
FM00_4
  1

  0
POLYLINE
  5
1352
  8
0
  6
CONTINUOUS
 62
     0
 66
     1
 10
0.0
 20
0.0
 30
0.0
 70
     1
  0
VERTEX
  5
1353
  8
0
  6
CONTINUOUS
 62
     0
 10
-2.0
 20
0.0
 30
0.0
  0
VERTEX
  5
1354
  8
0
  6
CONTINUOUS
 62
     0
 10
-1.5
 20
0.8660254037845334
 30
0.0
  0
VERTEX
  5
1355
  8
0
  6
CONTINUOUS
 62
     0
 10
-2.5
 20
0.8660254037845334
 30
0.0
  0
SEQEND
  5
1356
  8
0
  6
CONTINUOUS
 62
     0
  0
POLYLINE
  5
1357
  8
0
  6
CONTINUOUS
 62
     0
 66
     1
 10
0.0
 20
0.0
 30
0.0
 70
     1
  0
VERTEX
  5
1358
  8
0
  6
CONTINUOUS
 62
     0
 10
0.0
 20
0.0
 30
0.0
  0
VERTEX
  5
1359
  8
0
  6
CONTINUOUS
 62
     0
 10
0.5
 20
0.8660254037845334
 30
0.0
  0
VERTEX
  5
135A
  8
0
  6
CONTINUOUS
 62
     0
 10
-0.5
 20
0.8660254037845334
 30
0.0
  0
SEQEND
  5
135B
  8
0
  6
CONTINUOUS
 62
     0
  0
POLYLINE
  5
135C
  8
0
  6
CONTINUOUS
 62
     0
 66
     1
 10
0.0
 20
0.0
 30
0.0
 70
     1
  0
VERTEX
  5
135D
  8
0
  6
CONTINUOUS
 62
     0
 10
-1.0
 20
0.0
 30
0.0
  0
VERTEX
  5
135E
  8
0
  6
CONTINUOUS
 62
     0
 10
-0.5
 20
0.8660254037845334
 30
0.0
  0
VERTEX
  5
135F
  8
0
  6
CONTINUOUS
 62
     0
 10
-1.5
 20
0.8660254037845334
 30
0.0
  0
SEQEND
  5
1360
  8
0
  6
CONTINUOUS
 62
     0
  0
ENDBLK
  5
1361
  8
0
  0
BLOCK
  8
0
  2
*D5
 70
     1
 10
0.0
 20
0.0
 30
0.0
  3
*D5
  1

  0
LINE
  5
1364
  8
250
  6
CONTINUOUS
 62
     3
 10
32.25
 20
62.500000000000057
 30
0.0
 11
27.5
 21
62.500000000000057
 31
0.0
  0
LINE
  5
1365
  8
250
  6
CONTINUOUS
 62
     3
 10
32.250000000000007
 20
70.5
 30
0.0
 11
27.5
 21
70.500000000000014
 31
0.0
  0
LINE
  5
1366
  8
250
  6
CONTINUOUS
 62
     3
 10
28.0
 20
63.615000000000059
 30
0.0
 11
28.0
 21
69.385000000000019
 31
0.0
  0
INSERT
  5
1367
  8
250
  6
CONTINUOUS
 62
     3
  2
_OPEN
 10
28.0
 20
62.500000000000057
 30
0.0
 41
1.1149999999999991
 42
1.1149999999999991
 43
1.1149999999999991
 50
270.0
  0
INSERT
  5
1368
  8
250
  6
CONTINUOUS
 62
     3
  2
_OPEN
 10
28.0
 20
70.500000000000014
 30
0.0
 41
1.1149999999999991
 42
1.1149999999999991
 43
1.1149999999999991
 50
90.0
  0
INSERT
  5
1369
  8
240
  2
*U30
 10
0.0
 20
0.0
 30
0.0
  0
POINT
  5
136A
  8
DEFPOINTS
  6
CONTINUOUS
 62
     0
 10
32.5
 20
62.500000000000057
 30
0.0
  0
POINT
  5
136B
  8
DEFPOINTS
  6
CONTINUOUS
 62
     0
 10
32.500000000000007
 20
70.5
 30
0.0
  0
POINT
  5
136C
  8
DEFPOINTS
  6
CONTINUOUS
 62
     0
 10
28.0
 20
70.500000000000014
 30
0.0
  0
ENDBLK
  5
136D
  8
0
  0
BLOCK
  8
0
  2
*D6
 70
     1
 10
0.0
 20
0.0
 30
0.0
  3
*D6
  1

  0
LINE
  5
1370
  8
250
  6
CONTINUOUS
 62
     3
 10
138.75
 20
64.0
 30
0.0
 11
148.0
 21
63.999999999999993
 31
0.0
  0
LINE
  5
1371
  8
250
  6
CONTINUOUS
 62
     3
 10
138.75000000000031
 20
69.0
 30
0.0
 11
148.0
 21
69.0
 31
0.0
  0
LINE
  5
1372
  8
250
  6
CONTINUOUS
 62
     3
 10
147.5
 20
65.114999999999995
 30
0.0
 11
147.5
 21
67.885000000000005
 31
0.0
  0
INSERT
  5
1373
  8
250
  6
CONTINUOUS
 62
     3
  2
_OPEN
 10
147.5
 20
63.999999999999993
 30
0.0
 41
1.1149999999999991
 42
1.1149999999999991
 43
1.1149999999999991
 50
270.0
  0
INSERT
  5
1374
  8
250
  6
CONTINUOUS
 62
     3
  2
_OPEN
 10
147.5
 20
69.0
 30
0.0
 41
1.1149999999999991
 42
1.1149999999999991
 43
1.1149999999999991
 50
90.0
  0
INSERT
  5
1375
  8
240
  2
*U31
 10
0.0
 20
0.0
 30
0.0
  0
POINT
  5
1376
  8
DEFPOINTS
  6
CONTINUOUS
 62
     0
 10
138.5
 20
64.0
 30
0.0
  0
POINT
  5
1377
  8
DEFPOINTS
  6
CONTINUOUS
 62
     0
 10
138.5000000000004
 20
69.0
 30
0.0
  0
POINT
  5
1378
  8
DEFPOINTS
  6
CONTINUOUS
 62
     0
 10
147.5
 20
69.0
 30
0.0
  0
ENDBLK
  5
1379
  8
0
  0
BLOCK
  8
0
  2
*D7
 70
     1
 10
0.0
 20
0.0
 30
0.0
  3
*D7
  1

  0
LINE
  5
137C
  8
250
  6
CONTINUOUS
 62
     3
 10
133.4499999999999
 20
60.899999999999991
 30
0.0
 11
158.49999999999989
 21
60.899999999999991
 31
0.0
  0
LINE
  5
137D
  8
250
  6
CONTINUOUS
 62
     3
 10
133.4499999999999
 20
72.099999999999994
 30
0.0
 11
158.5
 21
72.099999999999994
 31
0.0
  0
LINE
  5
137E
  8
250
  6
CONTINUOUS
 62
     3
 10
158.0
 20
62.014999999999993
 30
0.0
 11
158.0
 21
70.984999999999999
 31
0.0
  0
INSERT
  5
137F
  8
250
  6
CONTINUOUS
 62
     3
  2
_OPEN
 10
158.0
 20
60.899999999999991
 30
0.0
 41
1.1149999999999991
 42
1.1149999999999991
 43
1.1149999999999991
 50
270.0
  0
INSERT
  5
1380
  8
250
  6
CONTINUOUS
 62
     3
  2
_OPEN
 10
158.0
 20
72.099999999999994
 30
0.0
 41
1.1149999999999991
 42
1.1149999999999991
 43
1.1149999999999991
 50
90.0
  0
INSERT
  5
1381
  8
240
  2
*U32
 10
0.0
 20
0.0
 30
0.0
  0
POINT
  5
1382
  8
DEFPOINTS
  6
CONTINUOUS
 62
     0
 10
133.1999999999999
 20
60.899999999999991
 30
0.0
  0
POINT
  5
1383
  8
DEFPOINTS
  6
CONTINUOUS
 62
     0
 10
133.1999999999999
 20
72.099999999999994
 30
0.0
  0
POINT
  5
1384
  8
DEFPOINTS
  6
CONTINUOUS
 62
     0
 10
158.0
 20
72.099999999999994
 30
0.0
  0
ENDBLK
  5
1385
  8
0
  0
BLOCK
  8
0
  2
*D8
 70
     1
 10
0.0
 20
0.0
 30
0.0
  3
*D8
  1

  0
LINE
  5
1388
  8
250
  6
CONTINUOUS
 62
     3
 10
133.4499999999999
 20
65.750000000000014
 30
0.0
 11
151.5
 21
65.750000000000014
 31
0.0
  0
LINE
  5
1389
  8
250
  6
CONTINUOUS
 62
     3
 10
133.4500000000005
 20
71.950000000000017
 30
0.0
 11
151.5
 21
71.950000000000017
 31
0.0
  0
LINE
  5
138A
  8
250
  6
CONTINUOUS
 62
     3
 10
151.0
 20
66.865000000000023
 30
0.0
 11
151.0
 21
70.835000000000022
 31
0.0
  0
LINE
  5
138B
  8
250
  6
CONTINUOUS
 62
     3
 10
151.0
 20
71.950000000000017
 30
0.0
 11
151.0
 21
84.059285714285735
 31
0.0
  0
INSERT
  5
138C
  8
250
  6
CONTINUOUS
 62
     3
  2
_OPEN
 10
151.0
 20
65.750000000000014
 30
0.0
 41
1.1149999999999991
 42
1.1149999999999991
 43
1.1149999999999991
 50
270.0
  0
INSERT
  5
138D
  8
250
  6
CONTINUOUS
 62
     3
  2
_OPEN
 10
151.0
 20
71.950000000000017
 30
0.0
 41
1.1149999999999991
 42
1.1149999999999991
 43
1.1149999999999991
 50
90.0
  0
INSERT
  5
138E
  8
240
  2
*U33
 10
0.0
 20
0.0
 30
0.0
  0
POINT
  5
138F
  8
DEFPOINTS
  6
CONTINUOUS
 62
     0
 10
133.1999999999999
 20
65.750000000000014
 30
0.0
  0
POINT
  5
1390
  8
DEFPOINTS
  6
CONTINUOUS
 62
     0
 10
133.2000000000005
 20
71.950000000000017
 30
0.0
  0
POINT
  5
1391
  8
DEFPOINTS
  6
CONTINUOUS
 62
     0
 10
151.0
 20
71.950000000000017
 30
0.0
  0
ENDBLK
  5
1392
  8
0
  0
BLOCK
  8
0
  2
*D9
 70
     1
 10
0.0
 20
0.0
 30
0.0
  3
*D9
  1

  0
LINE
  5
1395
  8
250
  6
CONTINUOUS
 62
     3
 10
129.5499999999999
 20
71.941507144165001
 30
0.0
 11
154.99999832847999
 21
71.941507144165001
 31
0.0
  0
LINE
  5
1396
  8
250
  6
CONTINUOUS
 62
     3
 10
154.49999832847999
 20
70.826507144165006
 30
0.0
 11
154.49999832847999
 21
61.058492855834992
 31
0.0
  0
INSERT
  5
1397
  8
250
  6
CONTINUOUS
 62
     3
  2
_OPEN
 10
154.49999832847999
 20
71.941507144165001
 30
0.0
 41
1.1149999999999991
 42
1.1149999999999991
 43
1.1149999999999991
 50
90.0
  0
INSERT
  5
1398
  8
240
  2
*U34
 10
0.0
 20
0.0
 30
0.0
  0
POINT
  5
1399
  8
DEFPOINTS
  6
CONTINUOUS
 62
     0
 10
129.2999999999999
 20
71.941507144165001
 30
0.0
  0
POINT
  5
139A
  8
DEFPOINTS
  6
CONTINUOUS
 62
     0
 10
129.2999999999999
 20
61.058492855834999
 30
0.0
  0
POINT
  5
139B
  8
DEFPOINTS
  6
CONTINUOUS
 62
     0
 10
154.49999832847999
 20
61.058492855834992
 30
0.0
  0
ENDBLK
  5
139C
  8
0
  0
BLOCK
  8
0
  2
*D10
 70
     1
 10
0.0
 20
0.0
 30
0.0
  3
*D10
  1

  0
LINE
  5
139F
  8
250
  6
CONTINUOUS
 62
     3
 10
101.28349364905419
 20
58.37499999999995
 30
0.0
 11
90.173671320444285
 21
51.960741087928007
 31
0.0
  0
ARC
  5
13A0
  8
250
  6
CONTINUOUS
 62
     3
 10
101.5000000000003
 20
58.499999999999957
 30
0.0
 40
12.578517824143781
 50
185.0805452188734
 51
204.91945478112669
  0
INSERT
  5
13A1
  8
250
  6
CONTINUOUS
 62
     3
  2
_OPEN
 10
88.921482175856582
 20
58.499999999999972
 30
0.0
 41
1.1149999999999991
 42
1.1149999999999991
 43
1.1149999999999991
 50
92.540272609436698
  0
INSERT
  5
13A2
  8
250
  6
CONTINUOUS
 62
     3
  2
_OPEN
 10
90.606684022336495
 20
52.210741087928021
 30
0.0
 41
1.1149999999999991
 42
1.1149999999999991
 43
1.1149999999999991
 50
297.4597273905635
  0
INSERT
  5
13A3
  8
240
  2
*U35
 10
0.0
 20
0.0
 30
0.0
  0
POINT
  5
13A4
  8
DEFPOINTS
  6
CONTINUOUS
 62
     0
 10
89.112578125381305
 20
56.315763302086381
 30
0.0
  0
POINT
  5
13A5
  8
DEFPOINTS
  6
CONTINUOUS
 62
     0
 10
32.5
 20
58.500000000000007
 30
0.0
  0
POINT
  5
13A6
  8
DEFPOINTS
  6
CONTINUOUS
 62
     0
 10
108.5000000000008
 20
62.541451884327643
 30
0.0
  0
POINT
  5
13A7
  8
DEFPOINTS
  6
CONTINUOUS
 62
     0
 10
101.73205080756919
 20
58.633974596215523
 30
0.0
  0
POINT
  5
13A8
  8
DEFPOINTS
  6
CONTINUOUS
 62
     0
 10
101.23205080756919
 20
58.499999999999957
 30
0.0
  0
ENDBLK
  5
13A9
  8
0
  0
BLOCK
  8
0
  2
*D11
 70
     1
 10
0.0
 20
0.0
 30
0.0
  3
*D11
  1

  0
LINE
  5
13AC
  8
250
  6
CONTINUOUS
 62
     3
 10
119.2215509070415
 20
63.399999999999963
 30
0.0
 11
119.5
 21
63.399999999999963
 31
0.0
  0
LINE
  5
13AD
  8
250
  6
CONTINUOUS
 62
     3
 10
118.7998647996412
 20
69.600000000000037
 30
0.0
 11
118.5
 21
69.600000000000037
 31
0.0
  0
LINE
  5
13AE
  8
250
  6
CONTINUOUS
 62
     3
 10
119.0
 20
64.514999999999944
 30
0.0
 11
119.0
 21
68.485000000000042
 31
0.0
  0
LINE
  5
13AF
  8
250
  6
CONTINUOUS
 62
     3
 10
119.0
 20
69.600000000000037
 30
0.0
 11
119.0
 21
79.280714285714339
 31
0.0
  0
INSERT
  5
13B0
  8
250
  6
CONTINUOUS
 62
     3
  2
_OPEN
 10
119.0
 20
63.399999999999963
 30
0.0
 41
1.1149999999999991
 42
1.1149999999999991
 43
1.1149999999999991
 50
270.0
  0
INSERT
  5
13B1
  8
250
  6
CONTINUOUS
 62
     3
  2
_OPEN
 10
119.0
 20
69.600000000000037
 30
0.0
 41
1.1149999999999991
 42
1.1149999999999991
 43
1.1149999999999991
 50
90.0
  0
INSERT
  5
13B2
  8
240
  2
*U36
 10
0.0
 20
0.0
 30
0.0
  0
POINT
  5
13B3
  8
DEFPOINTS
  6
CONTINUOUS
 62
     0
 10
118.9715509070415
 20
63.399999999999963
 30
0.0
  0
POINT
  5
13B4
  8
DEFPOINTS
  6
CONTINUOUS
 62
     0
 10
119.0498647996412
 20
69.600000000000037
 30
0.0
  0
POINT
  5
13B5
  8
DEFPOINTS
  6
CONTINUOUS
 62
     0
 10
119.0
 20
69.600000000000037
 30
0.0
  0
ENDBLK
  5
13B6
  8
0
  0
BLOCK
  8
0
  2
*D12
 70
     1
 10
0.0
 20
0.0
 30
0.0
  3
*D12
  1

  0
LINE
  5
13B9
  8
250
  6
CONTINUOUS
 62
     3
 10
124.5
 20
71.991507144165269
 30
0.0
 11
124.5
 21
81.0
 31
0.0
  0
LINE
  5
13BA
  8
250
  6
CONTINUOUS
 62
     3
 10
133.49999999999989
 20
72.049999999999997
 30
0.0
 11
133.49999999999989
 21
81.0
 31
0.0
  0
LINE
  5
13BB
  8
250
  6
CONTINUOUS
 62
     3
 10
125.61499999999999
 20
80.5
 30
0.0
 11
132.38499999999991
 21
80.5
 31
0.0
  0
INSERT
  5
13BC
  8
250
  6
CONTINUOUS
 62
     3
  2
_OPEN
 10
124.5
 20
80.5
 30
0.0
 41
1.1149999999999991
 42
1.1149999999999991
 43
1.1149999999999991
 50
180.0
  0
INSERT
  5
13BD
  8
250
  6
CONTINUOUS
 62
     3
  2
_OPEN
 10
133.49999999999989
 20
80.5
 30
0.0
 41
1.1149999999999991
 42
1.1149999999999991
 43
1.1149999999999991
  0
INSERT
  5
13BE
  8
240
  2
*U37
 10
0.0
 20
0.0
 30
0.0
  0
POINT
  5
13BF
  8
DEFPOINTS
  6
CONTINUOUS
 62
     0
 10
124.5
 20
71.741507144165254
 30
0.0
  0
POINT
  5
13C0
  8
DEFPOINTS
  6
CONTINUOUS
 62
     0
 10
133.49999999999989
 20
71.799999999999983
 30
0.0
  0
POINT
  5
13C1
  8
DEFPOINTS
  6
CONTINUOUS
 62
     0
 10
133.49999999999989
 20
80.5
 30
0.0
  0
ENDBLK
  5
13C2
  8
0
  0
BLOCK
  8
0
  2
*D14
 70
     1
 10
0.0
 20
0.0
 30
0.0
  3
*D14
  1

  0
LINE
  5
156D
  8
250
  6
CONTINUOUS
 10
-92.249999999999915
 20
-3.9999999999999432
 30
0.0
 11
-96.999999999999929
 21
-3.9999999999999409
 31
0.0
  0
LINE
  5
156E
  8
250
  6
CONTINUOUS
 10
-92.249999999999915
 20
4.0
 30
0.0
 11
-96.999999999999929
 21
4.0000000000000009
 31
0.0
  0
LINE
  5
156F
  8
250
  6
CONTINUOUS
 10
-96.499999999999929
 20
-2.8849999999999421
 30
0.0
 11
-96.499999999999929
 21
2.8850000000000011
 31
0.0
  0
INSERT
  5
1570
  8
250
  6
CONTINUOUS
  2
_OPEN
 10
-96.499999999999929
 20
-3.9999999999999409
 30
0.0
 41
1.1149999999999991
 42
1.1149999999999991
 43
1.1149999999999991
 50
270.0
  0
INSERT
  5
1571
  8
250
  6
CONTINUOUS
  2
_OPEN
 10
-96.499999999999929
 20
4.0000000000000009
 30
0.0
 41
1.1149999999999991
 42
1.1149999999999991
 43
1.1149999999999991
 50
90.0
  0
INSERT
  5
1572
  8
240
  2
*U63
 10
0.0
 20
0.0
 30
0.0
  0
POINT
  5
1573
  8
DEFPOINTS
  6
CONTINUOUS
 62
     0
 10
-91.999999999999929
 20
-3.9999999999999432
 30
0.0
  0
POINT
  5
1574
  8
DEFPOINTS
  6
CONTINUOUS
 62
     0
 10
-91.999999999999915
 20
4.0
 30
0.0
  0
POINT
  5
1575
  8
DEFPOINTS
  6
CONTINUOUS
 62
     0
 10
-96.499999999999929
 20
4.0000000000000009
 30
0.0
  0
ENDBLK
  5
15B7
  8
0
  0
BLOCK
  8
0
  2
*D15
 70
     1
 10
0.0
 20
0.0
 30
0.0
  3
*D15
  1

  0
LINE
  5
1576
  8
250
  6
CONTINUOUS
 10
14.250000000000099
 20
-2.5
 30
0.0
 11
23.500000000000071
 21
-2.5000000000000022
 31
0.0
  0
LINE
  5
1577
  8
250
  6
CONTINUOUS
 10
14.250000000000441
 20
2.5
 30
0.0
 11
23.500000000000071
 21
2.4999999999999969
 31
0.0
  0
LINE
  5
1578
  8
250
  6
CONTINUOUS
 10
23.000000000000071
 20
-1.385000000000002
 30
0.0
 11
23.000000000000071
 21
1.3849999999999969
 31
0.0
  0
INSERT
  5
1579
  8
250
  6
CONTINUOUS
  2
_OPEN
 10
23.000000000000071
 20
-2.5000000000000022
 30
0.0
 41
1.1149999999999991
 42
1.1149999999999991
 43
1.1149999999999991
 50
270.0
  0
INSERT
  5
157A
  8
250
  6
CONTINUOUS
  2
_OPEN
 10
23.000000000000071
 20
2.4999999999999969
 30
0.0
 41
1.1149999999999991
 42
1.1149999999999991
 43
1.1149999999999991
 50
90.0
  0
INSERT
  5
157B
  8
240
  2
*U64
 10
0.0
 20
0.0
 30
0.0
  0
POINT
  5
157C
  8
DEFPOINTS
  6
CONTINUOUS
 62
     0
 10
14.000000000000099
 20
-2.5
 30
0.0
  0
POINT
  5
157D
  8
DEFPOINTS
  6
CONTINUOUS
 62
     0
 10
14.000000000000441
 20
2.5
 30
0.0
  0
POINT
  5
157E
  8
DEFPOINTS
  6
CONTINUOUS
 62
     0
 10
23.000000000000071
 20
2.4999999999999969
 30
0.0
  0
ENDBLK
  5
15B9
  8
0
  0
BLOCK
  8
0
  2
*D16
 70
     1
 10
0.0
 20
0.0
 30
0.0
  3
*D16
  1

  0
LINE
  5
157F
  8
250
  6
CONTINUOUS
 10
8.9499999999999744
 20
-5.6000000000000014
 30
0.0
 11
34.000000000000071
 21
-5.6000000000000094
 31
0.0
  0
LINE
  5
1580
  8
250
  6
CONTINUOUS
 10
8.9499999999999744
 20
5.5999999999999943
 30
0.0
 11
34.000000000000071
 21
5.5999999999999863
 31
0.0
  0
LINE
  5
1581
  8
250
  6
CONTINUOUS
 10
33.500000000000071
 20
-4.4850000000000083
 30
0.0
 11
33.500000000000071
 21
4.4849999999999861
 31
0.0
  0
INSERT
  5
1582
  8
250
  6
CONTINUOUS
  2
_OPEN
 10
33.500000000000071
 20
-5.6000000000000076
 30
0.0
 41
1.1149999999999991
 42
1.1149999999999991
 43
1.1149999999999991
 50
270.0
  0
INSERT
  5
1583
  8
250
  6
CONTINUOUS
  2
_OPEN
 10
33.500000000000071
 20
5.5999999999999872
 30
0.0
 41
1.1149999999999991
 42
1.1149999999999991
 43
1.1149999999999991
 50
90.0
  0
INSERT
  5
1584
  8
240
  2
*U65
 10
0.0
 20
0.0
 30
0.0
  0
POINT
  5
1585
  8
DEFPOINTS
  6
CONTINUOUS
 62
     0
 10
8.6999999999999744
 20
-5.6000000000000014
 30
0.0
  0
POINT
  5
1586
  8
DEFPOINTS
  6
CONTINUOUS
 62
     0
 10
8.6999999999999744
 20
5.5999999999999943
 30
0.0
  0
POINT
  5
1587
  8
DEFPOINTS
  6
CONTINUOUS
 62
     0
 10
33.500000000000071
 20
5.5999999999999872
 30
0.0
  0
ENDBLK
  5
15BB
  8
0
  0
BLOCK
  8
0
  2
*D17
 70
     1
 10
0.0
 20
0.0
 30
0.0
  3
*D17
  1

  0
LINE
  5
1588
  8
250
  6
CONTINUOUS
 10
8.9500000000000028
 20
-0.7499999999999717
 30
0.0
 11
27.000000000000071
 21
-0.7499999999999769
 31
0.0
  0
LINE
  5
1589
  8
250
  6
CONTINUOUS
 10
8.9500000000005713
 20
5.4500000000000171
 30
0.0
 11
27.000000000000071
 21
5.4500000000000108
 31
0.0
  0
LINE
  5
158A
  8
250
  6
CONTINUOUS
 10
26.500000000000071
 20
0.3650000000000233
 30
0.0
 11
26.500000000000071
 21
4.3350000000000106
 31
0.0
  0
LINE
  5
158B
  8
250
  6
CONTINUOUS
 10
26.500000000000071
 20
5.4500000000000108
 30
0.0
 11
26.500000000000071
 21
17.321190476190491
 31
0.0
  0
INSERT
  5
158C
  8
250
  6
CONTINUOUS
  2
_OPEN
 10
26.500000000000071
 20
-0.7499999999999768
 30
0.0
 41
1.1149999999999991
 42
1.1149999999999991
 43
1.1149999999999991
 50
270.0
  0
INSERT
  5
158D
  8
250
  6
CONTINUOUS
  2
_OPEN
 10
26.500000000000071
 20
5.4500000000000108
 30
0.0
 41
1.1149999999999991
 42
1.1149999999999991
 43
1.1149999999999991
 50
90.0
  0
INSERT
  5
158E
  8
240
  2
*U66
 10
0.0
 20
0.0
 30
0.0
  0
POINT
  5
158F
  8
DEFPOINTS
  6
CONTINUOUS
 62
     0
 10
8.7000000000000028
 20
-0.7499999999999716
 30
0.0
  0
POINT
  5
1590
  8
DEFPOINTS
  6
CONTINUOUS
 62
     0
 10
8.7000000000005713
 20
5.4500000000000171
 30
0.0
  0
POINT
  5
1591
  8
DEFPOINTS
  6
CONTINUOUS
 62
     0
 10
26.500000000000071
 20
5.4500000000000108
 30
0.0
  0
ENDBLK
  5
15BD
  8
0
  0
BLOCK
  8
0
  2
*D18
 70
     1
 10
0.0
 20
0.0
 30
0.0
  3
*D18
  1

  0
LINE
  5
1592
  8
250
  6
CONTINUOUS
 10
5.0500000000000247
 20
5.4415071441650014
 30
0.0
 11
30.499998328480061
 21
5.4415071441649934
 31
0.0
  0
LINE
  5
1593
  8
250
  6
CONTINUOUS
 10
29.999998328480061
 20
4.326507144164994
 30
0.0
 11
29.999998328480061
 21
-7.9397619047619123
 31
0.0
  0
INSERT
  5
1594
  8
250
  6
CONTINUOUS
  2
_OPEN
 10
29.999998328480061
 20
5.4415071441649943
 30
0.0
 41
1.1149999999999991
 42
1.1149999999999991
 43
1.1149999999999991
 50
90.0
  0
INSERT
  5
1595
  8
240
  2
*U67
 10
0.0
 20
0.0
 30
0.0
  0
POINT
  5
1596
  8
DEFPOINTS
  6
CONTINUOUS
 62
     0
 10
4.8000000000000247
 20
5.4415071441650014
 30
0.0
  0
POINT
  5
1597
  8
DEFPOINTS
  6
CONTINUOUS
 62
     0
 10
4.8000000000000247
 20
-5.4415071441650014
 30
0.0
  0
POINT
  5
1598
  8
DEFPOINTS
  6
CONTINUOUS
 62
     0
 10
29.999998328480061
 20
-5.4415071441650076
 30
0.0
  0
ENDBLK
  5
15BF
  8
0
  0
BLOCK
  8
0
  2
*D19
 70
     1
 10
0.0
 20
0.0
 30
0.0
  3
*D19
  1

  0
LINE
  5
1599
  8
250
  6
CONTINUOUS
 10
-23.216506350945679
 20
-8.1250000000000391
 30
0.0
 11
-34.32632867955563
 21
-14.539258912071981
 31
0.0
  0
ARC
  5
159A
  8
250
  6
CONTINUOUS
 10
-22.99999999999957
 20
-8.0000000000000373
 30
0.0
 40
12.578517824143781
 50
185.0805452188734
 51
204.91945478112669
  0
INSERT
  5
159B
  8
250
  6
CONTINUOUS
  2
_OPEN
 10
-35.578517824143347
 20
-8.0000000000000249
 30
0.0
 41
1.1149999999999991
 42
1.1149999999999991
 43
1.1149999999999991
 50
92.540272609436698
  0
INSERT
  5
159C
  8
250
  6
CONTINUOUS
  2
_OPEN
 10
-33.893315977663413
 20
-14.289258912071981
 30
0.0
 41
1.1149999999999991
 42
1.1149999999999991
 43
1.1149999999999991
 50
297.4597273905635
  0
INSERT
  5
159D
  8
240
  2
*U68
 10
0.0
 20
0.0
 30
0.0
  0
POINT
  5
159E
  8
DEFPOINTS
  6
CONTINUOUS
 62
     0
 10
-35.38742187461861
 20
-10.18423669791361
 30
0.0
  0
POINT
  5
159F
  8
DEFPOINTS
  6
CONTINUOUS
 62
     0
 10
-91.999999999999929
 20
-8.0
 30
0.0
  0
POINT
  5
15A0
  8
DEFPOINTS
  6
CONTINUOUS
 62
     0
 10
-15.999999999999121
 20
-3.958548115672357
 30
0.0
  0
POINT
  5
15A1
  8
DEFPOINTS
  6
CONTINUOUS
 62
     0
 10
-22.767949192430692
 20
-7.8660254037844703
 30
0.0
  0
POINT
  5
15A2
  8
DEFPOINTS
  6
CONTINUOUS
 62
     0
 10
-23.267949192430692
 20
-8.0000000000000338
 30
0.0
  0
ENDBLK
  5
15C1
  8
0
  0
BLOCK
  8
0
  2
*D20
 70
     1
 10
0.0
 20
0.0
 30
0.0
  3
*D20
  1

  0
LINE
  5
15A3
  8
250
  6
CONTINUOUS
 10
-5.2784490929583816
 20
-3.1000000000000441
 30
0.0
 11
-4.9999999999999298
 21
-3.1000000000000441
 31
0.0
  0
LINE
  5
15A4
  8
250
  6
CONTINUOUS
 10
-5.7001352003587007
 20
3.1000000000000361
 30
0.0
 11
-5.9999999999999281
 21
3.1000000000000361
 31
0.0
  0
LINE
  5
15A5
  8
250
  6
CONTINUOUS
 10
-5.4999999999999289
 20
-1.9850000000000441
 30
0.0
 11
-5.4999999999999289
 21
1.9850000000000361
 31
0.0
  0
LINE
  5
15A6
  8
250
  6
CONTINUOUS
 10
-5.4999999999999281
 20
3.1000000000000361
 30
0.0
 11
-5.4999999999999272
 21
12.561666666666699
 31
0.0
  0
INSERT
  5
15A7
  8
250
  6
CONTINUOUS
  2
_OPEN
 10
-5.4999999999999298
 20
-3.1000000000000441
 30
0.0
 41
1.1149999999999991
 42
1.1149999999999991
 43
1.1149999999999991
 50
270.0
  0
INSERT
  5
15A8
  8
250
  6
CONTINUOUS
  2
_OPEN
 10
-5.4999999999999281
 20
3.1000000000000361
 30
0.0
 41
1.1149999999999991
 42
1.1149999999999991
 43
1.1149999999999991
 50
90.0
  0
INSERT
  5
15A9
  8
240
  2
*U69
 10
0.0
 20
0.0
 30
0.0
  0
POINT
  5
15AA
  8
DEFPOINTS
  6
CONTINUOUS
 62
     0
 10
-5.5284490929583816
 20
-3.1000000000000441
 30
0.0
  0
POINT
  5
15AB
  8
DEFPOINTS
  6
CONTINUOUS
 62
     0
 10
-5.4501352003587007
 20
3.1000000000000361
 30
0.0
  0
POINT
  5
15AC
  8
DEFPOINTS
  6
CONTINUOUS
 62
     0
 10
-5.4999999999999281
 20
3.1000000000000361
 30
0.0
  0
ENDBLK
  5
15C3
  8
0
  0
BLOCK
  8
0
  2
*D21
 70
     1
 10
0.0
 20
0.0
 30
0.0
  3
*D21
  1

  0
LINE
  5
15AD
  8
250
  6
CONTINUOUS
 10
0.0000000000000711
 20
5.4915071441652676
 30
0.0
 11
0.0000000000000716
 21
14.5
 31
0.0
  0
LINE
  5
15AE
  8
250
  6
CONTINUOUS
 10
8.9999999999999858
 20
5.5499999999999972
 30
0.0
 11
8.9999999999999858
 21
14.5
 31
0.0
  0
LINE
  5
15AF
  8
250
  6
CONTINUOUS
 10
1.115000000000071
 20
14.0
 30
0.0
 11
7.8849999999999847
 21
14.0
 31
0.0
  0
INSERT
  5
15B0
  8
250
  6
CONTINUOUS
  2
_OPEN
 10
0.0000000000000716
 20
14.0
 30
0.0
 41
1.1149999999999991
 42
1.1149999999999991
 43
1.1149999999999991
 50
180.0
  0
INSERT
  5
15B1
  8
250
  6
CONTINUOUS
  2
_OPEN
 10
8.9999999999999858
 20
14.0
 30
0.0
 41
1.1149999999999991
 42
1.1149999999999991
 43
1.1149999999999991
  0
INSERT
  5
15B2
  8
240
  2
*U70
 10
0.0
 20
0.0
 30
0.0
  0
POINT
  5
15B3
  8
DEFPOINTS
  6
CONTINUOUS
 62
     0
 10
0.0000000000000711
 20
5.2415071441652676
 30
0.0
  0
POINT
  5
15B4
  8
DEFPOINTS
  6
CONTINUOUS
 62
     0
 10
8.9999999999999858
 20
5.2999999999999972
 30
0.0
  0
POINT
  5
15B5
  8
DEFPOINTS
  6
CONTINUOUS
 62
     0
 10
8.9999999999999858
 20
14.0
 30
0.0
  0
ENDBLK
  5
15C5
  8
0
  0
BLOCK
  8
0
  2
*D22
 70
     1
 10
0.0
 20
0.0
 30
0.0
  3
*D22
  1

  0
LINE
  5
1602
  8
AM_5
 10
5.3000000000000247
 20
5.4415071441650014
 30
0.0
 11
14.233487578890051
 21
5.4415071441649969
 31
0.0
  0
LINE
  5
1603
  8
AM_5
 10
13.233487578890051
 20
3.2115071441649978
 30
0.0
 11
13.233487578890029
 21
-55.354521432494991
 31
0.0
  0
INSERT
  5
1604
  8
AM_5
  2
_OPEN
 10
13.233487578890051
 20
5.4415071441649978
 30
0.0
 41
2.2299999999999991
 42
2.2299999999999991
 43
2.2299999999999991
 50
90.0
  0
INSERT
  5
1605
  8
240
  2
*U71
 10
0.0
 20
0.0
 30
0.0
  0
POINT
  5
1606
  8
DEFPOINTS
 62
     0
 10
4.8000000000000247
 20
-5.4415071441650014
 30
0.0
  0
POINT
  5
1607
  8
DEFPOINTS
 62
     0
 10
4.8000000000000247
 20
5.4415071441650014
 30
0.0
  0
POINT
  5
1608
  8
DEFPOINTS
 62
     0
 10
13.233487578890051
 20
5.4415071441649978
 30
0.0
  0
ENDBLK
  5
160E
  8
0
  0
BLOCK
  8
0
  2
*D24
 70
     1
 10
0.0
 20
0.0
 30
0.0
  3
*D24
  1

  0
LINE
  5
17EA
  8
AM_5
 10
-92.499999999999915
 20
8.0
 30
0.0
 11
-104.9999999999999
 21
8.0000000000000036
 31
0.0
  0
LINE
  5
17EB
  8
AM_5
 10
-92.499999999999915
 20
-7.9999999999999991
 30
0.0
 11
-104.9999999999999
 21
-7.9999999999999956
 31
0.0
  0
LINE
  5
17EC
  8
AM_5
 10
-103.9999999999999
 20
5.7700000000000031
 30
0.0
 11
-103.9999999999999
 21
-5.769999999999996
 31
0.0
  0
INSERT
  5
17ED
  8
AM_5
  2
_OPEN
 10
-103.9999999999999
 20
8.0000000000000036
 30
0.0
 41
2.2299999999999991
 42
2.2299999999999991
 43
2.2299999999999991
 50
90.0
  0
INSERT
  5
17EE
  8
AM_5
  2
_OPEN
 10
-103.9999999999999
 20
-7.9999999999999956
 30
0.0
 41
2.2299999999999991
 42
2.2299999999999991
 43
2.2299999999999991
 50
270.0
  0
INSERT
  5
17EF
  8
240
  2
*U72
 10
0.0
 20
0.0
 30
0.0
  0
POINT
  5
17F0
  8
DEFPOINTS
 62
     0
 10
-91.999999999999929
 20
8.0
 30
0.0
  0
POINT
  5
17F1
  8
DEFPOINTS
 62
     0
 10
-91.999999999999929
 20
-7.9999999999999991
 30
0.0
  0
POINT
  5
17F2
  8
DEFPOINTS
 62
     0
 10
-103.9999999999999
 20
-7.9999999999999956
 30
0.0
  0
ENDBLK
  5
17F7
  8
0
  0
BLOCK
  8
0
  2
*D25
 70
     1
 10
0.0
 20
0.0
 30
0.0
  3
*D25
  1

  0
LINE
  5
18E5
  8
AM_5
 10
-92.999999999999929
 20
7.5
 30
0.0
 11
-92.999999999999929
 21
29.0
 31
0.0
  0
LINE
  5
18E6
  8
AM_5
 10
9.0000000000002984
 20
5.6500000000000048
 30
0.0
 11
9.0000000000003002
 21
29.0
 31
0.0
  0
LINE
  5
18E7
  8
AM_5
 10
-90.769999999999925
 20
28.0
 30
0.0
 11
6.7700000000002989
 21
28.0
 31
0.0
  0
INSERT
  5
18E8
  8
AM_5
  2
_OPEN
 10
-92.999999999999929
 20
28.0
 30
0.0
 41
2.2299999999999991
 42
2.2299999999999991
 43
2.2299999999999991
 50
180.0
  0
INSERT
  5
18E9
  8
AM_5
  2
_OPEN
 10
9.0000000000003002
 20
28.0
 30
0.0
 41
2.2299999999999991
 42
2.2299999999999991
 43
2.2299999999999991
  0
INSERT
  5
18EA
  8
240
  2
*U74
 10
0.0
 20
0.0
 30
0.0
  0
POINT
  5
18EB
  8
DEFPOINTS
 62
     0
 10
-92.999999999999929
 20
7.0
 30
0.0
  0
POINT
  5
18EC
  8
DEFPOINTS
 62
     0
 10
9.0000000000002984
 20
5.1500000000000048
 30
0.0
  0
POINT
  5
18ED
  8
DEFPOINTS
 62
     0
 10
9.0000000000003002
 20
28.0
 30
0.0
  0
ENDBLK
  5
182D
  8
0
  0
BLOCK
  8
0
  2
*D26
 70
     1
 10
0.0
 20
0.0
 30
0.0
  3
*D26
  1

  0
LINE
  5
18EE
  8
AM_5
 10
9.0000000000002984
 20
5.6500000000000048
 30
0.0
 11
9.0000000000003002
 21
22.0
 31
0.0
  0
LINE
  5
18EF
  8
AM_5
 10
0.0000000000000024
 20
5.8000000000002032
 30
0.0
 11
0.0000000000000034
 21
22.0
 31
0.0
  0
LINE
  5
18F0
  8
AM_5
 10
6.7700000000002989
 20
21.0
 30
0.0
 11
2.2300000000000031
 21
21.0
 31
0.0
  0
INSERT
  5
18F1
  8
AM_5
  2
_OPEN
 10
9.0000000000003002
 20
21.0
 30
0.0
 41
2.2299999999999991
 42
2.2299999999999991
 43
2.2299999999999991
  0
INSERT
  5
18F2
  8
AM_5
  2
_OPEN
 10
0.0000000000000033
 20
21.0
 30
0.0
 41
2.2299999999999991
 42
2.2299999999999991
 43
2.2299999999999991
 50
180.0
  0
INSERT
  5
18F3
  8
240
  2
*U75
 10
0.0
 20
0.0
 30
0.0
  0
POINT
  5
18F4
  8
DEFPOINTS
 62
     0
 10
9.0000000000002984
 20
5.1500000000000048
 30
0.0
  0
POINT
  5
18F5
  8
DEFPOINTS
 62
     0
 10
0.0000000000000024
 20
5.3000000000002032
 30
0.0
  0
POINT
  5
18F6
  8
DEFPOINTS
 62
     0
 10
0.0000000000000033
 20
21.0
 30
0.0
  0
ENDBLK
  5
1855
  8
0
  0
BLOCK
  8
0
  2
*D27
 70
     1
 10
0.0
 20
0.0
 30
0.0
  3
*D27
  1

  0
LINE
  5
1895
  8
AM_5
 10
5.3000000000000247
 20
5.4999999999999352
 30
0.0
 11
22.0
 21
5.4999999999999298
 31
0.0
  0
LINE
  5
1896
  8
AM_5
 10
21.0
 20
3.2699999999999299
 30
0.0
 11
21.0
 21
-4.1333333333352913
 31
0.0
  0
INSERT
  5
1897
  8
AM_5
  2
_OPEN
 10
21.0
 20
5.4999999999999298
 30
0.0
 41
2.2299999999999991
 42
2.2299999999999991
 43
2.2299999999999991
 50
90.0
  0
INSERT
  5
1898
  8
240
  2
*U73
 10
0.0
 20
0.0
 30
0.0
  0
POINT
  5
1899
  8
DEFPOINTS
 62
     0
 10
4.8000000000034682
 20
-5.5000000000038431
 30
0.0
  0
POINT
  5
189A
  8
DEFPOINTS
 62
     0
 10
4.8000000000000247
 20
5.4999999999999352
 30
0.0
  0
POINT
  5
189B
  8
DEFPOINTS
 62
     0
 10
21.0
 20
5.4999999999999298
 30
0.0
  0
ENDBLK
  5
1894
  8
0
  0
BLOCK
  8
0
  2
*D28
 70
     1
 10
0.0
 20
0.0
 30
0.0
  3
*D28
  1

  0
LINE
  5
18F7
  8
AM_5
 10
-12.0
 20
3.600000000000025
 30
0.0
 11
-11.999999999999989
 21
22.0
 31
0.0
  0
LINE
  5
18F8
  8
AM_5
 10
0.0000000000000706
 20
5.8000000000002032
 30
0.0
 11
0.0000000000000716
 21
22.0
 31
0.0
  0
LINE
  5
18F9
  8
AM_5
 10
-9.769999999999996
 20
21.0
 30
0.0
 11
-2.229999999999928
 21
21.0
 31
0.0
  0
INSERT
  5
18FA
  8
AM_5
  2
_OPEN
 10
-11.999999999999989
 20
21.0
 30
0.0
 41
2.2299999999999991
 42
2.2299999999999991
 43
2.2299999999999991
 50
180.0
  0
INSERT
  5
18FB
  8
AM_5
  2
_OPEN
 10
0.0000000000000716
 20
21.0
 30
0.0
 41
2.2299999999999991
 42
2.2299999999999991
 43
2.2299999999999991
  0
INSERT
  5
18FC
  8
240
  2
*U76
 10
0.0
 20
0.0
 30
0.0
  0
POINT
  5
18FD
  8
DEFPOINTS
 62
     0
 10
-12.0
 20
3.100000000000025
 30
0.0
  0
POINT
  5
18FE
  8
DEFPOINTS
 62
     0
 10
0.0000000000000706
 20
5.3000000000002032
 30
0.0
  0
POINT
  5
18FF
  8
DEFPOINTS
 62
     0
 10
0.0000000000000716
 20
21.0
 30
0.0
  0
ENDBLK
  5
18DB
  8
0
  0
BLOCK
  8
0
  2
A$C46570B44
 70
     0
 10
0.0
 20
0.0
 30
0.0
  3
A$C46570B44
  1

  0
LINE
  5
1949
  8
243
 10
-91.999999999999929
 20
-3.9999999999999432
 30
0.0
 11
-23.999999999999449
 21
-3.9999999999999432
 31
0.0
  0
LINE
  5
194A
  8
243
 10
-91.999999999999915
 20
4.0
 30
0.0
 11
-24.00000000000016
 21
4.0
 31
0.0
  0
LINE
  5
194B
  8
245
 10
-94.999999999999915
 20
0.0
 30
0.0
 11
11.04384989031495
 21
0.0
 31
0.0
  0
LINE
  5
194C
  8
240
 10
-91.999999999999929
 20
8.0
 30
0.0
 11
-23.267949192430649
 21
8.0
 31
0.0
  0
LINE
  5
194D
  8
240
 10
-91.999999999999929
 20
-8.0
 30
0.0
 11
-23.267949192430692
 21
-8.0000000000000355
 31
0.0
  0
LINE
  5
194E
  8
240
 10
-92.999999999999929
 20
0.0
 30
0.0
 11
-92.999999999999929
 21
7.0
 31
0.0
  0
LINE
  5
194F
  8
240
 10
-92.999999999999929
 20
0.0
 30
0.0
 11
-92.999999999999929
 21
-7.0
 31
0.0
  0
ARC
  5
1950
  8
243
 10
-91.999999999999929
 20
-4.9999999999999432
 30
0.0
 40
1.0
 50
90.0
 51
180.0
  0
ARC
  5
1951
  8
240
 10
-91.999999999999929
 20
-7.0
 30
0.0
 40
1.0
 50
180.0
 51
270.0
  0
ARC
  5
1952
  8
243
 10
-91.999999999999915
 20
5.0
 30
0.0
 40
1.0
 50
180.0
 51
270.0
  0
ARC
  5
1953
  8
240
 10
-91.999999999999929
 20
7.0
 30
0.0
 40
1.0
 50
90.0
 51
180.0
  0
LINE
  5
1954
  8
243
 10
-23.9999999999994
 20
4.0000000000001421
 30
0.0
 11
-21.69059892324082
 21
0.0
 31
0.0
  0
LINE
  5
1955
  8
243
 10
-23.999999999999361
 20
-3.9999999999999432
 30
0.0
 11
-24.000000000000071
 21
4.0
 31
0.0
  0
ARC
  5
1956
  8
240
 10
-13.1732050807564
 20
8.1000000000000227
 30
0.0
 40
5.0
 50
239.9999999999998
 51
270.0
  0
POLYLINE
  8
241
  5
1B5A
  66
     1
 10
0.000000
 20
0.000000
 30
0.000000
  70
     8
  0
VERTEX
  8
241
  5
1B5B
 10
-23.0000
 20
3.87298
 30
0.000000
  70
    32
  0
VERTEX
  8
241
  5
1B5C
 10
-22.9673
 20
3.82427
 30
0.000000
  70
    32
  0
VERTEX
  8
241
  5
1B5D
 10
-22.9347
 20
3.77555
 30
0.000000
  70
    32
  0
VERTEX
  8
241
  5
1B5E
 10
-22.9020
 20
3.72683
 30
0.000000
  70
    32
  0
VERTEX
  8
241
  5
1B5F
 10
-22.8694
 20
3.67812
 30
0.000000
  70
    32
  0
VERTEX
  8
241
  5
1B60
 10
-22.8368
 20
3.62940
 30
0.000000
  70
    32
  0
VERTEX
  8
241
  5
1B61
 10
-22.8043
 20
3.58068
 30
0.000000
  70
    32
  0
VERTEX
  8
241
  5
1B62
 10
-22.7718
 20
3.53197
 30
0.000000
  70
    32
  0
VERTEX
  8
241
  5
1B63
 10
-22.7394
 20
3.48325
 30
0.000000
  70
    32
  0
VERTEX
  8
241
  5
1B64
 10
-22.7071
 20
3.43453
 30
0.000000
  70
    32
  0
VERTEX
  8
241
  5
1B65
 10
-22.6749
 20
3.38582
 30
0.000000
  70
    32
  0
VERTEX
  8
241
  5
1B66
 10
-22.6428
 20
3.33710
 30
0.000000
  70
    32
  0
VERTEX
  8
241
  5
1B67
 10
-22.6108
 20
3.28838
 30
0.000000
  70
    32
  0
VERTEX
  8
241
  5
1B68
 10
-22.5789
 20
3.23967
 30
0.000000
  70
    32
  0
VERTEX
  8
241
  5
1B69
 10
-22.5472
 20
3.19095
 30
0.000000
  70
    32
  0
VERTEX
  8
241
  5
1B6A
 10
-22.5156
 20
3.14223
 30
0.000000
  70
    32
  0
VERTEX
  8
241
  5
1B6B
 10
-22.4842
 20
3.09351
 30
0.000000
  70
    32
  0
VERTEX
  8
241
  5
1B6C
 10
-22.4529
 20
3.04480
 30
0.000000
  70
    32
  0
VERTEX
  8
241
  5
1B6D
 10
-22.4218
 20
2.99608
 30
0.000000
  70
    32
  0
VERTEX
  8
241
  5
1B6E
 10
-22.3909
 20
2.94736
 30
0.000000
  70
    32
  0
VERTEX
  8
241
  5
1B6F
 10
-22.3602
 20
2.89865
 30
0.000000
  70
    32
  0
VERTEX
  8
241
  5
1B70
 10
-22.3297
 20
2.84993
 30
0.000000
  70
    32
  0
VERTEX
  8
241
  5
1B71
 10
-22.2994
 20
2.80121
 30
0.000000
  70
    32
  0
VERTEX
  8
241
  5
1B72
 10
-22.2693
 20
2.75250
 30
0.000000
  70
    32
  0
VERTEX
  8
241
  5
1B73
 10
-22.2395
 20
2.70378
 30
0.000000
  70
    32
  0
VERTEX
  8
241
  5
1B74
 10
-22.2099
 20
2.65506
 30
0.000000
  70
    32
  0
VERTEX
  8
241
  5
1B75
 10
-22.1806
 20
2.60635
 30
0.000000
  70
    32
  0
VERTEX
  8
241
  5
1B76
 10
-22.1516
 20
2.55763
 30
0.000000
  70
    32
  0
VERTEX
  8
241
  5
1B77
 10
-22.1228
 20
2.50891
 30
0.000000
  70
    32
  0
VERTEX
  8
241
  5
1B78
 10
-22.0943
 20
2.46020
 30
0.000000
  70
    32
  0
VERTEX
  8
241
  5
1B79
 10
-22.0661
 20
2.41148
 30
0.000000
  70
    32
  0
VERTEX
  8
241
  5
1B7A
 10
-22.0383
 20
2.36276
 30
0.000000
  70
    32
  0
VERTEX
  8
241
  5
1B7B
 10
-22.0107
 20
2.31405
 30
0.000000
  70
    32
  0
VERTEX
  8
241
  5
1B7C
 10
-21.9835
 20
2.26533
 30
0.000000
  70
    32
  0
VERTEX
  8
241
  5
1B7D
 10
-21.9566
 20
2.21661
 30
0.000000
  70
    32
  0
VERTEX
  8
241
  5
1B7E
 10
-21.9301
 20
2.16790
 30
0.000000
  70
    32
  0
VERTEX
  8
241
  5
1B7F
 10
-21.9039
 20
2.11918
 30
0.000000
  70
    32
  0
VERTEX
  8
241
  5
1B80
 10
-21.8781
 20
2.07046
 30
0.000000
  70
    32
  0
VERTEX
  8
241
  5
1B81
 10
-21.8527
 20
2.02175
 30
0.000000
  70
    32
  0
VERTEX
  8
241
  5
1B82
 10
-21.8277
 20
1.97303
 30
0.000000
  70
    32
  0
VERTEX
  8
241
  5
1B83
 10
-21.8031
 20
1.92431
 30
0.000000
  70
    32
  0
VERTEX
  8
241
  5
1B84
 10
-21.7789
 20
1.87560
 30
0.000000
  70
    32
  0
VERTEX
  8
241
  5
1B85
 10
-21.7551
 20
1.82688
 30
0.000000
  70
    32
  0
VERTEX
  8
241
  5
1B86
 10
-21.7318
 20
1.77816
 30
0.000000
  70
    32
  0
VERTEX
  8
241
  5
1B87
 10
-21.7089
 20
1.72945
 30
0.000000
  70
    32
  0
VERTEX
  8
241
  5
1B88
 10
-21.6865
 20
1.68073
 30
0.000000
  70
    32
  0
VERTEX
  8
241
  5
1B89
 10
-21.6645
 20
1.63201
 30
0.000000
  70
    32
  0
VERTEX
  8
241
  5
1B8A
 10
-21.6430
 20
1.58330
 30
0.000000
  70
    32
  0
VERTEX
  8
241
  5
1B8B
 10
-21.6220
 20
1.53458
 30
0.000000
  70
    32
  0
VERTEX
  8
241
  5
1B8C
 10
-21.6014
 20
1.48586
 30
0.000000
  70
    32
  0
VERTEX
  8
241
  5
1B8D
 10
-21.5814
 20
1.43714
 30
0.000000
  70
    32
  0
VERTEX
  8
241
  5
1B8E
 10
-21.5619
 20
1.38843
 30
0.000000
  70
    32
  0
VERTEX
  8
241
  5
1B8F
 10
-21.5430
 20
1.33971
 30
0.000000
  70
    32
  0
VERTEX
  8
241
  5
1B90
 10
-21.5245
 20
1.29099
 30
0.000000
  70
    32
  0
VERTEX
  8
241
  5
1B91
 10
-21.5067
 20
1.24228
 30
0.000000
  70
    32
  0
VERTEX
  8
241
  5
1B92
 10
-21.4893
 20
1.19356
 30
0.000000
  70
    32
  0
VERTEX
  8
241
  5
1B93
 10
-21.4726
 20
1.14484
 30
0.000000
  70
    32
  0
VERTEX
  8
241
  5
1B94
 10
-21.4564
 20
1.09613
 30
0.000000
  70
    32
  0
VERTEX
  8
241
  5
1B95
 10
-21.4408
 20
1.04741
 30
0.000000
  70
    32
  0
VERTEX
  8
241
  5
1B96
 10
-21.4259
 20
0.998694
 30
0.000000
  70
    32
  0
VERTEX
  8
241
  5
1B97
 10
-21.4115
 20
0.949977
 30
0.000000
  70
    32
  0
VERTEX
  8
241
  5
1B98
 10
-21.3977
 20
0.901260
 30
0.000000
  70
    32
  0
VERTEX
  8
241
  5
1B99
 10
-21.3846
 20
0.852544
 30
0.000000
  70
    32
  0
VERTEX
  8
241
  5
1B9A
 10
-21.3721
 20
0.803827
 30
0.000000
  70
    32
  0
VERTEX
  8
241
  5
1B9B
 10
-21.3603
 20
0.755110
 30
0.000000
  70
    32
  0
VERTEX
  8
241
  5
1B9C
 10
-21.3491
 20
0.706393
 30
0.000000
  70
    32
  0
VERTEX
  8
241
  5
1B9D
 10
-21.3386
 20
0.657676
 30
0.000000
  70
    32
  0
VERTEX
  8
241
  5
1B9E
 10
-21.3288
 20
0.608960
 30
0.000000
  70
    32
  0
VERTEX
  8
241
  5
1B9F
 10
-21.3197
 20
0.560243
 30
0.000000
  70
    32
  0
VERTEX
  8
241
  5
1BA0
 10
-21.3113
 20
0.511526
 30
0.000000
  70
    32
  0
VERTEX
  8
241
  5
1BA1
 10
-21.3036
 20
0.462809
 30
0.000000
  70
    32
  0
VERTEX
  8
241
  5
1BA2
 10
-21.2966
 20
0.414093
 30
0.000000
  70
    32
  0
VERTEX
  8
241
  5
1BA3
 10
-21.2903
 20
0.365376
 30
0.000000
  70
    32
  0
VERTEX
  8
241
  5
1BA4
 10
-21.2848
 20
0.316659
 30
0.000000
  70
    32
  0
VERTEX
  8
241
  5
1BA5
 10
-21.2801
 20
0.267942
 30
0.000000
  70
    32
  0
VERTEX
  8
241
  5
1BA6
 10
-21.2761
 20
0.219225
 30
0.000000
  70
    32
  0
VERTEX
  8
241
  5
1BA7
 10
-21.2729
 20
0.170509
 30
0.000000
  70
    32
  0
VERTEX
  8
241
  5
1BA8
 10
-21.2705
 20
0.121792
 30
0.000000
  70
    32
  0
VERTEX
  8
241
  5
1BA9
 10
-21.2689
 20
0.0730752
 30
0.000000
  70
    32
  0
VERTEX
  8
241
  5
1BAA
 10
-21.2681
 20
0.0243584
 30
0.000000
  70
    32
  0
VERTEX
  8
241
  5
1BAB
 10
-21.2681
 20
-0.0243584
 30
0.000000
  70
    32
  0
VERTEX
  8
241
  5
1BAC
 10
-21.2689
 20
-0.0730752
 30
0.000000
  70
    32
  0
VERTEX
  8
241
  5
1BAD
 10
-21.2705
 20
-0.121792
 30
0.000000
  70
    32
  0
VERTEX
  8
241
  5
1BAE
 10
-21.2729
 20
-0.170509
 30
0.000000
  70
    32
  0
VERTEX
  8
241
  5
1BAF
 10
-21.2761
 20
-0.219225
 30
0.000000
  70
    32
  0
VERTEX
  8
241
  5
1BB0
 10
-21.2801
 20
-0.267942
 30
0.000000
  70
    32
  0
VERTEX
  8
241
  5
1BB1
 10
-21.2848
 20
-0.316659
 30
0.000000
  70
    32
  0
VERTEX
  8
241
  5
1BB2
 10
-21.2903
 20
-0.365376
 30
0.000000
  70
    32
  0
VERTEX
  8
241
  5
1BB3
 10
-21.2966
 20
-0.414093
 30
0.000000
  70
    32
  0
VERTEX
  8
241
  5
1BB4
 10
-21.3036
 20
-0.462809
 30
0.000000
  70
    32
  0
VERTEX
  8
241
  5
1BB5
 10
-21.3113
 20
-0.511526
 30
0.000000
  70
    32
  0
VERTEX
  8
241
  5
1BB6
 10
-21.3197
 20
-0.560243
 30
0.000000
  70
    32
  0
VERTEX
  8
241
  5
1BB7
 10
-21.3288
 20
-0.608960
 30
0.000000
  70
    32
  0
VERTEX
  8
241
  5
1BB8
 10
-21.3386
 20
-0.657676
 30
0.000000
  70
    32
  0
VERTEX
  8
241
  5
1BB9
 10
-21.3491
 20
-0.706393
 30
0.000000
  70
    32
  0
VERTEX
  8
241
  5
1BBA
 10
-21.3603
 20
-0.755110
 30
0.000000
  70
    32
  0
VERTEX
  8
241
  5
1BBB
 10
-21.3721
 20
-0.803827
 30
0.000000
  70
    32
  0
VERTEX
  8
241
  5
1BBC
 10
-21.3846
 20
-0.852544
 30
0.000000
  70
    32
  0
VERTEX
  8
241
  5
1BBD
 10
-21.3977
 20
-0.901260
 30
0.000000
  70
    32
  0
VERTEX
  8
241
  5
1BBE
 10
-21.4115
 20
-0.949977
 30
0.000000
  70
    32
  0
VERTEX
  8
241
  5
1BBF
 10
-21.4259
 20
-0.998694
 30
0.000000
  70
    32
  0
VERTEX
  8
241
  5
1BC0
 10
-21.4408
 20
-1.04741
 30
0.000000
  70
    32
  0
VERTEX
  8
241
  5
1BC1
 10
-21.4564
 20
-1.09613
 30
0.000000
  70
    32
  0
VERTEX
  8
241
  5
1BC2
 10
-21.4726
 20
-1.14484
 30
0.000000
  70
    32
  0
VERTEX
  8
241
  5
1BC3
 10
-21.4893
 20
-1.19356
 30
0.000000
  70
    32
  0
VERTEX
  8
241
  5
1BC4
 10
-21.5067
 20
-1.24228
 30
0.000000
  70
    32
  0
VERTEX
  8
241
  5
1BC5
 10
-21.5245
 20
-1.29099
 30
0.000000
  70
    32
  0
VERTEX
  8
241
  5
1BC6
 10
-21.5430
 20
-1.33971
 30
0.000000
  70
    32
  0
VERTEX
  8
241
  5
1BC7
 10
-21.5619
 20
-1.38843
 30
0.000000
  70
    32
  0
VERTEX
  8
241
  5
1BC8
 10
-21.5814
 20
-1.43714
 30
0.000000
  70
    32
  0
VERTEX
  8
241
  5
1BC9
 10
-21.6014
 20
-1.48586
 30
0.000000
  70
    32
  0
VERTEX
  8
241
  5
1BCA
 10
-21.6220
 20
-1.53458
 30
0.000000
  70
    32
  0
VERTEX
  8
241
  5
1BCB
 10
-21.6430
 20
-1.58330
 30
0.000000
  70
    32
  0
VERTEX
  8
241
  5
1BCC
 10
-21.6645
 20
-1.63201
 30
0.000000
  70
    32
  0
VERTEX
  8
241
  5
1BCD
 10
-21.6865
 20
-1.68073
 30
0.000000
  70
    32
  0
VERTEX
  8
241
  5
1BCE
 10
-21.7089
 20
-1.72945
 30
0.000000
  70
    32
  0
VERTEX
  8
241
  5
1BCF
 10
-21.7318
 20
-1.77816
 30
0.000000
  70
    32
  0
VERTEX
  8
241
  5
1BD0
 10
-21.7551
 20
-1.82688
 30
0.000000
  70
    32
  0
VERTEX
  8
241
  5
1BD1
 10
-21.7789
 20
-1.87560
 30
0.000000
  70
    32
  0
VERTEX
  8
241
  5
1BD2
 10
-21.8031
 20
-1.92431
 30
0.000000
  70
    32
  0
VERTEX
  8
241
  5
1BD3
 10
-21.8277
 20
-1.97303
 30
0.000000
  70
    32
  0
VERTEX
  8
241
  5
1BD4
 10
-21.8527
 20
-2.02175
 30
0.000000
  70
    32
  0
VERTEX
  8
241
  5
1BD5
 10
-21.8781
 20
-2.07046
 30
0.000000
  70
    32
  0
VERTEX
  8
241
  5
1BD6
 10
-21.9039
 20
-2.11918
 30
0.000000
  70
    32
  0
VERTEX
  8
241
  5
1BD7
 10
-21.9301
 20
-2.16790
 30
0.000000
  70
    32
  0
VERTEX
  8
241
  5
1BD8
 10
-21.9566
 20
-2.21661
 30
0.000000
  70
    32
  0
VERTEX
  8
241
  5
1BD9
 10
-21.9835
 20
-2.26533
 30
0.000000
  70
    32
  0
VERTEX
  8
241
  5
1BDA
 10
-22.0107
 20
-2.31405
 30
0.000000
  70
    32
  0
VERTEX
  8
241
  5
1BDB
 10
-22.0383
 20
-2.36276
 30
0.000000
  70
    32
  0
VERTEX
  8
241
  5
1BDC
 10
-22.0661
 20
-2.41148
 30
0.000000
  70
    32
  0
VERTEX
  8
241
  5
1BDD
 10
-22.0943
 20
-2.46020
 30
0.000000
  70
    32
  0
VERTEX
  8
241
  5
1BDE
 10
-22.1228
 20
-2.50891
 30
0.000000
  70
    32
  0
VERTEX
  8
241
  5
1BDF
 10
-22.1516
 20
-2.55763
 30
0.000000
  70
    32
  0
VERTEX
  8
241
  5
1BE0
 10
-22.1806
 20
-2.60635
 30
0.000000
  70
    32
  0
VERTEX
  8
241
  5
1BE1
 10
-22.2099
 20
-2.65506
 30
0.000000
  70
    32
  0
VERTEX
  8
241
  5
1BE2
 10
-22.2395
 20
-2.70378
 30
0.000000
  70
    32
  0
VERTEX
  8
241
  5
1BE3
 10
-22.2693
 20
-2.75250
 30
0.000000
  70
    32
  0
VERTEX
  8
241
  5
1BE4
 10
-22.2994
 20
-2.80121
 30
0.000000
  70
    32
  0
VERTEX
  8
241
  5
1BE5
 10
-22.3297
 20
-2.84993
 30
0.000000
  70
    32
  0
VERTEX
  8
241
  5
1BE6
 10
-22.3602
 20
-2.89865
 30
0.000000
  70
    32
  0
VERTEX
  8
241
  5
1BE7
 10
-22.3909
 20
-2.94736
 30
0.000000
  70
    32
  0
VERTEX
  8
241
  5
1BE8
 10
-22.4218
 20
-2.99608
 30
0.000000
  70
    32
  0
VERTEX
  8
241
  5
1BE9
 10
-22.4529
 20
-3.04480
 30
0.000000
  70
    32
  0
VERTEX
  8
241
  5
1BEA
 10
-22.4842
 20
-3.09351
 30
0.000000
  70
    32
  0
VERTEX
  8
241
  5
1BEB
 10
-22.5156
 20
-3.14223
 30
0.000000
  70
    32
  0
VERTEX
  8
241
  5
1BEC
 10
-22.5472
 20
-3.19095
 30
0.000000
  70
    32
  0
VERTEX
  8
241
  5
1BED
 10
-22.5789
 20
-3.23967
 30
0.000000
  70
    32
  0
VERTEX
  8
241
  5
1BEE
 10
-22.6108
 20
-3.28838
 30
0.000000
  70
    32
  0
VERTEX
  8
241
  5
1BEF
 10
-22.6428
 20
-3.33710
 30
0.000000
  70
    32
  0
VERTEX
  8
241
  5
1BF0
 10
-22.6749
 20
-3.38582
 30
0.000000
  70
    32
  0
VERTEX
  8
241
  5
1BF1
 10
-22.7071
 20
-3.43453
 30
0.000000
  70
    32
  0
VERTEX
  8
241
  5
1BF2
 10
-22.7394
 20
-3.48325
 30
0.000000
  70
    32
  0
VERTEX
  8
241
  5
1BF3
 10
-22.7718
 20
-3.53197
 30
0.000000
  70
    32
  0
VERTEX
  8
241
  5
1BF4
 10
-22.8043
 20
-3.58068
 30
0.000000
  70
    32
  0
VERTEX
  8
241
  5
1BF5
 10
-22.8368
 20
-3.62940
 30
0.000000
  70
    32
  0
VERTEX
  8
241
  5
1BF6
 10
-22.8694
 20
-3.67812
 30
0.000000
  70
    32
  0
VERTEX
  8
241
  5
1BF7
 10
-22.9020
 20
-3.72683
 30
0.000000
  70
    32
  0
VERTEX
  8
241
  5
1BF8
 10
-22.9347
 20
-3.77555
 30
0.000000
  70
    32
  0
VERTEX
  8
241
  5
1BF9
 10
-22.9673
 20
-3.82427
 30
0.000000
  70
    32
  0
VERTEX
  8
241
  5
1BFA
 10
-23.0000
 20
-3.87298
 30
0.000000
  70
    32
  0
SEQEND
  8
241
  5
1BFB
  0
LINE
  5
1958
  8
241
 10
-27.999999999999961
 20
-3.872983346207064
 30
0.0
 11
-27.999999999999961
 21
3.872983346207064
 31
0.0
  0
LINE
  5
1959
  8
242
 10
-27.999999999999961
 20
3.872983346207064
 30
0.0
 11
-22.999999999999929
 21
-3.872983346207433
 31
0.0
  0
LINE
  5
195A
  8
242
 10
-22.999999999999929
 20
3.8729833462069219
 30
0.0
 11
-27.999999999999961
 21
-3.872983346207064
 31
0.0
  0
LINE
  5
195B
  8
240
 10
8.9999999999999005
 20
-0.4500000000060993
 30
0.0
 11
9.0000000000002984
 21
5.1500000000000048
 31
0.0
  0
LINE
  5
195C
  8
240
 10
8.7000000000000028
 20
-0.7499999999999716
 30
0.0
 11
-12.99999999999984
 21
-0.7499999999999716
 31
0.0
  0
LINE
  5
195D
  8
241
 10
-27.999999999999961
 20
-3.872983346207064
 30
0.0
 11
-22.999999999999929
 21
-3.872983346207064
 31
0.0
  0
LINE
  5
195E
  8
240
 10
-0.2499999999999289
 20
3.1000000000000512
 30
0.0
 11
-13.173205080756389
 21
3.1000000000000218
 31
0.0
  0
LINE
  5
195F
  8
241
 10
-12.99999999999987
 20
1.1749999999997831
 30
0.0
 11
-2.2996721664486439
 21
1.1749999999997831
 31
0.0
  0
LINE
  5
1960
  8
240
 10
-15.999999999999121
 20
-3.958548115672357
 30
0.0
 11
-22.767949192430692
 21
-7.8660254037844686
 31
0.0
  0
LINE
  5
1961
  8
243
 10
-23.9999999999994
 20
-4.0000000000001421
 30
0.0
 11
-21.69059892324082
 21
0.0
 31
0.0
  0
LINE
  5
1962
  8
241
 10
-22.999999999999929
 20
-3.872983346207064
 30
0.0
 11
-23.00000000000022
 21
-7.9634330440025352
 31
0.0
  0
LINE
  5
1963
  8
241
 10
-15.999999999999829
 20
-3.7499999999998859
 30
0.0
 11
-15.999999999999829
 21
-1.824999999999761
 31
0.0
  0
ARC
  5
1964
  8
240
 10
-12.99999999999984
 20
-3.7499999999998859
 30
0.0
 40
3.0000000000001981
 50
89.999999999999204
 51
180.0
  0
LINE
  5
1965
  8
240
 10
-15.999999999999121
 20
-3.958548115672357
 30
0.0
 11
-15.999999999999689
 21
-3.7499999999998859
 31
0.0
  0
ARC
  5
1966
  8
241
 10
-12.999999999999931
 20
-1.824999999999761
 30
0.0
 40
2.999999999999801
 50
89.999999999998366
 51
180.0
  0
LINE
  5
1967
  8
241
 10
-0.5000000000002416
 20
0.4920739440771058
 30
0.0
 11
-0.1604186469460131
 21
0.4920739440771343
 31
0.0
  0
LINE
  5
1968
  8
241
 10
5.160418646946467
 20
0.4920739440771058
 30
0.0
 11
8.9999999999992752
 21
0.4920739440771058
 31
0.0
  0
LINE
  5
1969
  8
241
 10
5.2935106425794771
 20
1.9805247913349711
 30
0.0
 11
8.9999999999993872
 21
1.9805247913349711
 31
0.0
  0
LINE
  5
196A
  8
240
 10
8.7000000000000028
 20
-0.7499999999999716
 30
0.0
 11
8.9999999999999005
 21
-0.4500000000060993
 31
0.0
  0
LINE
  5
196B
  8
240
 10
8.7000000000005713
 20
5.4500000000000171
 30
0.0
 11
4.9322875655533789
 21
5.4500000000000934
 31
0.0
  0
LINE
  5
196C
  8
241
 10
-27.999999999999961
 20
3.872983346207064
 30
0.0
 11
-22.999999999999929
 21
3.872983346207064
 31
0.0
  0
LINE
  5
196D
  8
240
 10
-15.6732050807564
 20
3.769872981077838
 30
0.0
 11
-22.767949192430649
 21
7.866025403784433
 31
0.0
  0
LINE
  5
196E
  8
241
 10
-22.999999999999929
 20
3.872983346207064
 30
0.0
 11
-22.999999999999929
 21
7.9634330440024854
 31
0.0
  0
LINE
  5
196F
  8
241
 10
5.2999999999992582
 20
3.9337981216781368
 30
0.0
 11
8.999999999999531
 21
3.9337981216781368
 31
0.0
  0
LINE
  5
1970
  8
240
 10
8.7000000000005713
 20
5.4500000000000171
 30
0.0
 11
9.0000000000002984
 21
5.1500000000000048
 31
0.0
  0
LINE
  5
1971
  8
240
 10
4.8000000000000247
 20
5.4999999999999361
 30
0.0
 11
0.2000000000000024
 21
5.500000000000191
 31
0.0
  0
LINE
  5
1972
  8
241
 10
3.3000000000000251
 20
0.1415071441655868
 30
0.0
 11
1.70000000000023
 21
0.1415071441655868
 31
0.0
  0
CIRCLE
  5
1973
  8
242
 10
2.5494974746830641
 20
2.9505025253171691
 30
0.0
 40
1.0
  0
LINE
  5
1974
  8
245
 10
-0.1999999999999744
 20
2.9415071441652851
 30
0.0
 11
5.200000000000002
 21
2.9415071441652851
 31
0.0
  0
ARC
  5
1975
  8
241
 10
1.70000000000023
 20
2.141507144165586
 30
0.0
 40
2.0
 50
179.99999999687739
 51
193.45582841304869
  0
ARC
  5
1976
  8
241
 10
0.5999999999999801
 20
1.1415071441652169
 30
0.0
 40
1.0
 50
147.6825820084141
 51
296.86479600378152
  0
LINE
  5
1977
  8
241
 10
-0.0000000000000431
 20
0.7000000000000668
 30
0.0
 11
0.0000000000000184
 21
3.1877501000800801
 31
0.0
  0
LINE
  5
1978
  8
240
 10
0.0000000000000184
 20
3.1877501000800801
 30
0.0
 11
0.0000000000000706
 21
5.3000000000002032
 31
0.0
  0
ARC
  5
1979
  8
241
 10
0.2000000000000024
 20
0.7000000000000668
 30
0.0
 40
0.2
 50
180.0
 51
270.0
  0
ARC
  5
197A
  8
241
 10
1.70000000000023
 20
2.141507144165586
 30
0.0
 40
2.0
 50
251.09158479933629
 51
270.0
  0
LINE
  5
197B
  8
241
 10
-0.3000000000011624
 20
3.0999999999999939
 30
0.0
 11
-0.300000000061388
 21
2.1415071442745841
 31
0.0
  0
ARC
  5
197C
  8
240
 10
-0.2499999999999289
 20
3.5000000000000422
 30
0.0
 40
0.4
 50
269.99998239990748
 51
308.6821874534798
  0
ARC
  5
197D
  8
240
 10
0.2000000000000024
 20
5.3000000000002032
 30
0.0
 40
0.2
 50
89.999999999996746
 51
180.0
  0
ARC
  5
197E
  8
241
 10
3.3000000000000251
 20
2.141507144165586
 30
0.0
 40
2.0
 50
328.21166938290759
 51
0.0000000000032569
  0
LINE
  5
197F
  8
241
 10
4.9999999999992752
 20
0.7000000000000668
 30
0.0
 11
4.9999999999996181
 21
5.4500000000000908
 31
0.0
  0
LINE
  5
1980
  8
245
 10
2.500000000000127
 20
5.6415071441652742
 30
0.0
 11
2.500000000000127
 21
0.2415071441652685
 31
0.0
  0
LINE
  5
1981
  8
241
 10
4.8000000000000247
 20
0.5000000000000782
 30
0.0
 11
0.2000000000002302
 21
0.5000000000000782
 31
0.0
  0
ARC
  5
1982
  8
241
 10
3.3000000000000251
 20
2.141507144165586
 30
0.0
 40
2.0
 50
270.0
 51
304.83969949647502
  0
ARC
  5
1983
  8
241
 10
4.8000000000000247
 20
0.7000000000000668
 30
0.0
 40
0.2
 50
270.0
 51
0.0
  0
LINE
  5
1984
  8
241
 10
5.3000000000000247
 20
2.1415071441657001
 30
0.0
 11
5.2999999999997982
 21
5.4500000000000446
 31
0.0
  0
ARC
  5
1985
  8
241
 10
4.8000000000000247
 20
5.3000000000002032
 30
0.0
 40
0.2
 50
0.0
 51
48.590377890682312
  0
ARC
  5
1986
  8
240
 10
4.8000000000000247
 20
5.3000000000002032
 30
0.0
 40
0.2
 50
48.590377890682312
 51
90.0
  0
LINE
  5
1987
  8
241
 10
-17.749999999999879
 20
1.95603797092103
 30
0.0
 11
-0.2913817277897976
 21
1.95603797092103
 31
0.0
  0
LINE
  5
1988
  8
241
 10
-17.749999999999879
 20
2.9289437393477011
 30
0.0
 11
-0.3000000000115364
 21
2.9289437393477011
 31
0.0
  0
POLYLINE
  5
1989
  8
241
 10
-17.749999999999257
 20
2.9289437393471185
 30
0.0
 66
     1
 70
     8
  0
VERTEX
  8
241
  5
1BFC
 10
-17.7500
 20
2.92894
 30
0.000000
  70
    32
  0
VERTEX
  8
241
  5
1BFD
 10
-17.7807
 20
2.92880
 30
0.000000
  70
    32
  0
VERTEX
  8
241
  5
1BFE
 10
-17.8113
 20
2.92836
 30
0.000000
  70
    32
  0
VERTEX
  8
241
  5
1BFF
 10
-17.8420
 20
2.92763
 30
0.000000
  70
    32
  0
VERTEX
  8
241
  5
1C00
 10
-17.8725
 20
2.92660
 30
0.000000
  70
    32
  0
VERTEX
  8
241
  5
1C01
 10
-17.9030
 20
2.92529
 30
0.000000
  70
    32
  0
VERTEX
  8
241
  5
1C02
 10
-17.9334
 20
2.92368
 30
0.000000
  70
    32
  0
VERTEX
  8
241
  5
1C03
 10
-17.9637
 20
2.92178
 30
0.000000
  70
    32
  0
VERTEX
  8
241
  5
1C04
 10
-17.9939
 20
2.91960
 30
0.000000
  70
    32
  0
VERTEX
  8
241
  5
1C05
 10
-18.0239
 20
2.91712
 30
0.000000
  70
    32
  0
VERTEX
  8
241
  5
1C06
 10
-18.0537
 20
2.91437
 30
0.000000
  70
    32
  0
VERTEX
  8
241
  5
1C07
 10
-18.0834
 20
2.91132
 30
0.000000
  70
    32
  0
VERTEX
  8
241
  5
1C08
 10
-18.1129
 20
2.90800
 30
0.000000
  70
    32
  0
VERTEX
  8
241
  5
1C09
 10
-18.1421
 20
2.90439
 30
0.000000
  70
    32
  0
VERTEX
  8
241
  5
1C0A
 10
-18.1711
 20
2.90051
 30
0.000000
  70
    32
  0
VERTEX
  8
241
  5
1C0B
 10
-18.1999
 20
2.89635
 30
0.000000
  70
    32
  0
VERTEX
  8
241
  5
1C0C
 10
-18.2284
 20
2.89191
 30
0.000000
  70
    32
  0
VERTEX
  8
241
  5
1C0D
 10
-18.2566
 20
2.88721
 30
0.000000
  70
    32
  0
VERTEX
  8
241
  5
1C0E
 10
-18.2844
 20
2.88224
 30
0.000000
  70
    32
  0
VERTEX
  8
241
  5
1C0F
 10
-18.3120
 20
2.87700
 30
0.000000
  70
    32
  0
VERTEX
  8
241
  5
1C10
 10
-18.3392
 20
2.87150
 30
0.000000
  70
    32
  0
VERTEX
  8
241
  5
1C11
 10
-18.3661
 20
2.86575
 30
0.000000
  70
    32
  0
VERTEX
  8
241
  5
1C12
 10
-18.3926
 20
2.85974
 30
0.000000
  70
    32
  0
VERTEX
  8
241
  5
1C13
 10
-18.4187
 20
2.85347
 30
0.000000
  70
    32
  0
VERTEX
  8
241
  5
1C14
 10
-18.4445
 20
2.84696
 30
0.000000
  70
    32
  0
VERTEX
  8
241
  5
1C15
 10
-18.4698
 20
2.84021
 30
0.000000
  70
    32
  0
VERTEX
  8
241
  5
1C16
 10
-18.4946
 20
2.83321
 30
0.000000
  70
    32
  0
VERTEX
  8
241
  5
1C17
 10
-18.5190
 20
2.82598
 30
0.000000
  70
    32
  0
VERTEX
  8
241
  5
1C18
 10
-18.5430
 20
2.81852
 30
0.000000
  70
    32
  0
VERTEX
  8
241
  5
1C19
 10
-18.5665
 20
2.81084
 30
0.000000
  70
    32
  0
VERTEX
  8
241
  5
1C1A
 10
-18.5894
 20
2.80293
 30
0.000000
  70
    32
  0
VERTEX
  8
241
  5
1C1B
 10
-18.6119
 20
2.79480
 30
0.000000
  70
    32
  0
VERTEX
  8
241
  5
1C1C
 10
-18.6339
 20
2.78646
 30
0.000000
  70
    32
  0
VERTEX
  8
241
  5
1C1D
 10
-18.6553
 20
2.77792
 30
0.000000
  70
    32
  0
VERTEX
  8
241
  5
1C1E
 10
-18.6762
 20
2.76917
 30
0.000000
  70
    32
  0
VERTEX
  8
241
  5
1C1F
 10
-18.6965
 20
2.76023
 30
0.000000
  70
    32
  0
VERTEX
  8
241
  5
1C20
 10
-18.7163
 20
2.75109
 30
0.000000
  70
    32
  0
VERTEX
  8
241
  5
1C21
 10
-18.7354
 20
2.74177
 30
0.000000
  70
    32
  0
VERTEX
  8
241
  5
1C22
 10
-18.7540
 20
2.73227
 30
0.000000
  70
    32
  0
VERTEX
  8
241
  5
1C23
 10
-18.7720
 20
2.72259
 30
0.000000
  70
    32
  0
VERTEX
  8
241
  5
1C24
 10
-18.7893
 20
2.71275
 30
0.000000
  70
    32
  0
VERTEX
  8
241
  5
1C25
 10
-18.8061
 20
2.70274
 30
0.000000
  70
    32
  0
VERTEX
  8
241
  5
1C26
 10
-18.8222
 20
2.69258
 30
0.000000
  70
    32
  0
VERTEX
  8
241
  5
1C27
 10
-18.8376
 20
2.68226
 30
0.000000
  70
    32
  0
VERTEX
  8
241
  5
1C28
 10
-18.8524
 20
2.67180
 30
0.000000
  70
    32
  0
VERTEX
  8
241
  5
1C29
 10
-18.8665
 20
2.66121
 30
0.000000
  70
    32
  0
VERTEX
  8
241
  5
1C2A
 10
-18.8800
 20
2.65048
 30
0.000000
  70
    32
  0
VERTEX
  8
241
  5
1C2B
 10
-18.8928
 20
2.63962
 30
0.000000
  70
    32
  0
VERTEX
  8
241
  5
1C2C
 10
-18.9048
 20
2.62865
 30
0.000000
  70
    32
  0
VERTEX
  8
241
  5
1C2D
 10
-18.9162
 20
2.61756
 30
0.000000
  70
    32
  0
VERTEX
  8
241
  5
1C2E
 10
-18.9269
 20
2.60637
 30
0.000000
  70
    32
  0
VERTEX
  8
241
  5
1C2F
 10
-18.9369
 20
2.59508
 30
0.000000
  70
    32
  0
VERTEX
  8
241
  5
1C30
 10
-18.9462
 20
2.58370
 30
0.000000
  70
    32
  0
VERTEX
  8
241
  5
1C31
 10
-18.9547
 20
2.57223
 30
0.000000
  70
    32
  0
VERTEX
  8
241
  5
1C32
 10
-18.9625
 20
2.56069
 30
0.000000
  70
    32
  0
VERTEX
  8
241
  5
1C33
 10
-18.9696
 20
2.54907
 30
0.000000
  70
    32
  0
VERTEX
  8
241
  5
1C34
 10
-18.9760
 20
2.53739
 30
0.000000
  70
    32
  0
VERTEX
  8
241
  5
1C35
 10
-18.9816
 20
2.52566
 30
0.000000
  70
    32
  0
VERTEX
  8
241
  5
1C36
 10
-18.9865
 20
2.51387
 30
0.000000
  70
    32
  0
VERTEX
  8
241
  5
1C37
 10
-18.9906
 20
2.50204
 30
0.000000
  70
    32
  0
VERTEX
  8
241
  5
1C38
 10
-18.9940
 20
2.49017
 30
0.000000
  70
    32
  0
VERTEX
  8
241
  5
1C39
 10
-18.9966
 20
2.47828
 30
0.000000
  70
    32
  0
VERTEX
  8
241
  5
1C3A
 10
-18.9985
 20
2.46636
 30
0.000000
  70
    32
  0
VERTEX
  8
241
  5
1C3B
 10
-18.9996
 20
2.45443
 30
0.000000
  70
    32
  0
VERTEX
  8
241
  5
1C3C
 10
-19.0000
 20
2.44249
 30
0.000000
  70
    32
  0
VERTEX
  8
241
  5
1C3D
 10
-18.9996
 20
2.43055
 30
0.000000
  70
    32
  0
VERTEX
  8
241
  5
1C3E
 10
-18.9985
 20
2.41862
 30
0.000000
  70
    32
  0
VERTEX
  8
241
  5
1C3F
 10
-18.9966
 20
2.40671
 30
0.000000
  70
    32
  0
VERTEX
  8
241
  5
1C40
 10
-18.9940
 20
2.39481
 30
0.000000
  70
    32
  0
VERTEX
  8
241
  5
1C41
 10
-18.9906
 20
2.38294
 30
0.000000
  70
    32
  0
VERTEX
  8
241
  5
1C42
 10
-18.9865
 20
2.37111
 30
0.000000
  70
    32
  0
VERTEX
  8
241
  5
1C43
 10
-18.9816
 20
2.35933
 30
0.000000
  70
    32
  0
VERTEX
  8
241
  5
1C44
 10
-18.9760
 20
2.34759
 30
0.000000
  70
    32
  0
VERTEX
  8
241
  5
1C45
 10
-18.9696
 20
2.33591
 30
0.000000
  70
    32
  0
VERTEX
  8
241
  5
1C46
 10
-18.9625
 20
2.32429
 30
0.000000
  70
    32
  0
VERTEX
  8
241
  5
1C47
 10
-18.9547
 20
2.31275
 30
0.000000
  70
    32
  0
VERTEX
  8
241
  5
1C48
 10
-18.9462
 20
2.30128
 30
0.000000
  70
    32
  0
VERTEX
  8
241
  5
1C49
 10
-18.9369
 20
2.28990
 30
0.000000
  70
    32
  0
VERTEX
  8
241
  5
1C4A
 10
-18.9269
 20
2.27861
 30
0.000000
  70
    32
  0
VERTEX
  8
241
  5
1C4B
 10
-18.9162
 20
2.26742
 30
0.000000
  70
    32
  0
VERTEX
  8
241
  5
1C4C
 10
-18.9048
 20
2.25633
 30
0.000000
  70
    32
  0
VERTEX
  8
241
  5
1C4D
 10
-18.8928
 20
2.24536
 30
0.000000
  70
    32
  0
VERTEX
  8
241
  5
1C4E
 10
-18.8800
 20
2.23451
 30
0.000000
  70
    32
  0
VERTEX
  8
241
  5
1C4F
 10
-18.8665
 20
2.22378
 30
0.000000
  70
    32
  0
VERTEX
  8
241
  5
1C50
 10
-18.8524
 20
2.21318
 30
0.000000
  70
    32
  0
VERTEX
  8
241
  5
1C51
 10
-18.8376
 20
2.20272
 30
0.000000
  70
    32
  0
VERTEX
  8
241
  5
1C52
 10
-18.8222
 20
2.19240
 30
0.000000
  70
    32
  0
VERTEX
  8
241
  5
1C53
 10
-18.8061
 20
2.18224
 30
0.000000
  70
    32
  0
VERTEX
  8
241
  5
1C54
 10
-18.7893
 20
2.17223
 30
0.000000
  70
    32
  0
VERTEX
  8
241
  5
1C55
 10
-18.7720
 20
2.16239
 30
0.000000
  70
    32
  0
VERTEX
  8
241
  5
1C56
 10
-18.7540
 20
2.15271
 30
0.000000
  70
    32
  0
VERTEX
  8
241
  5
1C57
 10
-18.7354
 20
2.14321
 30
0.000000
  70
    32
  0
VERTEX
  8
241
  5
1C58
 10
-18.7163
 20
2.13389
 30
0.000000
  70
    32
  0
VERTEX
  8
241
  5
1C59
 10
-18.6965
 20
2.12475
 30
0.000000
  70
    32
  0
VERTEX
  8
241
  5
1C5A
 10
-18.6762
 20
2.11581
 30
0.000000
  70
    32
  0
VERTEX
  8
241
  5
1C5B
 10
-18.6553
 20
2.10706
 30
0.000000
  70
    32
  0
VERTEX
  8
241
  5
1C5C
 10
-18.6339
 20
2.09852
 30
0.000000
  70
    32
  0
VERTEX
  8
241
  5
1C5D
 10
-18.6119
 20
2.09018
 30
0.000000
  70
    32
  0
VERTEX
  8
241
  5
1C5E
 10
-18.5894
 20
2.08205
 30
0.000000
  70
    32
  0
VERTEX
  8
241
  5
1C5F
 10
-18.5665
 20
2.07414
 30
0.000000
  70
    32
  0
VERTEX
  8
241
  5
1C60
 10
-18.5430
 20
2.06646
 30
0.000000
  70
    32
  0
VERTEX
  8
241
  5
1C61
 10
-18.5190
 20
2.05900
 30
0.000000
  70
    32
  0
VERTEX
  8
241
  5
1C62
 10
-18.4946
 20
2.05177
 30
0.000000
  70
    32
  0
VERTEX
  8
241
  5
1C63
 10
-18.4698
 20
2.04477
 30
0.000000
  70
    32
  0
VERTEX
  8
241
  5
1C64
 10
-18.4445
 20
2.03802
 30
0.000000
  70
    32
  0
VERTEX
  8
241
  5
1C65
 10
-18.4187
 20
2.03151
 30
0.000000
  70
    32
  0
VERTEX
  8
241
  5
1C66
 10
-18.3926
 20
2.02525
 30
0.000000
  70
    32
  0
VERTEX
  8
241
  5
1C67
 10
-18.3661
 20
2.01923
 30
0.000000
  70
    32
  0
VERTEX
  8
241
  5
1C68
 10
-18.3392
 20
2.01348
 30
0.000000
  70
    32
  0
VERTEX
  8
241
  5
1C69
 10
-18.3120
 20
2.00798
 30
0.000000
  70
    32
  0
VERTEX
  8
241
  5
1C6A
 10
-18.2844
 20
2.00274
 30
0.000000
  70
    32
  0
VERTEX
  8
241
  5
1C6B
 10
-18.2566
 20
1.99777
 30
0.000000
  70
    32
  0
VERTEX
  8
241
  5
1C6C
 10
-18.2284
 20
1.99307
 30
0.000000
  70
    32
  0
VERTEX
  8
241
  5
1C6D
 10
-18.1999
 20
1.98863
 30
0.000000
  70
    32
  0
VERTEX
  8
241
  5
1C6E
 10
-18.1711
 20
1.98447
 30
0.000000
  70
    32
  0
VERTEX
  8
241
  5
1C6F
 10
-18.1421
 20
1.98059
 30
0.000000
  70
    32
  0
VERTEX
  8
241
  5
1C70
 10
-18.1129
 20
1.97698
 30
0.000000
  70
    32
  0
VERTEX
  8
241
  5
1C71
 10
-18.0834
 20
1.97366
 30
0.000000
  70
    32
  0
VERTEX
  8
241
  5
1C72
 10
-18.0537
 20
1.97062
 30
0.000000
  70
    32
  0
VERTEX
  8
241
  5
1C73
 10
-18.0239
 20
1.96786
 30
0.000000
  70
    32
  0
VERTEX
  8
241
  5
1C74
 10
-17.9939
 20
1.96539
 30
0.000000
  70
    32
  0
VERTEX
  8
241
  5
1C75
 10
-17.9637
 20
1.96320
 30
0.000000
  70
    32
  0
VERTEX
  8
241
  5
1C76
 10
-17.9334
 20
1.96130
 30
0.000000
  70
    32
  0
VERTEX
  8
241
  5
1C77
 10
-17.9030
 20
1.95970
 30
0.000000
  70
    32
  0
VERTEX
  8
241
  5
1C78
 10
-17.8725
 20
1.95838
 30
0.000000
  70
    32
  0
VERTEX
  8
241
  5
1C79
 10
-17.8420
 20
1.95736
 30
0.000000
  70
    32
  0
VERTEX
  8
241
  5
1C7A
 10
-17.8113
 20
1.95662
 30
0.000000
  70
    32
  0
VERTEX
  8
241
  5
1C7B
 10
-17.7807
 20
1.95618
 30
0.000000
  70
    32
  0
VERTEX
  8
241
  5
1C7C
 10
-17.7500
 20
1.95604
 30
0.000000
  70
    32
  0
SEQEND
  8
241
  5
1C7D
  0
POLYLINE
  8
241
  5
1C7E
  66
     1
 10
0.000000
 20
0.000000
 30
0.000000
  70
     8
  0
VERTEX
  8
241
  5
1C7F
 10
-1.93768
 20
1.95646
 30
0.000000
  70
    32
  0
VERTEX
  8
241
  5
1C80
 10
-1.95231
 20
1.94176
 30
0.000000
  70
    32
  0
VERTEX
  8
241
  5
1C81
 10
-1.96672
 20
1.92710
 30
0.000000
  70
    32
  0
VERTEX
  8
241
  5
1C82
 10
-1.98090
 20
1.91250
 30
0.000000
  70
    32
  0
VERTEX
  8
241
  5
1C83
 10
-1.99484
 20
1.89795
 30
0.000000
  70
    32
  0
VERTEX
  8
241
  5
1C84
 10
-2.00855
 20
1.88346
 30
0.000000
  70
    32
  0
VERTEX
  8
241
  5
1C85
 10
-2.02201
 20
1.86902
 30
0.000000
  70
    32
  0
VERTEX
  8
241
  5
1C86
 10
-2.03524
 20
1.85464
 30
0.000000
  70
    32
  0
VERTEX
  8
241
  5
1C87
 10
-2.04822
 20
1.84032
 30
0.000000
  70
    32
  0
VERTEX
  8
241
  5
1C88
 10
-2.06095
 20
1.82605
 30
0.000000
  70
    32
  0
VERTEX
  8
241
  5
1C89
 10
-2.07343
 20
1.81184
 30
0.000000
  70
    32
  0
VERTEX
  8
241
  5
1C8A
 10
-2.08565
 20
1.79770
 30
0.000000
  70
    32
  0
VERTEX
  8
241
  5
1C8B
 10
-2.09762
 20
1.78361
 30
0.000000
  70
    32
  0
VERTEX
  8
241
  5
1C8C
 10
-2.10933
 20
1.76958
 30
0.000000
  70
    32
  0
VERTEX
  8
241
  5
1C8D
 10
-2.12077
 20
1.75561
 30
0.000000
  70
    32
  0
VERTEX
  8
241
  5
1C8E
 10
-2.13194
 20
1.74171
 30
0.000000
  70
    32
  0
VERTEX
  8
241
  5
1C8F
 10
-2.14284
 20
1.72787
 30
0.000000
  70
    32
  0
VERTEX
  8
241
  5
1C90
 10
-2.15347
 20
1.71409
 30
0.000000
  70
    32
  0
VERTEX
  8
241
  5
1C91
 10
-2.16383
 20
1.70037
 30
0.000000
  70
    32
  0
VERTEX
  8
241
  5
1C92
 10
-2.17390
 20
1.68673
 30
0.000000
  70
    32
  0
VERTEX
  8
241
  5
1C93
 10
-2.18369
 20
1.67314
 30
0.000000
  70
    32
  0
VERTEX
  8
241
  5
1C94
 10
-2.19319
 20
1.65963
 30
0.000000
  70
    32
  0
VERTEX
  8
241
  5
1C95
 10
-2.20241
 20
1.64618
 30
0.000000
  70
    32
  0
VERTEX
  8
241
  5
1C96
 10
-2.21133
 20
1.63279
 30
0.000000
  70
    32
  0
VERTEX
  8
241
  5
1C97
 10
-2.21996
 20
1.61948
 30
0.000000
  70
    32
  0
VERTEX
  8
241
  5
1C98
 10
-2.22829
 20
1.60624
 30
0.000000
  70
    32
  0
VERTEX
  8
241
  5
1C99
 10
-2.23631
 20
1.59306
 30
0.000000
  70
    32
  0
VERTEX
  8
241
  5
1C9A
 10
-2.24403
 20
1.57996
 30
0.000000
  70
    32
  0
VERTEX
  8
241
  5
1C9B
 10
-2.25145
 20
1.56693
 30
0.000000
  70
    32
  0
VERTEX
  8
241
  5
1C9C
 10
-2.25855
 20
1.55397
 30
0.000000
  70
    32
  0
VERTEX
  8
241
  5
1C9D
 10
-2.26534
 20
1.54109
 30
0.000000
  70
    32
  0
VERTEX
  8
241
  5
1C9E
 10
-2.27181
 20
1.52827
 30
0.000000
  70
    32
  0
VERTEX
  8
241
  5
1C9F
 10
-2.27796
 20
1.51553
 30
0.000000
  70
    32
  0
VERTEX
  8
241
  5
1CA0
 10
-2.28379
 20
1.50287
 30
0.000000
  70
    32
  0
VERTEX
  8
241
  5
1CA1
 10
-2.28929
 20
1.49029
 30
0.000000
  70
    32
  0
VERTEX
  8
241
  5
1CA2
 10
-2.29446
 20
1.47777
 30
0.000000
  70
    32
  0
VERTEX
  8
241
  5
1CA3
 10
-2.29930
 20
1.46534
 30
0.000000
  70
    32
  0
VERTEX
  8
241
  5
1CA4
 10
-2.30380
 20
1.45299
 30
0.000000
  70
    32
  0
VERTEX
  8
241
  5
1CA5
 10
-2.30796
 20
1.44071
 30
0.000000
  70
    32
  0
VERTEX
  8
241
  5
1CA6
 10
-2.31178
 20
1.42851
 30
0.000000
  70
    32
  0
VERTEX
  8
241
  5
1CA7
 10
-2.31526
 20
1.41640
 30
0.000000
  70
    32
  0
VERTEX
  8
241
  5
1CA8
 10
-2.31838
 20
1.40436
 30
0.000000
  70
    32
  0
VERTEX
  8
241
  5
1CA9
 10
-2.32116
 20
1.39241
 30
0.000000
  70
    32
  0
VERTEX
  8
241
  5
1CAA
 10
-2.32358
 20
1.38054
 30
0.000000
  70
    32
  0
VERTEX
  8
241
  5
1CAB
 10
-2.32564
 20
1.36875
 30
0.000000
  70
    32
  0
VERTEX
  8
241
  5
1CAC
 10
-2.32734
 20
1.35704
 30
0.000000
  70
    32
  0
VERTEX
  8
241
  5
1CAD
 10
-2.32867
 20
1.34542
 30
0.000000
  70
    32
  0
VERTEX
  8
241
  5
1CAE
 10
-2.32964
 20
1.33389
 30
0.000000
  70
    32
  0
VERTEX
  8
241
  5
1CAF
 10
-2.33024
 20
1.32244
 30
0.000000
  70
    32
  0
VERTEX
  8
241
  5
1CB0
 10
-2.33047
 20
1.31108
 30
0.000000
  70
    32
  0
VERTEX
  8
241
  5
1CB1
 10
-2.33032
 20
1.29980
 30
0.000000
  70
    32
  0
VERTEX
  8
241
  5
1CB2
 10
-2.32978
 20
1.28862
 30
0.000000
  70
    32
  0
VERTEX
  8
241
  5
1CB3
 10
-2.32887
 20
1.27752
 30
0.000000
  70
    32
  0
VERTEX
  8
241
  5
1CB4
 10
-2.32757
 20
1.26651
 30
0.000000
  70
    32
  0
VERTEX
  8
241
  5
1CB5
 10
-2.32588
 20
1.25559
 30
0.000000
  70
    32
  0
VERTEX
  8
241
  5
1CB6
 10
-2.32380
 20
1.24477
 30
0.000000
  70
    32
  0
VERTEX
  8
241
  5
1CB7
 10
-2.32132
 20
1.23403
 30
0.000000
  70
    32
  0
VERTEX
  8
241
  5
1CB8
 10
-2.31844
 20
1.22339
 30
0.000000
  70
    32
  0
VERTEX
  8
241
  5
1CB9
 10
-2.31517
 20
1.21284
 30
0.000000
  70
    32
  0
VERTEX
  8
241
  5
1CBA
 10
-2.31148
 20
1.20239
 30
0.000000
  70
    32
  0
VERTEX
  8
241
  5
1CBB
 10
-2.30739
 20
1.19203
 30
0.000000
  70
    32
  0
VERTEX
  8
241
  5
1CBC
 10
-2.30289
 20
1.18177
 30
0.000000
  70
    32
  0
VERTEX
  8
241
  5
1CBD
 10
-2.29798
 20
1.17160
 30
0.000000
  70
    32
  0
VERTEX
  8
241
  5
1CBE
 10
-2.29265
 20
1.16152
 30
0.000000
  70
    32
  0
VERTEX
  8
241
  5
1CBF
 10
-2.28690
 20
1.15155
 30
0.000000
  70
    32
  0
VERTEX
  8
241
  5
1CC0
 10
-2.28076
 20
1.14167
 30
0.000000
  70
    32
  0
VERTEX
  8
241
  5
1CC1
 10
-2.27421
 20
1.13188
 30
0.000000
  70
    32
  0
VERTEX
  8
241
  5
1CC2
 10
-2.26726
 20
1.12218
 30
0.000000
  70
    32
  0
VERTEX
  8
241
  5
1CC3
 10
-2.25992
 20
1.11258
 30
0.000000
  70
    32
  0
VERTEX
  8
241
  5
1CC4
 10
-2.25219
 20
1.10306
 30
0.000000
  70
    32
  0
VERTEX
  8
241
  5
1CC5
 10
-2.24408
 20
1.09364
 30
0.000000
  70
    32
  0
VERTEX
  8
241
  5
1CC6
 10
-2.23558
 20
1.08430
 30
0.000000
  70
    32
  0
VERTEX
  8
241
  5
1CC7
 10
-2.22671
 20
1.07505
 30
0.000000
  70
    32
  0
VERTEX
  8
241
  5
1CC8
 10
-2.21747
 20
1.06588
 30
0.000000
  70
    32
  0
VERTEX
  8
241
  5
1CC9
 10
-2.20786
 20
1.05681
 30
0.000000
  70
    32
  0
VERTEX
  8
241
  5
1CCA
 10
-2.19789
 20
1.04781
 30
0.000000
  70
    32
  0
VERTEX
  8
241
  5
1CCB
 10
-2.18755
 20
1.03890
 30
0.000000
  70
    32
  0
VERTEX
  8
241
  5
1CCC
 10
-2.17686
 20
1.03008
 30
0.000000
  70
    32
  0
VERTEX
  8
241
  5
1CCD
 10
-2.16582
 20
1.02133
 30
0.000000
  70
    32
  0
VERTEX
  8
241
  5
1CCE
 10
-2.15444
 20
1.01266
 30
0.000000
  70
    32
  0
VERTEX
  8
241
  5
1CCF
 10
-2.14271
 20
1.00408
 30
0.000000
  70
    32
  0
VERTEX
  8
241
  5
1CD0
 10
-2.13065
 20
0.995570
 30
0.000000
  70
    32
  0
VERTEX
  8
241
  5
1CD1
 10
-2.11825
 20
0.987139
 30
0.000000
  70
    32
  0
VERTEX
  8
241
  5
1CD2
 10
-2.10552
 20
0.978785
 30
0.000000
  70
    32
  0
VERTEX
  8
241
  5
1CD3
 10
-2.09247
 20
0.970507
 30
0.000000
  70
    32
  0
VERTEX
  8
241
  5
1CD4
 10
-2.07909
 20
0.962303
 30
0.000000
  70
    32
  0
VERTEX
  8
241
  5
1CD5
 10
-2.06540
 20
0.954172
 30
0.000000
  70
    32
  0
VERTEX
  8
241
  5
1CD6
 10
-2.05140
 20
0.946114
 30
0.000000
  70
    32
  0
VERTEX
  8
241
  5
1CD7
 10
-2.03709
 20
0.938128
 30
0.000000
  70
    32
  0
VERTEX
  8
241
  5
1CD8
 10
-2.02247
 20
0.930212
 30
0.000000
  70
    32
  0
VERTEX
  8
241
  5
1CD9
 10
-2.00756
 20
0.922365
 30
0.000000
  70
    32
  0
VERTEX
  8
241
  5
1CDA
 10
-1.99235
 20
0.914587
 30
0.000000
  70
    32
  0
VERTEX
  8
241
  5
1CDB
 10
-1.97685
 20
0.906877
 30
0.000000
  70
    32
  0
VERTEX
  8
241
  5
1CDC
 10
-1.96107
 20
0.899233
 30
0.000000
  70
    32
  0
VERTEX
  8
241
  5
1CDD
 10
-1.94500
 20
0.891655
 30
0.000000
  70
    32
  0
VERTEX
  8
241
  5
1CDE
 10
-1.92865
 20
0.884141
 30
0.000000
  70
    32
  0
VERTEX
  8
241
  5
1CDF
 10
-1.91203
 20
0.876691
 30
0.000000
  70
    32
  0
VERTEX
  8
241
  5
1CE0
 10
-1.89514
 20
0.869303
 30
0.000000
  70
    32
  0
VERTEX
  8
241
  5
1CE1
 10
-1.87799
 20
0.861977
 30
0.000000
  70
    32
  0
VERTEX
  8
241
  5
1CE2
 10
-1.86057
 20
0.854711
 30
0.000000
  70
    32
  0
VERTEX
  8
241
  5
1CE3
 10
-1.84290
 20
0.847505
 30
0.000000
  70
    32
  0
VERTEX
  8
241
  5
1CE4
 10
-1.82498
 20
0.840358
 30
0.000000
  70
    32
  0
VERTEX
  8
241
  5
1CE5
 10
-1.80680
 20
0.833268
 30
0.000000
  70
    32
  0
VERTEX
  8
241
  5
1CE6
 10
-1.78839
 20
0.826235
 30
0.000000
  70
    32
  0
VERTEX
  8
241
  5
1CE7
 10
-1.76973
 20
0.819257
 30
0.000000
  70
    32
  0
VERTEX
  8
241
  5
1CE8
 10
-1.75084
 20
0.812334
 30
0.000000
  70
    32
  0
VERTEX
  8
241
  5
1CE9
 10
-1.73172
 20
0.805465
 30
0.000000
  70
    32
  0
VERTEX
  8
241
  5
1CEA
 10
-1.71237
 20
0.798648
 30
0.000000
  70
    32
  0
VERTEX
  8
241
  5
1CEB
 10
-1.69280
 20
0.791883
 30
0.000000
  70
    32
  0
VERTEX
  8
241
  5
1CEC
 10
-1.67301
 20
0.785169
 30
0.000000
  70
    32
  0
VERTEX
  8
241
  5
1CED
 10
-1.65301
 20
0.778504
 30
0.000000
  70
    32
  0
VERTEX
  8
241
  5
1CEE
 10
-1.63280
 20
0.771888
 30
0.000000
  70
    32
  0
VERTEX
  8
241
  5
1CEF
 10
-1.61238
 20
0.765320
 30
0.000000
  70
    32
  0
VERTEX
  8
241
  5
1CF0
 10
-1.59176
 20
0.758798
 30
0.000000
  70
    32
  0
VERTEX
  8
241
  5
1CF1
 10
-1.57095
 20
0.752322
 30
0.000000
  70
    32
  0
VERTEX
  8
241
  5
1CF2
 10
-1.54994
 20
0.745891
 30
0.000000
  70
    32
  0
VERTEX
  8
241
  5
1CF3
 10
-1.52875
 20
0.739503
 30
0.000000
  70
    32
  0
VERTEX
  8
241
  5
1CF4
 10
-1.50737
 20
0.733158
 30
0.000000
  70
    32
  0
VERTEX
  8
241
  5
1CF5
 10
-1.48581
 20
0.726855
 30
0.000000
  70
    32
  0
VERTEX
  8
241
  5
1CF6
 10
-1.46407
 20
0.720592
 30
0.000000
  70
    32
  0
VERTEX
  8
241
  5
1CF7
 10
-1.44217
 20
0.714369
 30
0.000000
  70
    32
  0
VERTEX
  8
241
  5
1CF8
 10
-1.42009
 20
0.708185
 30
0.000000
  70
    32
  0
VERTEX
  8
241
  5
1CF9
 10
-1.39786
 20
0.702039
 30
0.000000
  70
    32
  0
VERTEX
  8
241
  5
1CFA
 10
-1.37547
 20
0.695929
 30
0.000000
  70
    32
  0
VERTEX
  8
241
  5
1CFB
 10
-1.35292
 20
0.689855
 30
0.000000
  70
    32
  0
VERTEX
  8
241
  5
1CFC
 10
-1.33022
 20
0.683816
 30
0.000000
  70
    32
  0
VERTEX
  8
241
  5
1CFD
 10
-1.30738
 20
0.677811
 30
0.000000
  70
    32
  0
VERTEX
  8
241
  5
1CFE
 10
-1.28440
 20
0.671838
 30
0.000000
  70
    32
  0
VERTEX
  8
241
  5
1CFF
 10
-1.26128
 20
0.665898
 30
0.000000
  70
    32
  0
VERTEX
  8
241
  5
1D00
 10
-1.23803
 20
0.659987
 30
0.000000
  70
    32
  0
VERTEX
  8
241
  5
1D01
 10
-1.21464
 20
0.654107
 30
0.000000
  70
    32
  0
VERTEX
  8
241
  5
1D02
 10
-1.19114
 20
0.648256
 30
0.000000
  70
    32
  0
VERTEX
  8
241
  5
1D03
 10
-1.16751
 20
0.642432
 30
0.000000
  70
    32
  0
VERTEX
  8
241
  5
1D04
 10
-1.14377
 20
0.636635
 30
0.000000
  70
    32
  0
VERTEX
  8
241
  5
1D05
 10
-1.11992
 20
0.630864
 30
0.000000
  70
    32
  0
VERTEX
  8
241
  5
1D06
 10
-1.09597
 20
0.625118
 30
0.000000
  70
    32
  0
VERTEX
  8
241
  5
1D07
 10
-1.07190
 20
0.619396
 30
0.000000
  70
    32
  0
VERTEX
  8
241
  5
1D08
 10
-1.04775
 20
0.613696
 30
0.000000
  70
    32
  0
VERTEX
  8
241
  5
1D09
 10
-1.02349
 20
0.608019
 30
0.000000
  70
    32
  0
VERTEX
  8
241
  5
1D0A
 10
-0.999149
 20
0.602362
 30
0.000000
  70
    32
  0
VERTEX
  8
241
  5
1D0B
 10
-0.974720
 20
0.596725
 30
0.000000
  70
    32
  0
VERTEX
  8
241
  5
1D0C
 10
-0.950210
 20
0.591107
 30
0.000000
  70
    32
  0
VERTEX
  8
241
  5
1D0D
 10
-0.925623
 20
0.585507
 30
0.000000
  70
    32
  0
VERTEX
  8
241
  5
1D0E
 10
-0.900964
 20
0.579924
 30
0.000000
  70
    32
  0
VERTEX
  8
241
  5
1D0F
 10
-0.876236
 20
0.574356
 30
0.000000
  70
    32
  0
VERTEX
  8
241
  5
1D10
 10
-0.851444
 20
0.568804
 30
0.000000
  70
    32
  0
VERTEX
  8
241
  5
1D11
 10
-0.826592
 20
0.563265
 30
0.000000
  70
    32
  0
VERTEX
  8
241
  5
1D12
 10
-0.801684
 20
0.557739
 30
0.000000
  70
    32
  0
VERTEX
  8
241
  5
1D13
 10
-0.776725
 20
0.552226
 30
0.000000
  70
    32
  0
VERTEX
  8
241
  5
1D14
 10
-0.751719
 20
0.546723
 30
0.000000
  70
    32
  0
VERTEX
  8
241
  5
1D15
 10
-0.726670
 20
0.541230
 30
0.000000
  70
    32
  0
VERTEX
  8
241
  5
1D16
 10
-0.701583
 20
0.535746
 30
0.000000
  70
    32
  0
VERTEX
  8
241
  5
1D17
 10
-0.676462
 20
0.530270
 30
0.000000
  70
    32
  0
VERTEX
  8
241
  5
1D18
 10
-0.651310
 20
0.524801
 30
0.000000
  70
    32
  0
VERTEX
  8
241
  5
1D19
 10
-0.626133
 20
0.519338
 30
0.000000
  70
    32
  0
VERTEX
  8
241
  5
1D1A
 10
-0.600935
 20
0.513880
 30
0.000000
  70
    32
  0
VERTEX
  8
241
  5
1D1B
 10
-0.575719
 20
0.508425
 30
0.000000
  70
    32
  0
VERTEX
  8
241
  5
1D1C
 10
-0.550491
 20
0.502974
 30
0.000000
  70
    32
  0
VERTEX
  8
241
  5
1D1D
 10
-0.525254
 20
0.497525
 30
0.000000
  70
    32
  0
VERTEX
  8
241
  5
1D1E
 10
-0.500013
 20
0.492077
 30
0.000000
  70
    32
  0
SEQEND
  8
241
  5
1D1F
  0
ARC
  5
198B
  8
240
 10
-23.267949192430649
 20
7.0
 30
0.0
 40
1.0
 50
59.999999999999858
 51
90.0
  0
ARC
  5
198C
  8
240
 10
-23.267949192430692
 20
-7.0000000000000346
 30
0.0
 40
1.0
 50
270.0
 51
300.00000000000011
  0
LINE
  5
198D
  8
247
 10
-80.581465609276236
 20
5.8185949455784822
 30
0.0
 11
-80.581465609276236
 21
5.8185949455784822
 31
0.0
1001
HATCH_DISTANCE
1040
1.0
1001
HATCH_DISPLAY
1070
     0
1001
HATCH_TYPE
1070
     7
  0
LINE
  5
198E
  8
247
 10
-80.672755129539894
 20
6.1080961357640273
 30
0.0
 11
-80.581465609276236
 21
5.8185949455784822
 31
0.0
1001
HATCH_DISTANCE
1040
1.0
1001
HATCH_DISPLAY
1070
     0
1001
HATCH_TYPE
1070
     7
  0
LINE
  5
198F
  8
247
 10
-80.672755129539894
 20
6.1080961357640273
 30
0.0
 11
-80.672755129539894
 21
6.1080961357640273
 31
0.0
1001
HATCH_DISTANCE
1040
1.0
1001
HATCH_DISPLAY
1070
     0
1001
HATCH_TYPE
1070
     7
  0
LINE
  5
1990
  8
247
 10
-80.581465609276236
 20
5.8185949455784822
 30
0.0
 11
-80.672755129539894
 21
6.1080961357640273
 31
0.0
1001
HATCH_DISTANCE
1040
1.0
1001
HATCH_DISPLAY
1070
     0
1001
HATCH_TYPE
1070
     7
  0
LINE
  5
1991
  8
247
 10
-80.581465609276236
 20
5.8185949455784822
 30
0.0
 11
-80.581465609276236
 21
5.8185949455784822
 31
0.0
  0
LINE
  5
1992
  8
247
 10
-80.672755129539894
 20
6.1080961357640273
 30
0.0
 11
-80.581465609276236
 21
5.8185949455784822
 31
0.0
  0
LINE
  5
1993
  8
247
 10
-80.672755129539894
 20
6.1080961357640273
 30
0.0
 11
-80.672755129539894
 21
6.1080961357640273
 31
0.0
  0
LINE
  5
1994
  8
247
 10
-80.581465609276236
 20
5.8185949455784822
 30
0.0
 11
-80.672755129539894
 21
6.1080961357640273
 31
0.0
  0
LINE
  5
1995
  8
247
 10
-80.581465609276236
 20
5.8185949455784822
 30
0.0
 11
-80.581465609276236
 21
5.8185949455784822
 31
0.0
1001
HATCH_DISTANCE
1040
1.0
1001
HATCH_DISPLAY
1070
     0
1001
HATCH_TYPE
1070
     7
  0
LINE
  5
1996
  8
247
 10
-80.672755129539894
 20
6.1080961357640273
 30
0.0
 11
-80.581465609276236
 21
5.8185949455784822
 31
0.0
1001
HATCH_DISTANCE
1040
1.0
1001
HATCH_DISPLAY
1070
     0
1001
HATCH_TYPE
1070
     7
  0
LINE
  5
1997
  8
247
 10
-80.672755129539894
 20
6.1080961357640273
 30
0.0
 11
-80.672755129539894
 21
6.1080961357640273
 31
0.0
1001
HATCH_DISTANCE
1040
1.0
1001
HATCH_DISPLAY
1070
     0
1001
HATCH_TYPE
1070
     7
  0
LINE
  5
1998
  8
247
 10
-80.581465609276236
 20
5.8185949455784822
 30
0.0
 11
-80.672755129539894
 21
6.1080961357640273
 31
0.0
1001
HATCH_DISTANCE
1040
1.0
1001
HATCH_DISPLAY
1070
     0
1001
HATCH_TYPE
1070
     7
  0
LINE
  5
1999
  8
247
 10
-80.581465609276236
 20
5.8185949455784822
 30
0.0
 11
-80.581465609276236
 21
5.8185949455784822
 31
0.0
  0
LINE
  5
199A
  8
247
 10
-80.672755129539894
 20
6.1080961357640273
 30
0.0
 11
-80.581465609276236
 21
5.8185949455784822
 31
0.0
  0
LINE
  5
199B
  8
247
 10
-80.672755129539894
 20
6.1080961357640273
 30
0.0
 11
-80.672755129539894
 21
6.1080961357640273
 31
0.0
  0
LINE
  5
199C
  8
247
 10
-80.581465609276236
 20
5.8185949455784822
 30
0.0
 11
-80.672755129539894
 21
6.1080961357640273
 31
0.0
  0
LINE
  5
199D
  8
247
 10
-82.625323183739127
 20
6.1606817375706671
 30
0.0
 11
-83.413683779442195
 21
6.1606817375706671
 31
0.0
1001
HATCH_DISTANCE
1040
1.0
1001
HATCH_DISPLAY
1070
     0
1001
HATCH_TYPE
1070
     7
  0
LINE
  5
199E
  8
247
 10
-83.407606966698097
 20
3.432524336485768
 30
0.0
 11
-82.625323183739127
 21
6.1606817375706671
 31
0.0
1001
HATCH_DISTANCE
1040
1.0
1001
HATCH_DISPLAY
1070
     0
1001
HATCH_TYPE
1070
     7
  0
LINE
  5
199F
  8
247
 10
-84.08560074111216
 20
3.432524336485768
 30
0.0
 11
-83.407606966698097
 21
3.432524336485768
 31
0.0
1001
HATCH_DISTANCE
1040
1.0
1001
HATCH_DISPLAY
1070
     0
1001
HATCH_TYPE
1070
     7
  0
LINE
  5
19A0
  8
247
 10
-83.39892090102424
 20
5.8272466789769171
 30
0.0
 11
-84.08560074111216
 21
3.432524336485768
 31
0.0
1001
HATCH_DISTANCE
1040
1.0
1001
HATCH_DISPLAY
1070
     0
1001
HATCH_TYPE
1070
     7
  0
LINE
  5
19A1
  8
247
 10
-83.509299166405086
 20
5.8272466789769171
 30
0.0
 11
-83.39892090102424
 21
5.8272466789769171
 31
0.0
1001
HATCH_DISTANCE
1040
1.0
1001
HATCH_DISPLAY
1070
     0
1001
HATCH_TYPE
1070
     7
  0
LINE
  5
19A2
  8
247
 10
-83.413683779442195
 20
6.1606817375706671
 30
0.0
 11
-83.509299166405086
 21
5.8272466789769171
 31
0.0
1001
HATCH_DISTANCE
1040
1.0
1001
HATCH_DISPLAY
1070
     0
1001
HATCH_TYPE
1070
     7
  0
LINE
  5
19A3
  8
247
 10
-82.625323183739127
 20
6.1606817375706671
 30
0.0
 11
-83.413683779442195
 21
6.1606817375706671
 31
0.0
  0
LINE
  5
19A4
  8
247
 10
-83.407606966698097
 20
3.432524336485768
 30
0.0
 11
-82.625323183739127
 21
6.1606817375706671
 31
0.0
  0
LINE
  5
19A5
  8
247
 10
-84.08560074111216
 20
3.432524336485768
 30
0.0
 11
-83.407606966698097
 21
3.432524336485768
 31
0.0
  0
LINE
  5
19A6
  8
247
 10
-83.39892090102424
 20
5.8272466789769171
 30
0.0
 11
-84.08560074111216
 21
3.432524336485768
 31
0.0
  0
LINE
  5
19A7
  8
247
 10
-83.509299166405086
 20
5.8272466789769171
 30
0.0
 11
-83.39892090102424
 21
5.8272466789769171
 31
0.0
  0
LINE
  5
19A8
  8
247
 10
-83.413683779442195
 20
6.1606817375706671
 30
0.0
 11
-83.509299166405086
 21
5.8272466789769171
 31
0.0
  0
LINE
  5
19A9
  8
247
 10
-83.425422973342535
 20
3.4325243364857618
 30
0.0
 11
-83.400444542096025
 21
3.4575027677322931
 31
0.0
  0
LINE
  5
19AA
  8
247
 10
-83.762182577882612
 20
3.4325243364857689
 30
0.0
 11
-83.26505981056286
 21
3.9296471038055349
 31
0.0
  0
LINE
  5
19AB
  8
247
 10
-84.080237116511015
 20
3.4512294023974439
 30
0.0
 11
-83.12967507902971
 21
4.4017914398787559
 31
0.0
  0
LINE
  5
19AC
  8
247
 10
-83.944850537390025
 20
3.92337558605854
 30
0.0
 11
-82.994290347496573
 21
4.873935775951999
 31
0.0
  0
LINE
  5
19AD
  8
247
 10
-83.809463958269049
 20
4.3955217697196209
 30
0.0
 11
-82.858905615963437
 21
5.346080112025227
 31
0.0
  0
LINE
  5
19AE
  8
247
 10
-83.674077379148031
 20
4.8676679533807166
 30
0.0
 11
-82.7235208844303
 21
5.8182244480984551
 31
0.0
  0
LINE
  5
19AF
  8
247
 10
-83.538690800027041
 20
5.3398141370417909
 30
0.0
 11
-82.717823199498184
 21
6.1606817375706546
 31
0.0
  0
LINE
  5
19B0
  8
247
 10
-83.403304220906051
 20
5.8119603207028936
 30
0.0
 11
-83.054582804038262
 21
6.1606817375706688
 31
0.0
  0
LINE
  5
19B1
  8
247
 10
-83.422666126469196
 20
6.1293580196798478
 30
0.0
 11
-83.391342408578353
 21
6.1606817375706617
 31
0.0
  0
LINE
  5
19B2
  8
247
 10
-79.754072443662437
 20
3.0627596116846969
 30
0.0
 11
-78.760521022452721
 21
4.0563110328944338
 31
0.0
  0
LINE
  5
19B3
  8
247
 10
-79.076391026759779
 20
4.0772006331274886
 30
0.0
 11
-78.678369964669599
 21
4.4752216952176687
 31
0.0
  0
LINE
  5
19B4
  8
247
 10
-80.172983105985693
 20
2.980608553901575
 30
0.0
 11
-79.774962043895513
 21
3.378629615991755
 31
0.0
  0
LINE
  5
19B5
  8
247
 10
-78.980071114019609
 20
4.5102801504077439
 30
0.0
 11
-78.692144701778858
 21
4.7982065626484953
 31
0.0
  0
LINE
  5
19B6
  8
247
 10
-80.512523575413624
 20
2.9778276890137358
 30
0.0
 11
-80.20804156117579
 21
3.28230970325157
 31
0.0
  0
LINE
  5
19B7
  8
247
 10
-79.003982563553436
 20
4.8231283054140164
 30
0.0
 11
-78.756593919896275
 21
5.0705169490711759
 31
0.0
  0
LINE
  5
19B8
  8
247
 10
-80.849283179953673
 20
2.977827689013743
 30
0.0
 11
-80.546152084239509
 21
3.2809587847279418
 31
0.0
  0
LINE
  5
19B9
  8
247
 10
-79.084162362182752
 20
5.0797081113247842
 30
0.0
 11
-78.856902990123587
 21
5.3069674833839491
 31
0.0
  0
LINE
  5
19BA
  8
247
 10
-81.186042784493793
 20
2.9778276890137358
 30
0.0
 11
-80.882911688779586
 21
3.280958784727936
 31
0.0
  0
LINE
  5
19BB
  8
247
 10
-79.203824745406649
 20
5.2968053326409921
 30
0.0
 11
-78.986471173857893
 21
5.5141589041897481
 31
0.0
  0
LINE
  5
19BC
  8
247
 10
-81.522802389033913
 20
2.977827689013743
 30
0.0
 11
-81.219671293319678
 21
3.2809587847279418
 31
0.0
  0
LINE
  5
19BD
  8
247
 10
-79.356613060277311
 20
5.4807766223104286
 30
0.0
 11
-79.142266968694798
 21
5.6951227138929212
 31
0.0
  0
LINE
  5
19BE
  8
247
 10
-81.85956199357399
 20
2.977827689013743
 30
0.0
 11
-81.556430897859784
 21
3.2809587847279502
 31
0.0
  0
LINE
  5
19BF
  8
247
 10
-79.540794714323695
 20
5.633354572804115
 30
0.0
 11
-79.323400044329773
 21
5.8507492427980523
 31
0.0
  0
LINE
  5
19C0
  8
247
 10
-82.196321598114096
 20
2.9778276890137358
 30
0.0
 11
-81.893190502399875
 21
3.2809587847279502
 31
0.0
  0
LINE
  5
19C1
  8
247
 10
-79.758126573911198
 20
5.7527823177567177
 30
0.0
 11
-79.530772996351885
 21
5.980135895316038
 31
0.0
  0
LINE
  5
19C2
  8
247
 10
-82.533081202654174
 20
2.9778276890137501
 30
0.0
 11
-82.229950106939967
 21
3.2809587847279569
 31
0.0
  0
LINE
  5
19C3
  8
247
 10
-80.015006675052817
 20
5.832661821155205
 30
0.0
 11
-79.767434604897431
 21
6.0802338913105913
 31
0.0
  0
LINE
  5
19C4
  8
247
 10
-82.869840807194265
 20
2.977827689013743
 30
0.0
 11
-82.566709711480058
 21
3.2809587847279502
 31
0.0
  0
LINE
  5
19C5
  8
247
 10
-80.328337708890388
 20
5.8560903918577054
 30
0.0
 11
-80.04001876421286
 21
6.144409336535233
 31
0.0
  0
LINE
  5
19C6
  8
247
 10
-83.206600411734385
 20
2.977827689013743
 30
0.0
 11
-82.903469316020164
 21
3.280958784727936
 31
0.0
  0
LINE
  5
19C7
  8
247
 10
-80.610504236402718
 20
5.9106834688854368
 30
0.0
 11
-80.363429123626887
 21
6.157758581661283
 31
0.0
  0
LINE
  5
19C8
  8
247
 10
-83.543360016274434
 20
2.977827689013743
 30
0.0
 11
-83.240228920560213
 21
3.2809587847279569
 31
0.0
  0
LINE
  5
19C9
  8
247
 10
-83.880119620814554
 20
2.977827689013743
 30
0.0
 11
-83.576988525100333
 21
3.2809587847279502
 31
0.0
  0
LINE
  5
19CA
  8
247
 10
-84.216879225354674
 20
2.9778276890137501
 30
0.0
 11
-83.913748129640425
 21
3.2809587847279711
 31
0.0
  0
LINE
  5
19CB
  8
247
 10
-84.553638829894723
 20
2.9778276890137358
 30
0.0
 11
-84.250507734180502
 21
3.2809587847279569
 31
0.0
  0
LINE
  5
19CC
  8
247
 10
-84.890398434434815
 20
2.9778276890137572
 30
0.0
 11
-84.587267338720594
 21
3.280958784727964
 31
0.0
  0
LINE
  5
19CD
  8
247
 10
-85.227158038974935
 20
2.977827689013743
 30
0.0
 11
-84.924026943260714
 21
3.2809587847279502
 31
0.0
  0
LINE
  5
19CE
  8
247
 10
-85.563917643514998
 20
2.9778276890137572
 30
0.0
 11
-85.260786547800791
 21
3.280958784727964
 31
0.0
  0
LINE
  5
19CF
  8
247
 10
-85.900677248055075
 20
2.9778276890137501
 30
0.0
 11
-85.597546152340897
 21
3.2809587847279502
 31
0.0
  0
LINE
  5
19D0
  8
247
 10
-86.237436852595167
 20
2.9778276890137638
 30
0.0
 11
-85.934305756880974
 21
3.2809587847279569
 31
0.0
  0
LINE
  5
19D1
  8
247
 10
-86.567404797390907
 20
2.9846193487581232
 30
0.0
 11
-86.271065361421066
 21
3.2809587847279569
 31
0.0
  0
LINE
  5
19D2
  8
247
 10
-86.85149395966684
 20
3.037289791022296
 30
0.0
 11
-86.595841823814112
 21
3.2929419268750229
 31
0.0
  0
LINE
  5
19D3
  8
247
 10
-87.096855913045033
 20
3.1286874421841651
 30
0.0
 11
-86.865355782193404
 21
3.3601875730358302
 31
0.0
  0
LINE
  5
19D4
  8
247
 10
-87.311615873636427
 20
3.25068708613292
 30
0.0
 11
-87.092324845294016
 21
3.4699781144753099
 31
0.0
  0
LINE
  5
19D5
  8
247
 10
-87.499567147632405
 20
3.3994954166769982
 30
0.0
 11
-87.285005597281994
 21
3.6140569670274232
 31
0.0
  0
LINE
  5
19D6
  8
247
 10
-87.662117832023682
 20
3.5737043368258119
 30
0.0
 11
-87.446171703572645
 21
3.7896504652768641
 31
0.0
  0
LINE
  5
19D7
  8
247
 10
-87.798859338354134
 20
3.7737224350354528
 30
0.0
 11
-87.575033338061047
 21
3.9975484353285671
 31
0.0
  0
LINE
  5
19D8
  8
247
 10
-86.051790743874633
 20
5.8575506340550367
 30
0.0
 11
-85.812977664687267
 21
6.0963637132424111
 31
0.0
  0
LINE
  5
19D9
  8
247
 10
-87.907409381196885
 20
4.0019319967328206
 30
0.0
 11
-87.666735536212514
 21
4.2426058417171779
 31
0.0
  0
LINE
  5
19DA
  8
247
 10
-86.388550348414725
 20
5.8575506340550438
 30
0.0
 11
-86.085419244899114
 21
6.1606817375706688
 31
0.0
  0
LINE
  5
19DB
  8
247
 10
-87.982364064504083
 20
4.2637369179656943
 30
0.0
 11
-87.708446907256928
 21
4.5376540752128562
 31
0.0
  0
LINE
  5
19DC
  8
247
 10
-86.775045751353332
 20
5.8078148356565498
 30
0.0
 11
-86.422179695400104
 21
6.160680891609764
 31
0.0
  0
LINE
  5
19DD
  8
247
 10
-88.011964793832874
 20
4.5708957931770149
 30
0.0
 11
-87.659098737879646
 21
4.9237618491302291
 31
0.0
  0
LINE
  5
19DE
  8
247
 10
-87.964470281445642
 20
4.955149910104339
 30
0.0
 11
-86.806433812327455
 21
6.113186379222511
 31
0.0
  0
LINE
  5
19DF
  8
247
 10
-81.247349547598049
 20
3.590040134989692
 30
0.0
 11
-80.963168713385613
 21
3.874220969202141
 31
0.0
  0
LINE
  5
19E0
  8
247
 10
-81.737028090911366
 20
3.4371211962164452
 30
0.0
 11
-80.827782672507865
 21
4.3463666146199671
 31
0.0
  0
LINE
  5
19E1
  8
247
 10
-81.594012668363206
 20
3.916896223304696
 30
0.0
 11
-80.692396631630118
 21
4.8185122600378056
 31
0.0
  0
LINE
  5
19E2
  8
247
 10
-82.053271666199322
 20
3.4576372254685941
 30
0.0
 11
-81.697390788369589
 21
3.813518103298299
 31
0.0
  0
LINE
  5
19E3
  8
247
 10
-81.441256729050551
 20
4.4064117671574499
 30
0.0
 11
-80.869184329438127
 21
4.9784841667698814
 31
0.0
  0
LINE
  5
19E4
  8
247
 10
-82.298053911344709
 20
3.5496145848633058
 30
0.0
 11
-82.033367236472088
 21
3.8143012597359269
 31
0.0
  0
LINE
  5
19E5
  8
247
 10
-81.50907503749383
 20
4.6753530632542697
 30
0.0
 11
-81.205943933978233
 21
4.9784841667698876
 31
0.0
  0
LINE
  5
19E6
  8
247
 10
-82.495325611062157
 20
3.6891024896859639
 30
0.0
 11
-82.17428720972876
 21
4.0101408910193319
 31
0.0
  0
LINE
  5
19E7
  8
247
 10
-80.762888849366163
 20
5.7582988559220354
 30
0.0
 11
-80.73132817378459
 21
5.7898595315035797
 31
0.0
  0
LINE
  5
19E8
  8
247
 10
-82.651140316396081
 20
3.8700473888921101
 30
0.0
 11
-82.098946246698247
 21
4.422241458589923
 31
0.0
  0
LINE
  5
19E9
  8
247
 10
-81.184021633220155
 20
5.6739256766081558
 30
0.0
 11
-80.812061820638476
 21
6.045885489189792
 31
0.0
  0
LINE
  5
19EA
  8
247
 10
-82.763009693171185
 20
4.0949376166571119
 30
0.0
 11
-81.963559745624167
 21
4.8943875642041013
 31
0.0
  0
LINE
  5
19EB
  8
247
 10
-81.377384431335258
 20
5.8173224830331298
 30
0.0
 11
-81.150401926800527
 21
6.0443049875678687
 31
0.0
  0
LINE
  5
19EC
  8
247
 10
-82.816583118166434
 20
4.3781237962019608
 30
0.0
 11
-81.828173244550115
 21
5.3665336698182742
 31
0.0
  0
LINE
  5
19ED
  8
247
 10
-82.768866025983613
 20
4.7626004929248529
 30
0.0
 11
-81.395520296213974
 21
6.1359462226944919
 31
0.0
  0
LINE
  5
19EE
  8
247
 10
-82.657064254614795
 20
5.2111618688337913
 30
0.0
 11
-81.712377102531576
 21
6.155849020916988
 31
0.0
  0
TEXT
  5
19EF
  8
247
 10
-77.668290174065703
 20
3.410023232592251
 30
0.0
 40
2.5
  1
ST16-BFM6/11-12
  7
YOKO
 11
-77.668290174065703
 21
3.410023232592251
 31
0.0
 73
     1
  0
LINE
  5
19F0
  8
247
 10
-80.72601593276255
 20
5.7730131279515202
 30
0.0
 11
-80.817305453026222
 21
6.0625143181370653
 31
0.0
  0
ARC
  5
19F1
  8
247
 10
-80.267016298973445
 20
4.5692548882054353
 30
0.0
 40
1.288299322128293
 50
110.8721834020772
 51
132.54194893738571
  0
ARC
  5
19F2
  8
247
 10
-81.456217653953956
 20
5.5089521538304353
 30
0.0
 40
0.3182875066995621
 50
1.7101213820643839
 51
163.99839835444811
  0
LINE
  5
19F3
  8
247
 10
-82.170706637108253
 20
4.1719846855687219
 30
0.0
 11
-81.762175448143395
 21
5.5966940056370831
 31
0.0
  0
ARC
  5
19F4
  8
247
 10
-81.864748842918814
 20
4.0842542778538711
 30
0.0
 40
0.3182872831821442
 50
164.0002730571837
 51
344.00027305718362
  0
LINE
  5
19F5
  8
247
 10
-81.558791048729319
 20
3.9965238701390362
 30
0.0
 11
-81.3641384913563
 21
4.6753530632542679
 31
0.0
  0
LINE
  5
19F6
  8
247
 10
-81.616412050926627
 20
4.6753530632542679
 30
0.0
 11
-81.3641384913563
 21
4.6753530632542679
 31
0.0
  0
LINE
  5
19F7
  8
247
 10
-81.616412050926627
 20
4.6753530632542679
 30
0.0
 11
-81.529494173729319
 21
4.9784841667698938
 31
0.0
  0
LINE
  5
19F8
  8
247
 10
-81.529494173729319
 20
4.9784841667698938
 30
0.0
 11
-80.646525271141428
 21
4.9784841667698796
 31
0.0
  0
LINE
  5
19F9
  8
247
 10
-81.089823610985164
 20
3.432524336485776
 30
0.0
 11
-80.646525271141428
 21
4.9784841667698796
 31
0.0
  0
LINE
  5
19FA
  8
247
 10
-81.26764190932505
 20
3.6103311907338229
 30
0.0
 11
-81.089823610985164
 21
3.432524336485776
 31
0.0
  0
ARC
  5
19FB
  8
247
 10
-81.832201845848445
 20
4.4176893364476211
 30
0.0
 40
0.9851760864257813
 50
163.99975070172709
 51
304.96387329163082
  0
ARC
  5
19FC
  8
247
 10
-80.22149170180549
 20
4.3658933769749648
 30
0.0
 40
2.5780792236328121
 50
155.20517736984181
 51
172.7948259620502
  0
ARC
  5
19FD
  8
247
 10
-81.614901430809397
 20
5.1755170952366836
 30
0.0
 40
0.9851660728454588
 50
53.4440121970555
 51
164.00018438768501
  0
ARC
  5
19FE
  8
247
 10
-80.267016298973445
 20
4.5692548882054353
 30
0.0
 40
1.591427564620969
 50
110.22964506332001
 51
118.57168892371681
  0
LINE
  5
19FF
  8
247
 10
-85.794535525047678
 20
6.1606817375706751
 30
0.0
 11
-85.881453402244986
 21
5.8575506340550509
 31
0.0
  0
LINE
  5
1A00
  8
247
 10
-86.420538790428552
 20
6.1606817375706751
 30
0.0
 11
-85.794535525047678
 21
6.1606817375706751
 31
0.0
  0
LINE
  5
1A01
  8
247
 10
-86.420538790428552
 20
5.8575506340550509
 30
0.0
 11
-85.881453402244986
 21
5.8575506340550509
 31
0.0
  0
ARC
  5
1A02
  8
247
 10
-86.420538790428552
 20
4.5692548882054353
 30
0.0
 40
1.288295745849608
 50
90.0
 51
270.0
  0
ARC
  5
1A03
  8
247
 10
-86.420538790428552
 20
4.5692548882054353
 30
0.0
 40
1.591426849365233
 50
90.0
 51
270.0
  0
LINE
  5
1A04
  8
247
 10
-86.420538790428552
 20
2.9778276890137572
 30
0.0
 11
-80.267016298973445
 21
2.977827689013743
 31
0.0
  0
LINE
  5
1A05
  8
247
 10
-86.420538790428552
 20
3.2809587847279631
 30
0.0
 11
-80.267016298973445
 21
3.2809587847279471
 31
0.0
  0
ARC
  5
1A06
  8
247
 10
-80.267016298973445
 20
4.5692548882054353
 30
0.0
 40
1.591426849365233
 50
270.0
 51
104.7707939660941
  0
ARC
  5
1A07
  8
247
 10
-80.267016298973445
 20
4.5692548882054353
 30
0.0
 40
1.288295745849608
 50
270.0
 51
104.1274364964119
  0
LINE
  5
1A08
  8
247
 10
-80.581465609276236
 20
5.8185949455784707
 30
0.0
 11
-80.672755129539894
 21
6.1080961357640202
 31
0.0
  0
LINE
  5
1A09
  8
247
 10
-83.407606966698097
 20
3.432524336485776
 30
0.0
 11
-82.625323183739127
 21
6.1606817375706751
 31
0.0
  0
LINE
  5
1A0A
  8
247
 10
-86.261477358543772
 20
3.432524336485776
 30
0.0
 11
-85.566111452782408
 21
5.8575506340541681
 31
0.0
  0
LINE
  5
1A0B
  8
247
 10
-84.897517007566407
 20
4.3177475340425442
 30
0.0
 11
-83.903537331634979
 21
5.3117272099739727
 31
0.0
  0
LINE
  5
1A0C
  8
247
 10
-86.047784572523199
 20
4.1777587827060554
 30
0.0
 11
-84.986695368263327
 21
5.238847986965899
 31
0.0
  0
ARC
  5
1A0D
  8
247
 10
-84.994044192039894
 20
5.4331693779515273
 30
0.0
 40
0.4546839594841006
 50
261.6626016879294
 51
66.338155095189762
  0
LINE
  5
1A0E
  8
247
 10
-85.015069857384901
 20
4.5369542887641403
 30
0.0
 11
-83.930321649785185
 21
5.6217024963638593
 31
0.0
  0
ARC
  5
1A0F
  8
247
 10
-84.655859835350441
 20
5.4028654228734023
 30
0.0
 40
0.7578227519989014
 50
287.66957754739798
 51
90.236159842671626
  0
LINE
  5
1A10
  8
247
 10
-85.912398950846224
 20
4.6499040089231212
 30
0.0
 11
-84.851314215293428
 21
5.710988744475876
 31
0.0
  0
LINE
  5
1A11
  8
247
 10
-84.811561066471825
 20
5.8496275533965916
 30
0.0
 11
-85.059973597986797
 21
4.9832907093711958
 31
0.0
  0
LINE
  5
1A12
  8
247
 10
-84.08560074111216
 20
3.432524336485776
 30
0.0
 11
-83.39892090102424
 21
5.8272466789769259
 31
0.0
  0
LINE
  5
1A13
  8
247
 10
-83.413683779442195
 20
6.1606817375706751
 30
0.0
 11
-82.625323183739127
 21
6.1606817375706751
 31
0.0
  0
LINE
  5
1A14
  8
247
 10
-84.747253929123616
 20
5.8150490306457154
 30
0.0
 11
-84.434626449489286
 21
6.127676510280045
 31
0.0
  0
LINE
  5
1A15
  8
247
 10
-84.587920642975348
 20
5.6376227122539069
 30
0.0
 11
-84.209938559432302
 21
6.0156047957969374
 31
0.0
  0
LINE
  5
1A16
  8
247
 10
-85.636870272361975
 20
6.1606817375706751
 30
0.0
 11
-84.658983395177415
 21
6.1606817375705614
 31
0.0
  0
LINE
  5
1A17
  8
247
 10
-85.641627707492248
 20
5.594194461357282
 30
0.0
 11
-85.075140431278896
 21
6.1606817375706182
 31
0.0
  0
LINE
  5
1A18
  8
247
 10
-85.723788149559752
 20
5.8575506340550509
 30
0.0
 11
-85.566111452782408
 21
5.8575506340541681
 31
0.0
  0
LINE
  5
1A19
  8
247
 10
-85.636870272361975
 20
6.1606817375706751
 30
0.0
 11
-85.723788149559752
 21
5.8575506340550509
 31
0.0
  0
LINE
  5
1A1A
  8
247
 10
-85.715031139334585
 20
5.8575506340550234
 30
0.0
 11
-85.411900035818974
 21
6.1606817375706484
 31
0.0
  0
LINE
  5
1A1B
  8
247
 10
-84.549067841999815
 20
5.3397159086893486
 30
0.0
 11
-84.041807204433823
 21
5.8469765462553411
 31
0.0
  0
LINE
  5
1A1C
  8
247
 10
-85.777013329169208
 20
5.122049235140187
 30
0.0
 11
-84.738380826738833
 21
6.1606817375705614
 31
0.0
  0
LINE
  5
1A1D
  8
247
 10
-83.509299166405086
 20
5.8272466789769259
 30
0.0
 11
-83.39892090102424
 21
5.8272466789769259
 31
0.0
  0
LINE
  5
1A1E
  8
247
 10
-83.509299166405086
 20
5.8272466789769259
 30
0.0
 11
-83.413683779442195
 21
6.1606817375706751
 31
0.0
  0
LINE
  5
1A1F
  8
247
 10
-85.445980600583098
 20
3.432524336485776
 30
0.0
 11
-84.333723660725411
 21
4.5447812763434783
 31
0.0
  0
ARC
  5
1A20
  8
247
 10
-85.003542788231286
 20
4.1903410088109023
 30
0.0
 40
0.7578163146972659
 50
270.0
 51
40.329840654168393
  0
LINE
  5
1A21
  8
247
 10
-85.109220996043007
 20
3.4325243364857481
 30
0.0
 11
-84.252242278684008
 21
4.2895030538447729
 31
0.0
  0
LINE
  5
1A22
  8
247
 10
-86.183170194200144
 20
3.7056135564889909
 30
0.0
 11
-84.900590722777693
 21
4.9881930279114419
 31
0.0
  0
ARC
  5
1A23
  8
247
 10
-85.341727144920753
 20
4.2206564079808242
 30
0.0
 40
0.4546969681978227
 50
261.6628542111489
 51
66.338192159110065
  0
LINE
  5
1A24
  8
247
 10
-85.159240401427496
 20
4.637127200879311
 30
0.0
 11
-85.407657019642556
 21
3.7707646604376541
 31
0.0
  0
LINE
  5
1A25
  8
247
 10
-86.119499809663296
 20
3.432524336485776
 30
0.0
 11
-85.257467402979643
 21
4.2945567431694283
 31
0.0
  0
LINE
  5
1A26
  8
247
 10
-84.715643833990725
 20
3.4893418939979499
 30
0.0
 11
-84.302543673418356
 21
3.902442054570308
 31
0.0
  0
LINE
  5
1A27
  8
247
 10
-86.261477358543772
 20
3.432524336485776
 30
0.0
 11
-85.003542788231286
 21
3.432524336485776
 31
0.0
  0
LINE
  5
1A28
  8
247
 10
-85.782740205123218
 20
3.432524336485776
 30
0.0
 11
-85.392846048751537
 21
3.8224184928574441
 31
0.0
  0
LINE
  5
1A29
  8
247
 10
-84.08560074111216
 20
3.432524336485776
 30
0.0
 11
-83.407606966698097
 21
3.432524336485776
 31
0.0
  0
ENDBLK
  5
1A2D
  8
0
  0
BLOCK
  8
0
  2
*U30
 70
     1
 10
0.0
 20
0.0
 30
0.0
  3
*U30
  1

  0
TEXT
  5
1A49
  8
250
 62
    40
 10
27.499999999999989
 20
65.178571428571473
 30
0.0
 40
1.5
  1
\U+2205
 50
90.0
  0
TEXT
  5
1A4A
  8
250
 62
    40
 10
27.499999999999989
 20
66.53571428571432
 30
0.0
 40
1.5
  1
8
 50
90.0
  0
ENDBLK
  5
1A4C
  8
0
  0
BLOCK
  8
0
  2
*U31
 70
     1
 10
0.0
 20
0.0
 30
0.0
  3
*U31
  1

  0
TEXT
  5
1A4E
  8
250
 62
    40
 10
146.3571428571428
 20
64.107142857142861
 30
0.0
 40
1.5
  1
(
 50
90.0
  0
TEXT
  5
1A4F
  8
250
 62
    40
 10
146.3571428571428
 20
65.107142857142861
 30
0.0
 40
1.5
  1
\U+2205
 50
90.0
  0
TEXT
  5
1A50
  8
250
 62
    40
 10
146.3571428571428
 20
66.464285714285722
 30
0.0
 40
1.5
  1
5
 50
90.0
  0
TEXT
  5
1A51
  8
250
 62
    40
 10
146.3571428571428
 20
67.892857142857153
 30
0.0
 40
1.5
  1
)
 50
90.0
  0
ENDBLK
  5
1A53
  8
0
  0
BLOCK
  8
0
  2
*U32
 70
     1
 10
0.0
 20
0.0
 30
0.0
  3
*U32
  1

  0
TEXT
  5
1A55
  8
250
 62
    40
 10
156.8571428571428
 20
62.321428571428591
 30
0.0
 40
1.5
  1
(
 50
90.0
  0
TEXT
  5
1A56
  8
250
 62
    40
 10
156.8571428571428
 20
63.321428571428591
 30
0.0
 40
1.5
  1
\U+2205
 50
90.0
  0
TEXT
  5
1A57
  8
250
 62
    40
 10
156.8571428571428
 20
64.678571428571445
 30
0.0
 40
1.5
  1
11.2
 50
90.0
  0
TEXT
  5
1A58
  8
250
 62
    40
 10
156.8571428571428
 20
69.678571428571445
 30
0.0
 40
1.5
  1
)
 50
90.0
  0
ENDBLK
  5
1A5A
  8
0
  0
BLOCK
  8
0
  2
*U33
 70
     1
 10
0.0
 20
0.0
 30
0.0
  3
*U33
  1

  0
TEXT
  5
1A5C
  8
250
 62
    40
 10
150.49999999999989
 20
73.422142857142873
 30
0.0
 40
1.5
  1
\U+2205
 50
90.0
  0
TEXT
  5
1A5D
  8
250
 62
    40
 10
150.49999999999989
 20
74.779285714285734
 30
0.0
 40
1.5
  1
6.2
 50
90.0
  0
TEXT
  5
1A5E
  8
250
 62
    40
 10
149.09999999999991
 20
78.350714285714304
 30
0.0
 40
1.05
  1
 -0.05
 50
90.0
  0
TEXT
  5
1A5F
  8
250
 62
    40
 10
150.49999999999989
 20
78.350714285714304
 30
0.0
 40
1.05
  1
 -0.15
 50
90.0
  0
ENDBLK
  5
1A61
  8
0
  0
BLOCK
  8
0
  2
*U34
 70
     1
 10
0.0
 20
0.0
 30
0.0
  3
*U34
  1

  0
TEXT
  5
1A63
  8
250
 62
    40
 10
153.49999832847999
 20
58.585000000000022
 30
0.0
 40
1.5
  1
\U+2205
 50
90.0
  0
TEXT
  5
1A64
  8
250
 62
    40
 10
153.49999832847999
 20
59.942142857142883
 30
0.0
 40
1.5
  1
11
 50
90.0
  0
TEXT
  5
1A65
  8
250
 62
    40
 10
152.09999832848001
 20
62.79928571428573
 30
0.0
 40
1.05
  1
 0
 50
90.0
  0
TEXT
  5
1A66
  8
250
 62
    40
 10
153.49999832847999
 20
62.79928571428573
 30
0.0
 40
1.05
  1
 -0.1
 50
90.0
  0
TEXT
  5
1A67
  8
250
 62
    40
 10
153.49999832847999
 20
67.229285714285737
 30
0.0
 40
1.5
  1
(チップ)
 50
90.0
  0
ENDBLK
  5
1A69
  8
0
  0
BLOCK
  8
0
  2
*U35
 70
     1
 10
0.0
 20
0.0
 30
0.0
  3
*U35
  1

  0
TEXT
  5
1A6B
  8
250
 62
    40
 10
89.327078308811636
 20
56.591263661482053
 30
0.0
 40
1.5
  1
30°
 50
290.31269579077798
  0
ENDBLK
  5
1A6D
  8
0
  0
BLOCK
  8
0
  2
*U36
 70
     1
 10
0.0
 20
0.0
 30
0.0
  3
*U36
  1

  0
TEXT
  5
1A6F
  8
250
 62
    40
 10
118.5
 20
70.929285714285768
 30
0.0
 40
1.5
  1
6.2
 50
90.0
  0
TEXT
  5
1A70
  8
250
 62
    40
 10
117.09999999999999
 20
74.500714285714352
 30
0.0
 40
1.05
  1
 0
 50
90.0
  0
TEXT
  5
1A71
  8
250
 62
    40
 10
118.5
 20
74.500714285714352
 30
0.0
 40
1.05
  1
 -0.1
 50
90.0
  0
ENDBLK
  5
1A73
  8
0
  0
BLOCK
  8
0
  2
*U37
 70
     1
 10
0.0
 20
0.0
 30
0.0
  3
*U37
  1

  0
TEXT
  5
1A75
  8
250
 62
    40
 10
122.40642857142851
 20
81.5
 30
0.0
 40
1.5
  1
9
  0
TEXT
  5
1A76
  8
250
 62
    40
 10
123.83499999999989
 20
82.900000000000006
 30
0.0
 40
1.05
  1
 +0.1
  0
TEXT
  5
1A77
  8
250
 62
    40
 10
123.83499999999989
 20
81.5
 30
0.0
 40
1.05
  1
 0
  0
TEXT
  5
1A78
  8
250
 62
    40
 10
128.2649999999999
 20
81.5
 30
0.0
 40
1.5
  1
(チップ)
  0
ENDBLK
  5
1A7A
  8
0
  0
BLOCK
  8
0
  2
*U38
 70
     1
 10
0.0
 20
0.0
 30
0.0
  3
*U38
  1

  0
INSERT
  5
1A7C
  8
250
  6
CONTINUOUS
  2
_OPEN
 10
14.00000000000021
 20
0.0
 30
0.0
 41
1.1149999999999991
 42
1.1149999999999991
 43
1.1149999999999991
 50
127.82119495749011
  0
POLYLINE
  5
1A7D
  8
250
  6
CONTINUOUS
 66
     1
 10
0.0
 20
0.0
 30
0.0
  0
VERTEX
  5
1A7E
  8
250
  6
CONTINUOUS
 10
14.683717227605699
 20
-0.8807699771651268
 30
0.0
  0
VERTEX
  5
1A7F
  8
250
  6
CONTINUOUS
 10
23.28664562040451
 20
-11.96313083944062
 30
0.0
  0
SEQEND
  5
1A80
  8
250
  6
CONTINUOUS
  0
ENDBLK
  5
1A82
  8
0
  0
BLOCK
  8
0
  2
*U39
 70
     1
 10
0.0
 20
0.0
 30
0.0
  3
*U39
  1

  0
TEXT
  5
1A84
  8
250
 62
    40
 10
23.483293503598318
 20
-11.46313083944062
 30
0.0
 40
1.5
  1
センタ穴     
  7
YOKO
  0
ENDBLK
  5
1A86
  8
0
  0
BLOCK
  8
0
  2
*U40
 70
     1
 10
0.0
 20
0.0
 30
0.0
  3
*U40
  1

  0
TEXT
  5
1A88
  8
250
 62
    40
 10
23.19757921788403
 20
-14.24884512515491
 30
0.0
 40
1.5
  1
(A-1,M時用)
  7
YOKO
  0
ENDBLK
  5
1A8A
  8
0
  0
BLOCK
  8
0
  2
*U41
 70
     1
 10
0.0
 20
0.0
 30
0.0
  3
*U41
  1

  0
TEXT
  5
1A8C
  8
250
 62
    40
 10
-96.66232170475655
 20
-11.73684235686296
 30
0.0
 40
1.5
  1
R1
 50
49.768604984405059
  0
ENDBLK
  5
1A8E
  8
0
  0
BLOCK
  8
0
  2
*U42
 70
     1
 10
0.0
 20
0.0
 30
0.0
  3
*U42
  1

  0
INSERT
  5
1A90
  8
250
  6
CONTINUOUS
  2
_OPEN
 10
-92.645876110082384
 20
-7.763442237778853
 30
0.0
 41
1.1149999999999991
 42
1.1149999999999991
 43
1.1149999999999991
 50
49.768604984406252
  0
POLYLINE
  5
1A91
  8
250
  6
CONTINUOUS
 66
     1
 10
0.0
 20
0.0
 30
0.0
  0
VERTEX
  5
1A92
  8
250
  6
CONTINUOUS
 10
-93.366027972824284
 20
-8.6146803329022834
 30
0.0
  0
VERTEX
  5
1A93
  8
250
  6
CONTINUOUS
 10
-96.096064554414994
 20
-11.841654058253081
 30
0.0
  0
SEQEND
  5
1A94
  8
250
  6
CONTINUOUS
  0
ENDBLK
  5
1A96
  8
0
  0
BLOCK
  8
0
  2
*U43
 70
     1
 10
0.0
 20
0.0
 30
0.0
  3
*U43
  1

  0
INSERT
  5
1A98
  8
250
  6
CONTINUOUS
  2
_OPEN
 10
-92.594241944317133
 20
4.1957136631683483
 30
0.0
 41
1.1149999999999991
 42
1.1149999999999991
 43
1.1149999999999991
 50
233.54138912336171
  0
POLYLINE
  5
1A99
  8
250
  6
CONTINUOUS
 66
     1
 10
0.0
 20
0.0
 30
0.0
  0
VERTEX
  5
1A9A
  8
250
  6
CONTINUOUS
 10
-91.931662176403464
 20
5.0924929287356653
 30
0.0
  0
VERTEX
  5
1A9B
  8
250
  6
CONTINUOUS
 10
-87.361232428875766
 20
11.27841473135987
 30
0.0
  0
SEQEND
  5
1A9C
  8
250
  6
CONTINUOUS
  0
ENDBLK
  5
1A9E
  8
0
  0
BLOCK
  8
0
  2
*U44
 70
     1
 10
0.0
 20
0.0
 30
0.0
  3
*U44
  1

  0
TEXT
  5
1AA0
  8
250
 62
    40
 10
-89.718711777430727
 20
8.8357039674761246
 30
0.0
 40
1.5
  1
R1
 50
53.5413891233597
  0
ENDBLK
  5
1AA2
  8
0
  0
BLOCK
  8
0
  2
*U45
 70
     1
 10
0.0
 20
0.0
 30
0.0
  3
*U45
  1

  0
INSERT
  5
1AA4
  8
250
  6
CONTINUOUS
  2
_OPEN
 10
8.8499999999999517
 20
-0.6000000000030356
 30
0.0
 41
1.1149999999999991
 42
1.1149999999999991
 43
1.1149999999999991
 50
134.9999999994246
  0
POLYLINE
  5
1AA5
  8
250
  6
CONTINUOUS
 66
     1
 10
0.0
 20
0.0
 30
0.0
  0
VERTEX
  5
1AA6
  8
250
  6
CONTINUOUS
 10
9.6384240610150336
 20
-1.3884240610339531
 30
0.0
  0
VERTEX
  5
1AA7
  8
250
  6
CONTINUOUS
 10
19.63988901762
 20
-11.389889017839799
 30
0.0
  0
SEQEND
  5
1AA8
  8
250
  6
CONTINUOUS
  0
ENDBLK
  5
1AAA
  8
0
  0
BLOCK
  8
0
  2
*U46
 70
     1
 10
0.0
 20
0.0
 30
0.0
  3
*U46
  1

  0
TEXT
  5
1AAC
  8
250
 62
    40
 10
15.54877132083611
 20
-6.5916645397800977
 30
0.0
 40
1.5
  1
C0.3
 50
314.99999999942457
  0
ENDBLK
  5
1AAE
  8
0
  0
BLOCK
  8
0
  2
*U47
 70
     1
 10
0.0
 20
0.0
 30
0.0
  3
*U47
  1

  0
INSERT
  5
1AB0
  8
250
  6
CONTINUOUS
  2
_OPEN
 10
8.8499999999999801
 20
-5.450000000000002
 30
0.0
 41
1.1149999999999991
 42
1.1149999999999991
 43
1.1149999999999991
 50
134.99999999999861
  0
POLYLINE
  5
1AB1
  8
250
  6
CONTINUOUS
 66
     1
 10
0.0
 20
0.0
 30
0.0
  0
VERTEX
  5
1AB2
  8
250
  6
CONTINUOUS
 10
9.6384240610229615
 20
-6.2384240610230224
 30
0.0
  0
VERTEX
  5
1AB3
  8
250
  6
CONTINUOUS
 10
15.344261478782601
 20
-11.944261478782931
 30
0.0
  0
SEQEND
  5
1AB4
  8
250
  6
CONTINUOUS
  0
ENDBLK
  5
1AB6
  8
0
  0
BLOCK
  8
0
  2
*U48
 70
     1
 10
0.0
 20
0.0
 30
0.0
  3
*U48
  1

  0
TEXT
  5
1AB8
  8
250
 62
    40
 10
11.253143781950641
 20
-7.1460370007642249
 30
0.0
 40
1.5
  1
C0.3
 50
314.99999999999869
  0
ENDBLK
  5
1ABA
  8
0
  0
BLOCK
  8
0
  2
*U49
 70
     1
 10
0.0
 20
0.0
 30
0.0
  3
*U49
  1

  0
INSERT
  5
1ABC
  8
250
  6
CONTINUOUS
  2
_OPEN
 10
0.1999999999998749
 20
-5.5499999999999972
 30
0.0
 41
1.1149999999999991
 42
1.1149999999999991
 43
1.1149999999999991
 50
45.0
  0
POLYLINE
  5
1ABD
  8
250
  6
CONTINUOUS
 66
     1
 10
0.0
 20
0.0
 30
0.0
  0
VERTEX
  5
1ABE
  8
250
  6
CONTINUOUS
 10
-0.5884240610231255
 20
-6.338424061022998
 30
0.0
  0
VERTEX
  5
1ABF
  8
250
  6
CONTINUOUS
 10
-6.3585900156761559
 20
-12.108590015676031
 30
0.0
  0
SEQEND
  5
1AC0
  8
250
  6
CONTINUOUS
  0
ENDBLK
  5
1AC2
  8
0
  0
BLOCK
  8
0
  2
*U50
 70
     1
 10
0.0
 20
0.0
 30
0.0
  3
*U50
  1

  0
TEXT
  5
1AC4
  8
250
 62
    40
 10
-5.7019907531129599
 20
-10.74488397192602
 30
0.0
 40
1.5
  1
C0.1
 50
45.0
  0
ENDBLK
  5
1AC6
  8
0
  0
BLOCK
  8
0
  2
*U51
 70
     1
 10
0.0
 20
0.0
 30
0.0
  3
*U51
  1

  0
INSERT
  5
1AC8
  8
250
  6
CONTINUOUS
  2
_OPEN
 10
0.0726757054250413
 20
-3.2636096678616511
 30
0.0
 41
1.1149999999999991
 42
1.1149999999999991
 43
1.1149999999999991
 50
36.226286700513427
  0
POLYLINE
  5
1AC9
  8
250
  6
CONTINUOUS
 66
     1
 10
0.0
 20
0.0
 30
0.0
  0
VERTEX
  5
1ACA
  8
250
  6
CONTINUOUS
 10
-0.8267828234470407
 20
-3.92254771869744
 30
0.0
  0
VERTEX
  5
1ACB
  8
250
  6
CONTINUOUS
 10
-6.939049729710546
 20
-8.4003586595220057
 30
0.0
  0
SEQEND
  5
1ACC
  8
250
  6
CONTINUOUS
  0
ENDBLK
  5
1ACE
  8
0
  0
BLOCK
  8
0
  2
*U52
 70
     1
 10
0.0
 20
0.0
 30
0.0
  3
*U52
  1

  0
TEXT
  5
1AD0
  8
250
 62
    40
 10
-6.9453765212979297
 20
-7.7851762819894681
 30
0.0
 40
1.5
  1
R0.4
 50
36.226286700511778
  0
ENDBLK
  5
1AD2
  8
0
  0
BLOCK
  8
0
  2
*U53
 70
     1
 10
0.0
 20
0.0
 30
0.0
  3
*U53
  1

  0
INSERT
  5
1AD4
  8
250
  6
CONTINUOUS
  2
_OPEN
 10
-27.999999999999972
 20
2.2062366344386528
 30
0.0
 41
1.1149999999999991
 42
1.1149999999999991
 43
1.1149999999999991
 50
300.0
  0
POLYLINE
  5
1AD5
  8
250
  6
CONTINUOUS
 66
     1
 10
0.0
 20
0.0
 30
0.0
  0
VERTEX
  5
1AD6
  8
250
  6
CONTINUOUS
 10
-28.557499999999969
 20
3.171854959658301
 30
0.0
  0
VERTEX
  5
1AD7
  8
250
  6
CONTINUOUS
 10
-33.541392880985939
 20
11.804210649006791
 30
0.0
  0
SEQEND
  5
1AD8
  8
250
  6
CONTINUOUS
  0
ENDBLK
  5
1ADA
  8
0
  0
BLOCK
  8
0
  2
*U54
 70
     1
 10
0.0
 20
0.0
 30
0.0
  3
*U54
  1

  0
TEXT
  5
1ADC
  8
250
 62
    40
 10
-39.898535738128793
 20
12.304210649006791
 30
0.0
 40
1.5
  1
C0.3
  7
YOKO
  0
ENDBLK
  5
1ADE
  8
0
  0
BLOCK
  8
0
  2
*U55
 70
     1
 10
0.0
 20
0.0
 30
0.0
  3
*U55
  1

  0
INSERT
  5
1AE0
  8
250
  6
CONTINUOUS
  2
_OPEN
 10
-22.84772141668542
 20
7.9074186555787094
 30
0.0
 41
1.1149999999999991
 42
1.1149999999999991
 43
1.1149999999999991
 50
245.1510312426399
  0
POLYLINE
  5
1AE1
  8
250
  6
CONTINUOUS
 66
     1
 10
0.0
 20
0.0
 30
0.0
  0
VERTEX
  5
1AE2
  8
250
  6
CONTINUOUS
 10
-22.3791674467295
 20
8.919190456548943
 30
0.0
  0
VERTEX
  5
1AE3
  8
250
  6
CONTINUOUS
 10
-20.65325090031676
 20
12.646047562578021
 30
0.0
  0
SEQEND
  5
1AE4
  8
250
  6
CONTINUOUS
  0
ENDBLK
  5
1AE6
  8
0
  0
BLOCK
  8
0
  2
*U56
 70
     1
 10
0.0
 20
0.0
 30
0.0
  3
*U56
  1

  0
TEXT
  5
1AE8
  8
250
 62
    40
 10
-22.06748085838089
 20
10.78206166627078
 30
0.0
 40
1.5
  1
R1
 50
65.151031242639647
  0
ENDBLK
  5
1AEA
  8
0
  0
BLOCK
  8
0
  2
*U57
 70
     1
 10
0.0
 20
0.0
 30
0.0
  3
*U57
  1

  0
INSERT
  5
1AEC
  8
250
  6
CONTINUOUS
  2
_OPEN
 10
-14.362421497081741
 20
3.2434822850995308
 30
0.0
 41
1.1149999999999991
 42
1.1149999999999991
 43
1.1149999999999991
 50
256.2407159221907
  0
POLYLINE
  5
1AED
  8
250
  6
CONTINUOUS
 66
     1
 10
0.0
 20
0.0
 30
0.0
  0
VERTEX
  5
1AEE
  8
250
  6
CONTINUOUS
 10
-14.097226236241189
 20
4.3264857355223407
 30
0.0
  0
VERTEX
  5
1AEF
  8
250
  6
CONTINUOUS
 10
-13.1732050807564
 20
8.1000000000000227
 30
0.0
  0
SEQEND
  5
1AF0
  8
250
  6
CONTINUOUS
  0
ENDBLK
  5
1AF2
  8
0
  0
BLOCK
  8
0
  2
*U58
 70
     1
 10
0.0
 20
0.0
 30
0.0
  3
*U58
  1

  0
TEXT
  5
1AF4
  8
250
 62
    40
 10
-14.610229985306731
 20
4.3337074697121682
 30
0.0
 40
1.5
  1
R5
 50
76.240715922190716
  0
ENDBLK
  5
1AF6
  8
0
  0
BLOCK
  8
0
  2
*U59
 70
     1
 10
0.0
 20
0.0
 30
0.0
  3
*U59
  1

  0
INSERT
  5
1AF8
  8
250
  6
CONTINUOUS
  2
_OPEN
 10
-14.866529870329501
 20
-1.401369283354895
 30
0.0
 41
1.1149999999999991
 42
1.1149999999999991
 43
1.1149999999999991
 50
128.47525785505769
  0
POLYLINE
  5
1AF9
  8
250
  6
CONTINUOUS
 66
     1
 10
0.0
 20
0.0
 30
0.0
  0
VERTEX
  5
1AFA
  8
250
  6
CONTINUOUS
 10
-14.17280293519034
 20
-2.2742770330412121
 30
0.0
  0
VERTEX
  5
1AFB
  8
250
  6
CONTINUOUS
 10
-9.8984514352832065
 20
-7.6526389794514591
 30
0.0
  0
SEQEND
  5
1AFC
  8
250
  6
CONTINUOUS
  0
ENDBLK
  5
1AFE
  8
0
  0
BLOCK
  8
0
  2
*U60
 70
     1
 10
0.0
 20
0.0
 30
0.0
  3
*U60
  1

  0
TEXT
  5
1B00
  8
250
 62
    40
 10
-11.69902767092605
 20
-4.5833665580677296
 30
0.0
 40
1.5
  1
R3
 50
308.47525785505661
  0
ENDBLK
  5
1B02
  8
0
  0
BLOCK
  8
0
  2
*U61
 70
     1
 10
0.0
 20
0.0
 30
0.0
  3
*U61
  1

  0
INSERT
  5
1B04
  8
250
  6
CONTINUOUS
  2
_OPEN
 10
0.1999999999996902
 20
5.4000000000002037
 30
0.0
 41
1.1149999999999991
 42
1.1149999999999991
 43
1.1149999999999991
 50
315.0000000000162
  0
POLYLINE
  5
1B05
  8
250
  6
CONTINUOUS
 66
     1
 10
0.0
 20
0.0
 30
0.0
  0
VERTEX
  5
1B06
  8
250
  6
CONTINUOUS
 10
-0.5884240610235346
 20
6.1884240610229799
 30
0.0
  0
VERTEX
  5
1B07
  8
250
  6
CONTINUOUS
 10
-4.9692398717043309
 20
10.56923987170128
 30
0.0
  0
SEQEND
  5
1B08
  8
250
  6
CONTINUOUS
  0
ENDBLK
  5
1B0A
  8
0
  0
BLOCK
  8
0
  2
*U62
 70
     1
 10
0.0
 20
0.0
 30
0.0
  3
*U62
  1

  0
TEXT
  5
1B0C
  8
250
 62
    40
 10
-5.0003890059155003
 20
11.30749578709823
 30
0.0
 40
1.5
  1
C0.1
 50
315.0000000000162
  0
ENDBLK
  5
1B0E
  8
0
  0
BLOCK
  8
0
  2
*U63
 70
     1
 10
0.0
 20
0.0
 30
0.0
  3
*U63
  1

  0
TEXT
  5
1B10
  8
250
 62
    40
 10
-96.999999999999929
 20
-1.280952380952366
 30
0.0
 40
1.5
  1
\U+2205
 50
90.0
  0
TEXT
  5
1B11
  8
250
 62
    40
 10
-97.049999999999926
 20
0.0761904761904908
 30
0.0
 40
1.399999999999999
  1
8
 50
90.0
  0
ENDBLK
  5
1B13
  8
0
  0
BLOCK
  8
0
  2
*U64
 70
     1
 10
0.0
 20
0.0
 30
0.0
  3
*U64
  1

  0
TEXT
  5
1B15
  8
250
 62
    40
 10
21.857142857142929
 20
-2.3452380952380931
 30
0.0
 40
1.5
  1
(
 50
90.0
  0
TEXT
  5
1B16
  8
250
 62
    40
 10
21.857142857142929
 20
-1.3452380952380929
 30
0.0
 40
1.5
  1
\U+2205
 50
90.0
  0
TEXT
  5
1B17
  8
250
 62
    40
 10
21.807142857142932
 20
0.0119047619047632
 30
0.0
 40
1.399999999999999
  1
5
 50
90.0
  0
TEXT
  5
1B18
  8
250
 62
    40
 10
21.857142857142929
 20
1.345238095238096
 30
0.0
 40
1.5
  1
)
 50
90.0
  0
ENDBLK
  5
1B1A
  8
0
  0
BLOCK
  8
0
  2
*U65
 70
     1
 10
0.0
 20
0.0
 30
0.0
  3
*U65
  1

  0
TEXT
  5
1B1C
  8
250
 62
    40
 10
32.357142857142932
 20
-4.0119047619047663
 30
0.0
 40
1.5
  1
(
 50
90.0
  0
TEXT
  5
1B1D
  8
250
 62
    40
 10
32.357142857142932
 20
-3.0119047619047659
 30
0.0
 40
1.5
  1
\U+2205
 50
90.0
  0
TEXT
  5
1B1E
  8
250
 62
    40
 10
32.307142857142928
 20
-1.6547619047619091
 30
0.0
 40
1.399999999999999
  1
11.2
 50
90.0
  0
TEXT
  5
1B1F
  8
250
 62
    40
 10
32.357142857142932
 20
3.0119047619047552
 30
0.0
 40
1.5
  1
)
 50
90.0
  0
ENDBLK
  5
1B21
  8
0
  0
BLOCK
  8
0
  2
*U66
 70
     1
 10
0.0
 20
0.0
 30
0.0
  3
*U66
  1

  0
TEXT
  5
1B23
  8
250
 62
    40
 10
26.000000000000071
 20
6.922142857142874
 30
0.0
 40
1.5
  1
\U+2205
 50
90.0
  0
TEXT
  5
1B24
  8
250
 62
    40
 10
26.000000000000071
 20
8.2792857142857308
 30
0.0
 40
1.399999999999999
  1
6.2
 50
90.0
  0
TEXT
  5
1B25
  8
250
 62
    40
 10
24.600000000000069
 20
11.612619047619059
 30
0.0
 40
1.05
  1
 -0.05
 50
90.0
  0
TEXT
  5
1B26
  8
250
 62
    40
 10
26.000000000000071
 20
11.612619047619059
 30
0.0
 40
1.05
  1
 -0.15
 50
90.0
  0
ENDBLK
  5
1B28
  8
0
  0
BLOCK
  8
0
  2
*U67
 70
     1
 10
0.0
 20
0.0
 30
0.0
  3
*U67
  1

  0
TEXT
  5
1B2A
  8
250
 62
    40
 10
29.033331661813399
 20
-7.5826190476190511
 30
0.0
 40
1.5
  1
\U+2205
 50
90.0
  0
TEXT
  5
1B2B
  8
250
 62
    40
 10
29.033331661813399
 20
-6.2254761904761926
 30
0.0
 40
1.399999999999999
  1
11
 50
90.0
  0
TEXT
  5
1B2C
  8
250
 62
    40
 10
27.633331661813401
 20
-3.558809523809527
 30
0.0
 40
1.05
  1
 0
 50
90.0
  0
TEXT
  5
1B2D
  8
250
 62
    40
 10
29.033331661813399
 20
-3.558809523809527
 30
0.0
 40
1.05
  1
 -0.1
 50
90.0
  0
TEXT
  5
1B2E
  8
250
 62
    40
 10
29.033331661813399
 20
0.8711904761904731
 30
0.0
 40
1.399999999999999
  1
(チップ)
 50
90.0
  0
ENDBLK
  5
1B30
  8
0
  0
BLOCK
  8
0
  2
*U68
 70
     1
 10
0.0
 20
0.0
 30
0.0
  3
*U68
  1

  0
TEXT
  5
1B32
  8
250
 62
    40
 10
-35.116552204951759
 20
-10.06101915014672
 30
0.0
 40
1.399999999999999
  1
30°
 50
290.31269579077798
  0
ENDBLK
  5
1B34
  8
0
  0
BLOCK
  8
0
  2
*U69
 70
     1
 10
0.0
 20
0.0
 30
0.0
  3
*U69
  1

  0
TEXT
  5
1B36
  8
250
 62
    40
 10
-5.9999999999999289
 20
4.4483333333333679
 30
0.0
 40
1.399999999999999
  1
6.2
 50
90.0
  0
TEXT
  5
1B37
  8
250
 62
    40
 10
-7.3999999999999293
 20
7.7816666666667
 30
0.0
 40
1.05
  1
 0
 50
90.0
  0
TEXT
  5
1B38
  8
250
 62
    40
 10
-5.9999999999999281
 20
7.7816666666667
 30
0.0
 40
1.05
  1
 -0.1
 50
90.0
  0
ENDBLK
  5
1B3A
  8
0
  0
BLOCK
  8
0
  2
*U70
 70
     1
 10
0.0
 20
0.0
 30
0.0
  3
*U70
  1

  0
TEXT
  5
1B3C
  8
250
 62
    40
 10
-1.8016666666666381
 20
14.96666666666667
 30
0.0
 40
1.399999999999999
  1
9
  0
TEXT
  5
1B3D
  8
250
 62
    40
 10
-0.4683333333333049
 20
16.36666666666666
 30
0.0
 40
1.05
  1
 +0.1
  0
TEXT
  5
1B3E
  8
250
 62
    40
 10
-0.4683333333333049
 20
14.96666666666667
 30
0.0
 40
1.05
  1
 0
  0
TEXT
  5
1B3F
  8
250
 62
    40
 10
3.9616666666666962
 20
14.96666666666667
 30
0.0
 40
1.399999999999999
  1
(チップ)
  0
ENDBLK
  5
1B41
  8
0
  0
BLOCK
  8
0
  2
*U71
 70
     1
 10
0.0
 20
0.0
 30
0.0
  3
*U71
  1

  0
TEXT
  5
1B43
  8
AM_5
 62
    40
 10
12.233487578890051
 20
8.4048404774983361
 30
0.0
 40
2.7999999999999989
  1
\U+220510.883
 50
90.0
  0
ENDBLK
  5
1B45
  8
0
  0
BLOCK
  8
0
  2
*U72
 70
     1
 10
0.0
 20
0.0
 30
0.0
  3
*U72
  1

  0
TEXT
  5
1B47
  8
AM_5
 62
    40
 10
-104.9999999999999
 20
-3.8000000000000109
 30
0.0
 40
2.7999999999999989
  1
\U+220516
 50
90.0
  0
ENDBLK
  5
1B49
  8
0
  0
BLOCK
  8
0
  2
*U73
 70
     1
 10
0.0
 20
0.0
 30
0.0
  3
*U73
  1

  0
TEXT
  5
1B4B
  8
AM_5
 62
    40
 10
20.0
 20
-3.400000000001953
 30
0.0
 40
2.7999999999999989
  1
\U+220511
 50
90.0
  0
ENDBLK
  5
1B4D
  8
0
  0
BLOCK
  8
0
  2
*U74
 70
     1
 10
0.0
 20
0.0
 30
0.0
  3
*U74
  1

  0
TEXT
  5
1B4F
  8
AM_5
 62
    40
 10
-46.199999999999811
 20
29.0
 30
0.0
 40
2.7999999999999989
  1
102
  0
ENDBLK
  5
1B51
  8
0
  0
BLOCK
  8
0
  2
*U75
 70
     1
 10
0.0
 20
0.0
 30
0.0
  3
*U75
  1

  0
TEXT
  5
1B53
  8
AM_5
 62
    40
 10
3.2333333333334848
 20
22.0
 30
0.0
 40
2.7999999999999989
  1
9
  0
ENDBLK
  5
1B55
  8
0
  0
BLOCK
  8
0
  2
*U76
 70
     1
 10
0.0
 20
0.0
 30
0.0
  3
*U76
  1

  0
TEXT
  5
1B57
  8
AM_5
 62
    40
 10
-8.8666666666666298
 20
22.0
 30
0.0
 40
2.7999999999999989
  1
12
  0
ENDBLK
  5
1B59
  8
0
  0
ENDSEC
  0
SECTION
  2
ENTITIES
  0
TEXT
  5
1729
  8
241
 10
-95.415132164086785
 20
37.091163184336608
 30
0.0
 40
4.0
  1
ST16-BFM6/11-12
  7
YOKO
  0
LINE
  5
1905
  8
250
 10
-12.0
 20
3.600000000000025
 30
0.0
 11
-11.999999999999989
 21
22.0
 31
0.0
  0
LINE
  5
1906
  8
250
 10
0.0000000000000706
 20
5.8000000000002032
 30
0.0
 11
0.0000000000000716
 21
22.0
 31
0.0
  0
LINE
  5
1907
  8
250
 10
-9.769999999999996
 20
21.0
 30
0.0
 11
-2.229999999999928
 21
21.0
 31
0.0
  0
LINE
  5
190B
  8
250
 10
9.0000000000002984
 20
5.6500000000000048
 30
0.0
 11
9.0000000000003002
 21
22.0
 31
0.0
  0
LINE
  5
190C
  8
250
 10
0.0000000000000024
 20
5.8000000000002032
 30
0.0
 11
0.0000000000000034
 21
22.0
 31
0.0
  0
LINE
  5
190D
  8
250
 10
6.7700000000002989
 20
21.0
 30
0.0
 11
2.2300000000000031
 21
21.0
 31
0.0
  0
LINE
  5
1911
  8
250
 10
-92.999999999999929
 20
7.5
 30
0.0
 11
-92.999999999999929
 21
29.0
 31
0.0
  0
LINE
  5
1912
  8
250
 10
9.0000000000002984
 20
5.6500000000000048
 30
0.0
 11
9.0000000000003002
 21
29.0
 31
0.0
  0
LINE
  5
1913
  8
250
 10
-90.769999999999925
 20
28.0
 30
0.0
 11
6.7700000000002989
 21
28.0
 31
0.0
  0
LINE
  5
1917
  8
250
 10
-92.499999999999915
 20
8.0
 30
0.0
 11
-104.9999999999999
 21
8.0000000000000036
 31
0.0
  0
LINE
  5
1918
  8
250
 10
-92.499999999999915
 20
-7.9999999999999991
 30
0.0
 11
-104.9999999999999
 21
-7.9999999999999956
 31
0.0
  0
LINE
  5
1919
  8
250
 10
-103.9999999999999
 20
5.7700000000000031
 30
0.0
 11
-103.9999999999999
 21
-5.769999999999996
 31
0.0
  0
LINE
  5
191D
  8
250
 10
5.3000000000000247
 20
5.4999999999999352
 30
0.0
 11
22.0
 21
5.4999999999999298
 31
0.0
  0
LINE
  5
191E
  8
250
 10
21.0
 20
3.2699999999999299
 30
0.0
 11
21.0
 21
-4.1333333333352913
 31
0.0
  0
TEXT
  5
1921
  8
250
 10
-8.8666666666666298
 20
22.0
 30
0.0
 40
2.7999999999999989
  1
12
  0
LINE
  5
1922
  8
250
 10
-2.229999999999928
 20
21.37166666666667
 30
0.0
 11
0.0000000000000716
 21
21.0
 31
0.0
  0
LINE
  5
1923
  8
250
 10
-2.229999999999928
 20
20.62833333333333
 30
0.0
 11
0.0000000000000716
 21
21.0
 31
0.0
  0
LINE
  5
1924
  8
250
 10
0.0000000000000716
 20
21.0
 30
0.0
 11
-2.229999999999928
 21
21.0
 31
0.0
  0
LINE
  5
1925
  8
250
 10
-9.769999999999996
 20
20.62833333333333
 30
0.0
 11
-11.999999999999989
 21
21.0
 31
0.0
  0
LINE
  5
1926
  8
250
 10
-9.769999999999996
 20
21.37166666666667
 30
0.0
 11
-11.999999999999989
 21
21.0
 31
0.0
  0
LINE
  5
1927
  8
250
 10
-11.999999999999989
 20
21.0
 30
0.0
 11
-9.769999999999996
 21
21.0
 31
0.0
  0
TEXT
  5
1928
  8
250
 10
3.2333333333334848
 20
22.0
 30
0.0
 40
2.7999999999999989
  1
9
  0
LINE
  5
1929
  8
250
 10
2.2300000000000031
 20
20.62833333333333
 30
0.0
 11
0.0000000000000033
 21
21.0
 31
0.0
  0
LINE
  5
192A
  8
250
 10
2.2300000000000031
 20
21.37166666666667
 30
0.0
 11
0.0000000000000033
 21
21.0
 31
0.0
  0
LINE
  5
192B
  8
250
 10
0.0000000000000033
 20
21.0
 30
0.0
 11
2.2300000000000031
 21
21.0
 31
0.0
  0
LINE
  5
192C
  8
250
 10
6.7700000000002989
 20
21.37166666666667
 30
0.0
 11
9.0000000000003002
 21
21.0
 31
0.0
  0
LINE
  5
192D
  8
250
 10
6.7700000000002989
 20
20.62833333333333
 30
0.0
 11
9.0000000000003002
 21
21.0
 31
0.0
  0
LINE
  5
192E
  8
250
 10
9.0000000000003002
 20
21.0
 30
0.0
 11
6.7700000000002989
 21
21.0
 31
0.0
  0
TEXT
  5
192F
  8
250
 10
-46.199999999999811
 20
29.0
 30
0.0
 40
2.7999999999999989
  1
102
  0
LINE
  5
1930
  8
250
 10
6.7700000000002989
 20
28.371666666666659
 30
0.0
 11
9.0000000000003002
 21
28.0
 31
0.0
  0
LINE
  5
1931
  8
250
 10
6.7700000000002989
 20
27.62833333333333
 30
0.0
 11
9.0000000000003002
 21
28.0
 31
0.0
  0
LINE
  5
1932
  8
250
 10
9.0000000000003002
 20
28.0
 30
0.0
 11
6.7700000000002989
 21
28.0
 31
0.0
  0
LINE
  5
1933
  8
250
 10
-90.769999999999925
 20
27.62833333333333
 30
0.0
 11
-92.999999999999929
 21
28.0
 31
0.0
  0
LINE
  5
1934
  8
250
 10
-90.769999999999925
 20
28.371666666666659
 30
0.0
 11
-92.999999999999929
 21
28.0
 31
0.0
  0
LINE
  5
1935
  8
250
 10
-92.999999999999929
 20
28.0
 30
0.0
 11
-90.769999999999925
 21
28.0
 31
0.0
  0
TEXT
  5
1936
  8
250
 10
-104.9999999999999
 20
-3.8000000000000109
 30
0.0
 40
2.7999999999999989
  1
\U+220516
 50
90.0
  0
LINE
  5
1937
  8
250
 10
-103.6283333333332
 20
-5.769999999999996
 30
0.0
 11
-103.9999999999999
 21
-7.9999999999999956
 31
0.0
  0
LINE
  5
1938
  8
250
 10
-104.3716666666666
 20
-5.769999999999996
 30
0.0
 11
-103.9999999999999
 21
-7.9999999999999956
 31
0.0
  0
LINE
  5
1939
  8
250
 10
-103.9999999999999
 20
-7.9999999999999956
 30
0.0
 11
-103.9999999999999
 21
-5.769999999999996
 31
0.0
  0
LINE
  5
193A
  8
250
 10
-104.3716666666666
 20
5.7700000000000031
 30
0.0
 11
-103.9999999999999
 21
8.0000000000000036
 31
0.0
  0
LINE
  5
193B
  8
250
 10
-103.6283333333332
 20
5.7700000000000031
 30
0.0
 11
-103.9999999999999
 21
8.0000000000000036
 31
0.0
  0
LINE
  5
193C
  8
250
 10
-103.9999999999999
 20
8.0000000000000036
 30
0.0
 11
-103.9999999999999
 21
5.7700000000000031
 31
0.0
  0
TEXT
  5
193D
  8
250
 10
20.0
 20
-3.400000000001953
 30
0.0
 40
2.7999999999999989
  1
\U+220511
 50
90.0
  0
LINE
  5
193E
  8
250
 10
20.62833333333333
 20
3.2699999999999299
 30
0.0
 11
21.0
 21
5.4999999999999298
 31
0.0
  0
LINE
  5
193F
  8
250
 10
21.37166666666667
 20
3.2699999999999299
 30
0.0
 11
21.0
 21
5.4999999999999298
 31
0.0
  0
LINE
  5
1940
  8
250
 10
21.0
 20
5.4999999999999298
 30
0.0
 11
21.0
 21
3.2699999999999299
 31
0.0
  0
INSERT
  5
1A2F
  8
240
  2
A$C46570B44
 10
0.0
 20
0.0
 30
0.0
  0
VIEWPORT
  5
22
 67
     1
  8
0
 10
261.51769911504419
 20
148.5
 30
0.0
 40
523.0353982300885
 41
297.0
 68
     1
 69
     1
1001
ACAD
1000
MVIEW
1002
{
1070
    16
1010
0.0
1020
0.0
1030
0.0
1010
0.0
1020
0.0
1030
1.0
1040
0.0
1040
297.0
1040
261.51769911504419
1040
148.5
1040
50.0
1040
0.0
1040
0.0
1070
     0
1070
   100
1070
     1
1070
     1
1070
     0
1070
     0
1070
     0
1070
     0
1040
0.0
1040
0.0
1040
0.0
1040
1.0
1040
1.0
1040
10.0
1040
10.0
1070
     0
1002
{
1002
}
1002
}
1001
GENIUS_GENODEF_13
1002
{
1000
HIER
1070
     0
1002
}
1002
{
1000
MANEDIT
1070
     0
1002
}
1002
{
1000
NOSEL
1070
     0
1002
}
1002
{
1000
BEHIND
1070
     0
1002
}
1002
{
1000
OTHER
1070
     0
1002
}
1002
{
1000
REACTOR
1002
}
1001
GENIUS_GENOBJ-N-SDF_13
1002
{
1000
OWNER
1000
GEN
1002
}
1001
GENIUS_GENSCREG_15
1000
PF
1040
1.0
1000
DF
1040
1.0
1000
MIN
1011
0.0
1021
0.0
1031
4.4429504355963155E+252
1021
0.0
1031
0.0
1000
MAX
1011
523.0353982300885
1021
0.0
1031
4.4429504355963155E+252
1021
297.0
1031
0.0
1000
FLAGS
1070
     2
  0
ENDSEC
  0
EOF
