  0
SECTION
  2
HEADER
  9
$ACADVER
  1
AC1009
  9
$INSBASE
 10
0.0
 20
0.0
 30
0.0
  9
$EXTMIN
 10
-116.8177637267133
 20
-8.2095332120190392
 30
-0.0015258207003583
  9
$EXTMAX
 10
22.015777959273919
 20
44.85443144903337
 30
0.0000000349246037
  9
$LIMMIN
 10
0.0
 20
0.0
  9
$LIMMAX
 10
297.0
 20
210.0
  9
$ORTHOMODE
 70
     0
  9
$REGENMODE
 70
     1
  9
$FILLMODE
 70
     1
  9
$QTEXTMODE
 70
     0
  9
$MIRRTEXT
 70
     1
  9
$DRAGMODE
 70
     2
  9
$LTSCALE
 40
10.0
  9
$OSMODE
 70
  3071
  9
$ATTMODE
 70
     1
  9
$TEXTSIZE
 40
3.0
  9
$TRACEWID
 40
1.0
  9
$TEXTSTYLE
  7
YOKO
  9
$CLAYER
  8
240
  9
$CELTYPE
  6
BYLAYER
  9
$CECOLOR
 62
   256
  9
$DIMSCALE
 40
1.0
  9
$DIMASZ
 40
2.2299999999999991
  9
$DIMEXO
 40
0.5
  9
$DIMDLI
 40
7.0
  9
$DIMRND
 40
0.0
  9
$DIMDLE
 40
0.0
  9
$DIMEXE
 40
1.0
  9
$DIMTP
 40
0.0
  9
$DIMTM
 40
0.01
  9
$DIMTXT
 40
2.7999999999999989
  9
$DIMCEN
 40
0.0
  9
$DIMTSZ
 40
0.0
  9
$DIMTOL
 70
     0
  9
$DIMLIM
 70
     0
  9
$DIMTIH
 70
     0
  9
$DIMTOH
 70
     0
  9
$DIMSE1
 70
     0
  9
$DIMSE2
 70
     0
  9
$DIMTAD
 70
     3
  9
$DIMZIN
 70
     9
  9
$DIMBLK
  1
OPEN
  9
$DIMASO
 70
     1
  9
$DIMSHO
 70
     1
  9
$DIMPOST
  1

  9
$DIMAPOST
  1

  9
$DIMALT
 70
     0
  9
$DIMALTD
 70
     2
  9
$DIMALTF
 40
25.399999999999999
  9
$DIMLFAC
 40
1.0
  9
$DIMTOFL
 70
     1
  9
$DIMTVP
 40
0.0
  9
$DIMTIX
 70
     1
  9
$DIMSOXD
 70
     0
  9
$DIMSAH
 70
     0
  9
$DIMBLK1
  1

  9
$DIMBLK2
  1

  9
$DIMSTYLE
  2
BIGT
  9
$DIMCLRD
 70
   256
  9
$DIMCLRE
 70
   256
  9
$DIMCLRT
 70
    40
  9
$DIMTFAC
 40
1.0
  9
$DIMGAP
 40
1.0
  9
$LUNITS
 70
     2
  9
$LUPREC
 70
     3
  9
$SKETCHINC
 40
1.0
  9
$FILLETRAD
 40
0.0
  9
$AUNITS
 70
     0
  9
$AUPREC
 70
     3
  9
$MENU
  1
.
  9
$ELEVATION
 40
0.0
  9
$PELEVATION
 40
0.0
  9
$THICKNESS
 40
0.0
  9
$LIMCHECK
 70
     0
  9
$BLIPMODE
 70
     0
  9
$CHAMFERA
 40
0.25
  9
$CHAMFERB
 40
0.25
  9
$SKPOLY
 70
     0
  9
$TDCREATE
 40
2455735.6899516089
  9
$TDUPDATE
 40
2455735.6961352429
  9
$TDINDWG
 40
0.0061839931
  9
$TDUSRTIMER
 40
0.0061839931
  9
$USRTIMER
 70
     1
  9
$ANGBASE
 50
0.0
  9
$ANGDIR
 70
     0
  9
$PDMODE
 70
     1
  9
$PDSIZE
 40
0.0
  9
$PLINEWID
 40
0.0
  9
$COORDS
 70
     0
  9
$SPLFRAME
 70
     0
  9
$SPLINETYPE
 70
     6
  9
$SPLINESEGS
 70
     4
  9
$ATTDIA
 70
     1
  9
$ATTREQ
 70
     1
  9
$HANDLING
 70
     1
  9
$HANDSEED
  5
1BC2
  9
$SURFTAB1
 70
     6
  9
$SURFTAB2
 70
     6
  9
$SURFTYPE
 70
     6
  9
$SURFU
 70
     6
  9
$SURFV
 70
     6
  9
$UCSNAME
  2

  9
$UCSORG
 10
0.0
 20
0.0
 30
0.0
  9
$UCSXDIR
 10
1.0
 20
0.0
 30
0.0
  9
$UCSYDIR
 10
0.0
 20
1.0
 30
0.0
  9
$PUCSNAME
  2

  9
$PUCSORG
 10
0.0
 20
0.0
 30
0.0
  9
$PUCSXDIR
 10
1.0
 20
0.0
 30
0.0
  9
$PUCSYDIR
 10
0.0
 20
1.0
 30
0.0
  9
$USERI1
 70
     1
  9
$USERI2
 70
     0
  9
$USERI3
 70
     0
  9
$USERI4
 70
     0
  9
$USERI5
 70
     0
  9
$USERR1
 40
0.0
  9
$USERR2
 40
0.0
  9
$USERR3
 40
0.0
  9
$USERR4
 40
0.0
  9
$USERR5
 40
0.0
  9
$WORLDVIEW
 70
     1
  9
$SHADEDGE
 70
     3
  9
$SHADEDIF
 70
    70
  9
$TILEMODE
 70
     1
  9
$MAXACTVP
 70
    16
  9
$PLIMCHECK
 70
     0
  9
$PEXTMIN
 10
1.0000000000000000E+020
 20
1.0000000000000000E+020
 30
1.0000000000000000E+020
  9
$PEXTMAX
 10
-1.0000000000000000E+020
 20
-1.0000000000000000E+020
 30
-1.0000000000000000E+020
  9
$PLIMMIN
 10
0.0
 20
0.0
  9
$PLIMMAX
 10
420.0
 20
297.0
  9
$UNITMODE
 70
     0
  9
$VISRETAIN
 70
     1
  9
$PLINEGEN
 70
     0
  9
$PSLTSCALE
 70
     1
  0
ENDSEC
  0
SECTION
  2
TABLES
  0
TABLE
  2
VPORT
 70
   170
  0
VPORT
  2
*ACTIVE
 70
     0
 10
0.0
 20
0.0
 11
1.0
 21
1.0
 12
-47.400992883719709
 22
18.322449118507159
 13
0.0
 23
0.0
 14
7.0
 24
7.0
 15
7.0
 25
7.0
 16
0.0
 26
0.0
 36
1.0
 17
0.0
 27
0.0
 37
0.0
 40
93.432330186258525
 41
1.4921630094043881
 42
50.0
 43
0.0
 44
0.0
 50
0.0
 51
0.0
 71
     0
 72
  2000
 73
     1
 74
     0
 75
     0
 76
     1
 77
     0
 78
     0
  0
ENDTAB
  0
TABLE
  2
LTYPE
 70
    13
  0
LTYPE
  2
CONTINUOUS
 70
     0
  3
Solid line
 72
    65
 73
     0
 40
0.0
  0
LTYPE
  2
CENTER2
 70
     0
  3
___ _ ___ _ ___ _ ___ _ ___ _ ___ _ ___ _ ___ _
 72
    65
 73
     4
 40
1.125
 49
0.75
 49
-0.125
 49
0.125
 49
-0.125
  0
LTYPE
  2
HIDDEN2
 70
     0
  3
_ _ _ _ _ _ _ _ _ _ _ _ _ _ _ _ _ _ _ _ _ _ _ _
 72
    65
 73
     2
 40
0.1875
 49
0.125
 49
-0.0625
  0
LTYPE
  2
PHANTOM2
 70
     0
  3
___ _ _ ___ _ _ ___ _ _ ___ _ _ ___ _ _ ___ _ _
 72
    65
 73
     6
 40
1.25
 49
0.625
 49
-0.125
 49
0.125
 49
-0.125
 49
0.125
 49
-0.125
  0
LTYPE
  2
CENTER
 70
     0
  3
____ _ ____ _ ____ _ ____ _ ____ _ ____ _ ____ 
 72
    65
 73
     4
 40
2.0
 49
1.25
 49
-0.25
 49
0.25
 49
-0.25
  0
LTYPE
  2
AM_ISO02W050
 70
     0
  3
__ __ __ __ __ __ __ __ __ __ __ __ __ __ __
 72
    65
 73
     2
 40
7.5
 49
6.0
 49
-1.5
  0
LTYPE
  2
AMCONSTR
 70
     0
  3
_______________________
 72
    65
 73
     2
 40
9999.0
 49
9999.0
 49
0.0
  0
LTYPE
  2
ACISOWELD
 70
     0
  3
_ _ _ _ _
 72
    65
 73
     2
 40
2.0
 49
2.0
 49
-1.0
  0
LTYPE
  2
ACISOTGB
 70
     0
  3
__ . . __ . .
 72
    65
 73
     6
 40
9.0
 49
4.0
 49
-1.0
 49
1.0
 49
-1.0
 49
1.0
 49
-1.0
  0
LTYPE
  2
ACISOTGL
 70
     0
  3
_ _ _ _ _
 72
    65
 73
     2
 40
3.0
 49
2.0
 49
-1.0
  0
LTYPE
  2
ACJISTGB
 70
     0
  3
__ . . __ . .
 72
    65
 73
     6
 40
9.0
 49
4.0
 49
-1.0
 49
1.0
 49
-1.0
 49
1.0
 49
-1.0
  0
LTYPE
  2
ACJISTGL
 70
     0
  3
_ _ _ _ _
 72
    65
 73
     2
 40
3.0
 49
2.0
 49
-1.0
  0
LTYPE
  2
HIDDEN
 70
     0
  3
Hidden __ __ __ __ __ __ __ __ __ __ __ __ __ _
 72
    65
 73
     2
 40
9.5249999999999986
 49
6.3499999999999988
 49
-3.1749999999999989
  0
ENDTAB
  0
TABLE
  2
LAYER
 70
    15
  0
LAYER
  2
0
 70
     0
 62
     7
  6
CONTINUOUS
  0
LAYER
  2
DEFPOINTS
 70
     0
 62
     7
  6
CONTINUOUS
  0
LAYER
  2
245
 70
     0
 62
     2
  6
CENTER2
  0
LAYER
  2
240
 70
     0
 62
     4
  6
CONTINUOUS
  0
LAYER
  2
241
 70
     0
 62
   211
  6
CONTINUOUS
  0
LAYER
  2
242
 70
     0
 62
     3
  6
CONTINUOUS
  0
LAYER
  2
243
 70
     0
 62
   211
  6
HIDDEN2
  0
LAYER
  2
244
 70
     0
 62
     3
  6
HIDDEN2
  0
LAYER
  2
246
 70
     0
 62
     3
  6
PHANTOM2
  0
LAYER
  2
247
 70
     0
 62
    60
  6
CONTINUOUS
  0
LAYER
  2
248
 70
     0
 62
    60
  6
HIDDEN2
  0
LAYER
  2
250
 70
     0
 62
     3
  6
CONTINUOUS
  0
LAYER
  2
251
 70
     0
 62
    40
  6
CONTINUOUS
  0
LAYER
  2
AM_5
 70
     0
 62
     3
  6
CONTINUOUS
  0
LAYER
  2
AM_CL
 70
     0
 62
   254
  6
AMCONSTR
  0
ENDTAB
  0
TABLE
  2
STYLE
 70
     6
  0
STYLE
  2
STANDARD
 70
     0
 40
0.0
 41
1.0
 50
0.0
 71
     0
 42
3.0
  3
romans.shx
  4
extfont.shx
  0
STYLE
  2
ACISOTS
 70
     0
 40
1.0
 41
1.0
 50
0.0
 71
     0
 42
3.0
  3
amgdt.shx
  4
extfont.shx
  0
STYLE
  2
ACISOGDT
 70
     0
 40
0.0
 41
1.0
 50
0.0
 71
     0
 42
3.0
  3
amgdt.shx
  4
extfont.shx
  0
STYLE
  2
ACJISTS
 70
     0
 40
1.0
 41
1.0
 50
0.0
 71
     0
 42
3.0
  3
amgdt.shx
  4
extfont.shx
  0
STYLE
  2
ACJISGDT
 70
     0
 40
0.0
 41
1.0
 50
0.0
 71
     0
 42
3.0
  3
amgdt.shx
  4
extfont.shx
  0
STYLE
  2
YOKO
 70
     0
 40
0.0
 41
1.0
 50
0.0
 71
     0
 42
3.0
  3
romans.shx
  4
extfont.shx
  0
ENDTAB
  0
TABLE
  2
VIEW
 70
     0
  0
ENDTAB
  0
TABLE
  2
UCS
 70
     0
  0
ENDTAB
  0
TABLE
  2
APPID
 70
    32
  0
APPID
  2
ACAD
 70
     0
  0
APPID
  2
GLOBAL
 70
     0
  0
APPID
  2
DETAIL
 70
     0
  0
APPID
  2
GRPNAME
 70
     0
  0
APPID
  2
GPARA
 70
     0
  0
APPID
  2
MCAD_NO_VIS
 70
     0
  0
APPID
  2
ACAD_TEMP_GRAPHIC
 70
     0
  0
APPID
  2
ACATTRIBSERVICES
 70
     0
  0
APPID
  2
GENIUS_GENSCREG_15
 70
     0
  0
APPID
  2
GENIUS_GENODEF_13
 70
     0
  0
APPID
  2
GENIUS_GENOBJ-N-SDF_13
 70
     0
  0
APPID
  2
GENIUS_GENREC_14
 70
     0
  0
APPID
  2
GENIUS_GENOBJ-N-REC_13
 70
     0
  0
APPID
  2
GENIUS_GENDIMSH_14
 70
     0
  0
APPID
  2
GENIUS_GENOBJ-N-DIM_13
 70
     0
  0
APPID
  2
GENIUS_GENDIM_13
 70
     0
  0
APPID
  2
GENIUS_GENDTOL_13
 70
     0
  0
APPID
  2
GENIUS_GENOLIS_13
 70
     0
  0
APPID
  2
GENIUS_GENOENT_13
 70
     0
  0
APPID
  2
GENIUS_GENOBJ-F-FEM_13
 70
     0
  0
APPID
  2
GENIUS_GENOREF_13
 70
     0
  0
APPID
  2
GENIUS_GEFFEM_13
 70
     0
  0
APPID
  2
GENIUS_GEFFEMP_13
 70
     0
  0
APPID
  2
AD_DRAW
 70
     0
  0
APPID
  2
DESIGNERASSEMBLIES
 70
     0
  0
APPID
  2
ACADM_DIM_EDIT
 70
     0
  0
APPID
  2
AMDT_DM_ADJ
 70
     0
  0
APPID
  2
ITEMNAME
 70
     0
  0
APPID
  2
GRADE_0
 70
     0
  0
APPID
  2
HATCH_TYPE
 70
     0
  0
APPID
  2
HATCH_DISPLAY
 70
     0
  0
APPID
  2
HATCH_DISTANCE
 70
     0
  0
ENDTAB
  0
TABLE
  2
DIMSTYLE
 70
    25
  0
DIMSTYLE
  2
BIGT
 70
     0
  3

  4

  5
OPEN
  6

  7

 40
1.0
 41
2.2299999999999991
 42
0.5
 43
7.0
 44
1.0
 45
0.0
 46
0.0
 47
0.0
 48
0.01
140
2.7999999999999989
141
0.0
142
0.0
143
25.399999999999999
144
1.0
145
0.0
146
1.0
147
1.0
 71
     0
 72
     0
 73
     0
 74
     0
 75
     0
 76
     0
 77
     3
 78
     9
170
     0
171
     2
172
     1
173
     0
174
     1
175
     0
176
   256
177
   256
178
    40
  0
DIMSTYLE
  2
AM_ISO
 70
     0
  3

  4
"
  5

  6

  7

 40
1.0
 41
2.5
 42
1.0
 43
10.0
 44
1.0
 45
0.0
 46
0.0
 47
0.1
 48
0.1
140
3.5
141
0.0
142
0.0
143
0.0393701
144
1.0
145
0.0
146
0.71
147
1.5
 71
     0
 72
     0
 73
     0
 74
     0
 75
     0
 76
     0
 77
     1
 78
     8
170
     0
171
     2
172
     1
173
     0
174
     0
175
     0
176
   256
177
   256
178
     2
  0
DIMSTYLE
  2
AM_ISO$3
 70
     0
  3

  4
"
  5

  6

  7

 40
1.0
 41
2.5
 42
1.0
 43
10.0
 44
1.0
 45
0.0
 46
0.0
 47
0.1
 48
0.1
140
3.5
141
0.0
142
0.0
143
0.0393701
144
1.0
145
0.0
146
0.71
147
1.5
 71
     0
 72
     0
 73
     0
 74
     1
 75
     0
 76
     0
 77
     1
 78
     8
170
     0
171
     2
172
     0
173
     0
174
     0
175
     0
176
   256
177
   256
178
     2
  0
DIMSTYLE
  2
AM_ISO$4
 70
     0
  3

  4
"
  5

  6

  7

 40
1.0
 41
2.5
 42
1.0
 43
10.0
 44
1.0
 45
0.0
 46
0.0
 47
0.1
 48
0.1
140
3.5
141
0.0
142
0.0
143
0.0393701
144
1.0
145
0.0
146
0.71
147
1.5
 71
     0
 72
     0
 73
     0
 74
     1
 75
     0
 76
     0
 77
     1
 78
     8
170
     0
171
     2
172
     0
173
     0
174
     0
175
     0
176
   256
177
   256
178
     2
  0
DIMSTYLE
  2
AM_ISO$6
 70
     0
  3

  4
"
  5

  6

  7

 40
1.0
 41
2.5
 42
1.0
 43
10.0
 44
1.0
 45
0.0
 46
0.0
 47
0.1
 48
0.1
140
3.5
141
0.0
142
0.0
143
0.0393701
144
1.0
145
0.0
146
0.71
147
1.5
 71
     0
 72
     0
 73
     0
 74
     0
 75
     0
 76
     0
 77
     0
 78
     8
170
     0
171
     2
172
     1
173
     0
174
     0
175
     0
176
   256
177
   256
178
     2
  0
DIMSTYLE
  2
AM_ISO$7
 70
     0
  3

  4
"
  5

  6

  7

 40
1.0
 41
2.5
 42
1.0
 43
10.0
 44
1.0
 45
0.0
 46
0.0
 47
0.1
 48
0.1
140
5.0
141
0.0
142
0.0
143
0.0393701
144
1.0
145
0.0
146
0.71
147
1.5
 71
     0
 72
     0
 73
     0
 74
     0
 75
     0
 76
     0
 77
     1
 78
     8
170
     0
171
     2
172
     1
173
     0
174
     0
175
     0
176
   256
177
   256
178
     2
  0
DIMSTYLE
  2
AM_ISO$SF
 70
     0
  3

  4
"
  5

  6

  7

 40
1.0
 41
2.5
 42
1.0
 43
10.0
 44
1.0
 45
0.0
 46
0.0
 47
0.1
 48
0.1
140
3.5
141
0.0
142
0.0
143
0.0393701
144
1.0
145
0.0
146
0.71
147
1.5
 71
     0
 72
     0
 73
     0
 74
     0
 75
     1
 76
     1
 77
     1
 78
     8
170
     0
171
     2
172
     1
173
     0
174
     0
175
     0
176
   256
177
   256
178
     2
  0
DIMSTYLE
  2
AM_ISO$SH
 70
     0
  3

  4
"
  5

  6
GENAXEH
  7

 40
1.0
 41
2.5
 42
1.0
 43
10.0
 44
1.0
 45
0.0
 46
0.0
 47
0.1
 48
0.1
140
3.5
141
0.0
142
0.0
143
0.0393701
144
2.0
145
0.0
146
0.71
147
1.5
 71
     0
 72
     0
 73
     0
 74
     0
 75
     1
 76
     1
 77
     1
 78
     8
170
     0
171
     2
172
     1
173
     1
174
     0
175
     0
176
   256
177
   256
178
     2
  0
DIMSTYLE
  2
BIGT$2
 70
     0
  3

  4

  5
OPEN
  6

  7

 40
1.0
 41
2.2299999999999991
 42
0.5
 43
7.0
 44
1.0
 45
0.0
 46
0.0
 47
0.0
 48
0.01
140
2.7999999999999989
141
0.0
142
0.0
143
25.399999999999999
144
1.0
145
0.0
146
1.0
147
1.0
 71
     0
 72
     0
 73
     0
 74
     0
 75
     0
 76
     0
 77
     3
 78
     9
170
     0
171
     2
172
     1
173
     0
174
     0
175
     0
176
   256
177
   256
178
    40
  0
DIMSTYLE
  2
BIGT$3
 70
     0
  3

  4

  5
OPEN
  6

  7

 40
1.0
 41
2.2299999999999991
 42
0.5
 43
2.5
 44
1.0
 45
0.0
 46
0.0
 47
0.0
 48
0.01
140
2.7999999999999989
141
0.0
142
0.0
143
25.399999999999999
144
1.0
145
0.0
146
1.0
147
1.0
 71
     0
 72
     0
 73
     0
 74
     0
 75
     0
 76
     0
 77
     3
 78
     9
170
     0
171
     2
172
     1
173
     0
174
     0
175
     0
176
   256
177
   256
178
    40
  0
DIMSTYLE
  2
BIGT$7
 70
     0
  3

  4

  5
OPEN
  6

  7

 40
0.0
 41
2.2299999999999991
 42
0.5
 43
7.0
 44
1.0
 45
0.0
 46
0.0
 47
0.0
 48
0.01
140
2.7999999999999989
141
0.0
142
0.0
143
25.399999999999999
144
1.0
145
0.0
146
1.0
147
1.0
 71
     0
 72
     0
 73
     0
 74
     0
 75
     0
 76
     0
 77
     3
 78
     9
170
     0
171
     2
172
     0
173
     0
174
     0
175
     0
176
   256
177
   256
178
    40
  0
DIMSTYLE
  2
BIGT$6
 70
     0
  3

  4

  5
OPEN
  6

  7

 40
1.0
 41
2.2299999999999991
 42
0.5
 43
2.5
 44
1.0
 45
0.0
 46
0.0
 47
0.0
 48
0.01
140
2.7999999999999989
141
0.0
142
0.0
143
25.399999999999999
144
1.0
145
0.0
146
1.0
147
1.0
 71
     0
 72
     0
 73
     0
 74
     0
 75
     0
 76
     0
 77
     3
 78
     9
170
     0
171
     2
172
     1
173
     0
174
     0
175
     0
176
   256
177
   256
178
    40
  0
DIMSTYLE
  2
BIGT$0
 70
     0
  3

  4

  5
OPEN
  6

  7

 40
1.0
 41
2.2299999999999991
 42
0.5
 43
7.0
 44
1.0
 45
0.0
 46
0.0
 47
0.0
 48
0.01
140
2.7999999999999989
141
0.0
142
0.0
143
25.399999999999999
144
1.0
145
0.0
146
1.0
147
1.0
 71
     0
 72
     0
 73
     0
 74
     0
 75
     0
 76
     0
 77
     3
 78
     9
170
     0
171
     2
172
     1
173
     0
174
     0
175
     0
176
   256
177
   256
178
    40
  0
DIMSTYLE
  2
BIGT$4
 70
     0
  3

  4

  5
OPEN
  6

  7

 40
1.0
 41
2.2299999999999991
 42
0.5
 43
2.5
 44
1.0
 45
0.0
 46
0.0
 47
0.0
 48
0.01
140
2.7999999999999989
141
0.0
142
0.0
143
25.399999999999999
144
1.0
145
0.0
146
1.0
147
1.0
 71
     0
 72
     0
 73
     0
 74
     0
 75
     0
 76
     0
 77
     3
 78
     9
170
     0
171
     2
172
     1
173
     0
174
     0
175
     0
176
   256
177
   256
178
    40
  0
DIMSTYLE
  2
BIGT$SH
 70
     0
  3

  4

  5
OPEN
  6

  7

 40
1.0
 41
2.2299999999999991
 42
0.5
 43
7.0
 44
1.0
 45
0.0
 46
0.0
 47
0.0
 48
0.0
140
2.7999999999999989
141
0.0
142
0.0
143
25.399999999999999
144
1.0
145
0.0
146
1.0
147
1.0
 71
     0
 72
     0
 73
     0
 74
     0
 75
     0
 76
     0
 77
     3
 78
     9
170
     0
171
     2
172
     1
173
     0
174
     0
175
     0
176
   256
177
   256
178
    40
  0
DIMSTYLE
  2
BIGT$SF
 70
     0
  3

  4

  5
OPEN
  6

  7

 40
1.0
 41
2.2299999999999991
 42
0.5
 43
7.0
 44
1.0
 45
0.0
 46
0.0
 47
0.0
 48
0.0
140
2.7999999999999989
141
0.0
142
0.0
143
25.399999999999999
144
1.0
145
0.0
146
1.0
147
1.0
 71
     0
 72
     0
 73
     0
 74
     0
 75
     0
 76
     0
 77
     3
 78
     9
170
     0
171
     2
172
     1
173
     0
174
     0
175
     0
176
   256
177
   256
178
    40
  0
DIMSTYLE
  2
TECHNICAL_OSAKA
 70
     0
  3

  4
"
  5
OPEN30
  6

  7

 40
1.0
 41
2.5
 42
1.0
 43
10.0
 44
1.0
 45
0.0
 46
0.0
 47
0.1
 48
0.1
140
2.7999999999999989
141
0.0
142
0.0
143
0.0393701
144
1.0
145
0.0
146
0.71
147
1.5
 71
     0
 72
     0
 73
     0
 74
     0
 75
     0
 76
     0
 77
     3
 78
     8
170
     0
171
     2
172
     1
173
     0
174
     0
175
     0
176
   256
177
   256
178
    40
  0
DIMSTYLE
  2
TECHNICAL_OSAKA$3
 70
     0
  3

  4
"
  5
OPEN30
  6

  7

 40
1.0
 41
2.5
 42
1.0
 43
10.0
 44
1.0
 45
0.0
 46
0.0
 47
0.1
 48
0.1
140
2.7999999999999989
141
0.0
142
0.0
143
0.0393701
144
1.0
145
0.0
146
0.71
147
1.5
 71
     0
 72
     0
 73
     0
 74
     1
 75
     0
 76
     0
 77
     3
 78
     8
170
     0
171
     2
172
     0
173
     0
174
     0
175
     0
176
   256
177
   256
178
    40
  0
DIMSTYLE
  2
TECHNICAL_OSAKA$4
 70
     0
  3

  4
"
  5
OPEN30
  6

  7

 40
1.0
 41
2.5
 42
1.0
 43
10.0
 44
1.0
 45
0.0
 46
0.0
 47
0.1
 48
0.1
140
2.7999999999999989
141
0.0
142
0.0
143
0.0393701
144
1.0
145
0.0
146
0.71
147
1.5
 71
     0
 72
     0
 73
     0
 74
     1
 75
     0
 76
     0
 77
     3
 78
     8
170
     0
171
     2
172
     0
173
     0
174
     0
175
     0
176
   256
177
   256
178
    40
  0
DIMSTYLE
  2
TECHNICAL_OSAKA$6
 70
     0
  3

  4
"
  5
OPEN30
  6

  7

 40
1.0
 41
2.5
 42
1.0
 43
10.0
 44
1.0
 45
0.0
 46
0.0
 47
0.1
 48
0.1
140
2.7999999999999989
141
0.0
142
0.0
143
0.0393701
144
1.0
145
0.0
146
0.71
147
1.5
 71
     0
 72
     0
 73
     0
 74
     0
 75
     0
 76
     0
 77
     0
 78
     8
170
     0
171
     2
172
     1
173
     0
174
     0
175
     0
176
   256
177
   256
178
    40
  0
DIMSTYLE
  2
TECHNICAL_OSAKA$7
 70
     0
  3

  4
"
  5
OPEN30
  6

  7

 40
1.0
 41
2.5
 42
1.0
 43
10.0
 44
1.0
 45
0.0
 46
0.0
 47
0.1
 48
0.1
140
2.7999999999999989
141
0.0
142
0.0
143
0.0393701
144
1.0
145
0.0
146
0.71
147
1.5
 71
     0
 72
     0
 73
     0
 74
     0
 75
     0
 76
     0
 77
     3
 78
     8
170
     0
171
     2
172
     1
173
     0
174
     0
175
     0
176
   256
177
   256
178
    40
  0
DIMSTYLE
  2
TECHNICAL_OSAKA$SF
 70
     0
  3

  4
"
  5
OPEN30
  6
OPEN30
  7
OPEN30
 40
1.0
 41
2.5
 42
1.0
 43
10.0
 44
1.0
 45
0.0
 46
0.0
 47
0.1
 48
0.1
140
3.5
141
0.0
142
0.0
143
0.0393701
144
1.0
145
0.0
146
0.71
147
1.5
 71
     0
 72
     0
 73
     0
 74
     0
 75
     1
 76
     1
 77
     3
 78
     8
170
     0
171
     2
172
     1
173
     0
174
     0
175
     0
176
   256
177
   256
178
    40
  0
DIMSTYLE
  2
TECHNICAL_OSAKA$SH
 70
     0
  3

  4
"
  5
OPEN30
  6
GENAXEH
  7
OPEN30
 40
1.0
 41
2.5
 42
1.0
 43
10.0
 44
1.0
 45
0.0
 46
0.0
 47
0.1
 48
0.1
140
3.5
141
0.0
142
0.0
143
0.0393701
144
2.0
145
0.0
146
0.71
147
1.5
 71
     0
 72
     0
 73
     0
 74
     0
 75
     1
 76
     1
 77
     3
 78
     8
170
     0
171
     2
172
     1
173
     1
174
     0
175
     0
176
   256
177
   256
178
    40
  0
DIMSTYLE
  2
GRADE
 70
     0
  3

  4

  5

  6

  7

 40
1.0
 41
2.0
 42
2.0
 43
3.75
 44
2.0
 45
0.0
 46
0.0
 47
0.0
 48
0.0
140
4.0
141
0.0
142
0.0
143
25.399999999999999
144
1.0
145
0.0
146
1.0
147
1.0
 71
     0
 72
     0
 73
     0
 74
     0
 75
     0
 76
     0
 77
     3
 78
     8
170
     0
171
     2
172
     1
173
     1
174
     0
175
     0
176
     0
177
     0
178
     0
  0
DIMSTYLE
  2
ISO1
 70
     0
  3

  4

  5

  6

  7

 40
1.0
 41
10.0
 42
2.5
 43
15.0
 44
5.0
 45
0.0
 46
0.0
 47
0.0
 48
0.0
140
10.0
141
10.0
142
0.0
143
0.0394
144
1.0
145
4.0
146
1.0
147
2.5
 71
     0
 72
     0
 73
     1
 74
     0
 75
     0
 76
     0
 77
     1
 78
     8
170
     0
171
     2
172
     1
173
     0
174
     0
175
     0
176
     0
177
     0
178
     0
  0
ENDTAB
  0
ENDSEC
  0
SECTION
  2
BLOCKS
  0
BLOCK
  8
0
  2
$MODEL_SPACE
 70
     0
 10
0.0
 20
0.0
 30
0.0
  3
$MODEL_SPACE
  1

  0
ENDBLK
  5
1C
  8
0
  0
BLOCK
 67
     1
  8
0
  2
$PAPER_SPACE
 70
     0
 10
0.0
 20
0.0
 30
0.0
  3
$PAPER_SPACE
  1

  0
ENDBLK
  5
19
 67
     1
  8
0
  0
BLOCK
  8
0
  2
_OPEN
 70
     0
 10
0.0
 20
0.0
 30
0.0
  3
_OPEN
  1

  0
LINE
  5
595
  8
0
  6
BYBLOCK
 62
     0
 10
-1.0
 20
0.1666666666666666
 30
0.0
 11
0.0
 21
0.0
 31
0.0
  0
LINE
  5
596
  8
0
  6
BYBLOCK
 62
     0
 10
-1.0
 20
-0.1666666666666666
 30
0.0
 11
0.0
 21
0.0
 31
0.0
  0
LINE
  5
597
  8
0
  6
BYBLOCK
 62
     0
 10
0.0
 20
0.0
 30
0.0
 11
-1.0
 21
0.0
 31
0.0
  0
ENDBLK
  5
599
  8
0
  0
BLOCK
  8
0
  2
GENAXEH
 70
     0
 10
0.0
 20
0.0
 30
0.0
  3
GENAXEH
  1

  0
LINE
  5
6E8
  8
0
 10
-1.0
 20
0.0
 30
0.0
 11
1.0
 21
0.0
 31
0.0
  0
ENDBLK
  5
6EA
  8
0
  0
BLOCK
  8
0
  2
_OPEN30
 70
     0
 10
0.0
 20
0.0
 30
0.0
  3
_OPEN30
  1

  0
LINE
  5
E8F
  8
0
  6
BYBLOCK
 62
     0
 10
-1.0
 20
0.26794919
 30
0.0
 11
0.0
 21
0.0
 31
0.0
  0
LINE
  5
E90
  8
0
  6
BYBLOCK
 62
     0
 10
0.0
 20
0.0
 30
0.0
 11
-1.0
 21
-0.26794919
 31
0.0
  0
LINE
  5
E91
  8
0
  6
BYBLOCK
 62
     0
 10
0.0
 20
0.0
 30
0.0
 11
-1.0
 21
0.0
 31
0.0
  0
ENDBLK
  5
E93
  8
0
  0
BLOCK
  8
0
  2
FM00_4
 70
     0
 10
0.0
 20
0.0
 30
0.0
  3
FM00_4
  1

  0
POLYLINE
  5
1352
  8
0
  6
CONTINUOUS
 62
     0
 66
     1
 10
0.0
 20
0.0
 30
0.0
 70
     1
  0
VERTEX
  5
1353
  8
0
  6
CONTINUOUS
 62
     0
 10
-2.0
 20
0.0
 30
0.0
  0
VERTEX
  5
1354
  8
0
  6
CONTINUOUS
 62
     0
 10
-1.5
 20
0.8660254037845334
 30
0.0
  0
VERTEX
  5
1355
  8
0
  6
CONTINUOUS
 62
     0
 10
-2.5
 20
0.8660254037845334
 30
0.0
  0
SEQEND
  5
1356
  8
0
  6
CONTINUOUS
 62
     0
  0
POLYLINE
  5
1357
  8
0
  6
CONTINUOUS
 62
     0
 66
     1
 10
0.0
 20
0.0
 30
0.0
 70
     1
  0
VERTEX
  5
1358
  8
0
  6
CONTINUOUS
 62
     0
 10
0.0
 20
0.0
 30
0.0
  0
VERTEX
  5
1359
  8
0
  6
CONTINUOUS
 62
     0
 10
0.5
 20
0.8660254037845334
 30
0.0
  0
VERTEX
  5
135A
  8
0
  6
CONTINUOUS
 62
     0
 10
-0.5
 20
0.8660254037845334
 30
0.0
  0
SEQEND
  5
135B
  8
0
  6
CONTINUOUS
 62
     0
  0
POLYLINE
  5
135C
  8
0
  6
CONTINUOUS
 62
     0
 66
     1
 10
0.0
 20
0.0
 30
0.0
 70
     1
  0
VERTEX
  5
135D
  8
0
  6
CONTINUOUS
 62
     0
 10
-1.0
 20
0.0
 30
0.0
  0
VERTEX
  5
135E
  8
0
  6
CONTINUOUS
 62
     0
 10
-0.5
 20
0.8660254037845334
 30
0.0
  0
VERTEX
  5
135F
  8
0
  6
CONTINUOUS
 62
     0
 10
-1.5
 20
0.8660254037845334
 30
0.0
  0
SEQEND
  5
1360
  8
0
  6
CONTINUOUS
 62
     0
  0
ENDBLK
  5
1361
  8
0
  0
BLOCK
  8
0
  2
*D5
 70
     1
 10
0.0
 20
0.0
 30
0.0
  3
*D5
  1

  0
LINE
  5
1364
  8
250
  6
CONTINUOUS
 62
     3
 10
33.0
 20
73.75
 30
0.0
 11
33.0
 21
84.500000000000014
 31
0.0
  0
LINE
  5
1365
  8
250
  6
CONTINUOUS
 62
     3
 10
100.9999999999998
 20
70.750000000001279
 30
0.0
 11
100.9999999999998
 21
84.500000000000014
 31
0.0
  0
LINE
  5
1366
  8
250
  6
CONTINUOUS
 62
     3
 10
34.115000000000002
 20
84.0
 30
0.0
 11
99.884999999999863
 21
84.0
 31
0.0
  0
INSERT
  5
1367
  8
250
  6
CONTINUOUS
 62
     3
  2
_OPEN
 10
33.0
 20
84.0
 30
0.0
 41
1.1149999999999991
 42
1.1149999999999991
 43
1.1149999999999991
 50
180.0
  0
INSERT
  5
1368
  8
250
  6
CONTINUOUS
 62
     3
  2
_OPEN
 10
100.9999999999998
 20
84.0
 30
0.0
 41
1.1149999999999991
 42
1.1149999999999991
 43
1.1149999999999991
  0
INSERT
  5
1369
  8
240
  2
*U21
 10
0.0
 20
0.0
 30
0.0
  0
POINT
  5
136A
  8
DEFPOINTS
  6
CONTINUOUS
 62
     0
 10
33.0
 20
73.5
 30
0.0
  0
POINT
  5
136B
  8
DEFPOINTS
  6
CONTINUOUS
 62
     0
 10
100.9999999999998
 20
70.500000000001279
 30
0.0
  0
POINT
  5
136C
  8
DEFPOINTS
  6
CONTINUOUS
 62
     0
 10
100.9999999999998
 20
84.0
 30
0.0
  0
ENDBLK
  5
136D
  8
0
  0
BLOCK
  8
0
  2
*D6
 70
     1
 10
0.0
 20
0.0
 30
0.0
  3
*D6
  1

  0
LINE
  5
1370
  8
250
  6
CONTINUOUS
 62
     3
 10
102.7834936490555
 20
58.375000000000099
 30
0.0
 11
91.603299260517318
 21
51.920111760185272
 31
0.0
  0
ARC
  5
1371
  8
250
  6
CONTINUOUS
 62
     3
 10
103.00000000000161
 20
58.500000000000099
 30
0.0
 40
12.65977647962975
 50
185.0479138065044
 51
204.9520861934954
  0
INSERT
  5
1372
  8
250
  6
CONTINUOUS
 62
     3
  2
_OPEN
 10
90.340223520371893
 20
58.500000000000078
 30
0.0
 41
1.1149999999999991
 42
1.1149999999999991
 43
1.1149999999999991
 50
92.523956903252284
  0
INSERT
  5
1373
  8
250
  6
CONTINUOUS
 62
     3
  2
_OPEN
 10
92.036311962409528
 20
52.170111760185272
 30
0.0
 41
1.1149999999999991
 42
1.1149999999999991
 43
1.1149999999999991
 50
297.47604309674762
  0
INSERT
  5
1374
  8
240
  2
*U22
 10
0.0
 20
0.0
 30
0.0
  0
POINT
  5
1375
  8
DEFPOINTS
  6
CONTINUOUS
 62
     0
 10
90.532553971460686
 20
56.301652884641733
 30
0.0
  0
POINT
  5
1376
  8
DEFPOINTS
  6
CONTINUOUS
 62
     0
 10
34.000000000000007
 20
58.500000000000007
 30
0.0
  0
POINT
  5
1377
  8
DEFPOINTS
  6
CONTINUOUS
 62
     0
 10
103.2320508075705
 20
58.633974596215651
 30
0.0
  0
POINT
  5
1378
  8
DEFPOINTS
  6
CONTINUOUS
 62
     0
 10
106.0000000000003
 20
60.232050807568221
 30
0.0
  0
POINT
  5
1379
  8
DEFPOINTS
  6
CONTINUOUS
 62
     0
 10
102.7320508075705
 20
58.500000000000099
 30
0.0
  0
ENDBLK
  5
137A
  8
0
  0
BLOCK
  8
0
  2
*D7
 70
     1
 10
0.0
 20
0.0
 30
0.0
  3
*D7
  1

  0
LINE
  5
137D
  8
250
  6
CONTINUOUS
 62
     3
 10
117.2887287074271
 20
61.39999999999997
 30
0.0
 11
117.0
 21
61.39999999999997
 31
0.0
  0
LINE
  5
137E
  8
250
  6
CONTINUOUS
 62
     3
 10
117.73572136236641
 20
71.600000000000023
 30
0.0
 11
118.0
 21
71.600000000000023
 31
0.0
  0
LINE
  5
137F
  8
250
  6
CONTINUOUS
 62
     3
 10
117.5
 20
62.514999999999979
 30
0.0
 11
117.5
 21
70.485000000000028
 31
0.0
  0
LINE
  5
1380
  8
250
  6
CONTINUOUS
 62
     3
 10
117.5
 20
71.600000000000023
 30
0.0
 11
117.5
 21
84.137857142857172
 31
0.0
  0
INSERT
  5
1381
  8
250
  6
CONTINUOUS
 62
     3
  2
_OPEN
 10
117.5
 20
61.39999999999997
 30
0.0
 41
1.1149999999999991
 42
1.1149999999999991
 43
1.1149999999999991
 50
270.0
  0
INSERT
  5
1382
  8
250
  6
CONTINUOUS
 62
     3
  2
_OPEN
 10
117.5
 20
71.600000000000023
 30
0.0
 41
1.1149999999999991
 42
1.1149999999999991
 43
1.1149999999999991
 50
90.0
  0
INSERT
  5
1383
  8
240
  2
*U23
 10
0.0
 20
0.0
 30
0.0
  0
POINT
  5
1384
  8
DEFPOINTS
  6
CONTINUOUS
 62
     0
 10
117.5387287074271
 20
61.39999999999997
 30
0.0
  0
POINT
  5
1385
  8
DEFPOINTS
  6
CONTINUOUS
 62
     0
 10
117.48572136236641
 20
71.600000000000023
 30
0.0
  0
POINT
  5
1386
  8
DEFPOINTS
  6
CONTINUOUS
 62
     0
 10
117.5
 20
71.600000000000023
 30
0.0
  0
ENDBLK
  5
1387
  8
0
  0
BLOCK
  8
0
  2
*D8
 70
     1
 10
0.0
 20
0.0
 30
0.0
  3
*D8
  1

  0
LINE
  5
138A
  8
250
  6
CONTINUOUS
 62
     3
 10
135.0
 20
75.285702604828316
 30
0.0
 11
135.0
 21
84.500000000000014
 31
0.0
  0
LINE
  5
138B
  8
250
  6
CONTINUOUS
 62
     3
 10
144.99999999999969
 20
75.300000000000011
 30
0.0
 11
144.99999999999969
 21
84.500000000000014
 31
0.0
  0
LINE
  5
138C
  8
250
  6
CONTINUOUS
 62
     3
 10
136.11500000000001
 20
84.0
 30
0.0
 11
143.88499999999971
 21
84.0
 31
0.0
  0
INSERT
  5
138D
  8
250
  6
CONTINUOUS
 62
     3
  2
_OPEN
 10
135.0
 20
84.0
 30
0.0
 41
1.1149999999999991
 42
1.1149999999999991
 43
1.1149999999999991
 50
180.0
  0
INSERT
  5
138E
  8
250
  6
CONTINUOUS
 62
     3
  2
_OPEN
 10
144.99999999999969
 20
84.0
 30
0.0
 41
1.1149999999999991
 42
1.1149999999999991
 43
1.1149999999999991
  0
INSERT
  5
138F
  8
240
  2
*U24
 10
0.0
 20
0.0
 30
0.0
  0
POINT
  5
1390
  8
DEFPOINTS
  6
CONTINUOUS
 62
     0
 10
135.0
 20
75.035702604828316
 30
0.0
  0
POINT
  5
1391
  8
DEFPOINTS
  6
CONTINUOUS
 62
     0
 10
144.99999999999969
 20
75.050000000000011
 30
0.0
  0
POINT
  5
1392
  8
DEFPOINTS
  6
CONTINUOUS
 62
     0
 10
144.99999999999969
 20
84.0
 30
0.0
  0
ENDBLK
  5
1393
  8
0
  0
BLOCK
  8
0
  2
*D10
 70
     1
 10
0.0
 20
0.0
 30
0.0
  3
*D10
  1

  0
LINE
  5
14FD
  8
250
  6
CONTINUOUS
 10
-101.9999999999999
 20
7.25
 30
0.0
 11
-101.9999999999999
 21
18.0
 31
0.0
  0
LINE
  5
14FE
  8
250
  6
CONTINUOUS
 10
-34.000000000000092
 20
4.2500000000012781
 30
0.0
 11
-34.000000000000092
 21
18.0
 31
0.0
  0
LINE
  5
14FF
  8
250
  6
CONTINUOUS
 10
-100.88499999999991
 20
17.5
 30
0.0
 11
-35.115000000000087
 21
17.5
 31
0.0
  0
INSERT
  5
1500
  8
250
  6
CONTINUOUS
  2
_OPEN
 10
-101.9999999999999
 20
17.5
 30
0.0
 41
1.1149999999999991
 42
1.1149999999999991
 43
1.1149999999999991
 50
180.0
  0
INSERT
  5
1501
  8
250
  6
CONTINUOUS
  2
_OPEN
 10
-34.000000000000092
 20
17.5
 30
0.0
 41
1.1149999999999991
 42
1.1149999999999991
 43
1.1149999999999991
  0
INSERT
  5
1502
  8
240
  2
*U47
 10
0.0
 20
0.0
 30
0.0
  0
POINT
  5
1503
  8
DEFPOINTS
  6
CONTINUOUS
 62
     0
 10
-101.9999999999999
 20
7.0
 30
0.0
  0
POINT
  5
1504
  8
DEFPOINTS
  6
CONTINUOUS
 62
     0
 10
-34.000000000000092
 20
4.0000000000012781
 30
0.0
  0
POINT
  5
1505
  8
DEFPOINTS
  6
CONTINUOUS
 62
     0
 10
-34.000000000000092
 20
17.5
 30
0.0
  0
ENDBLK
  5
1524
  8
0
  0
BLOCK
  8
0
  2
*D11
 70
     1
 10
0.0
 20
0.0
 30
0.0
  3
*D11
  1

  0
LINE
  5
1506
  8
250
  6
CONTINUOUS
 10
-32.2165063509444
 20
-8.1249999999999112
 30
0.0
 11
-43.396700739482611
 21
-14.57988823981475
 31
0.0
  0
ARC
  5
1507
  8
250
  6
CONTINUOUS
 10
-31.999999999998291
 20
-7.9999999999999121
 30
0.0
 40
12.659776479629731
 50
185.0479138065044
 51
204.95208619349549
  0
INSERT
  5
1508
  8
250
  6
CONTINUOUS
  2
_OPEN
 10
-44.659776479628029
 20
-7.9999999999999201
 30
0.0
 41
1.1149999999999991
 42
1.1149999999999991
 43
1.1149999999999991
 50
92.523956903252241
  0
INSERT
  5
1509
  8
250
  6
CONTINUOUS
  2
_OPEN
 10
-42.963688037590387
 20
-14.32988823981475
 30
0.0
 41
1.1149999999999991
 42
1.1149999999999991
 43
1.1149999999999991
 50
297.47604309674767
  0
INSERT
  5
150A
  8
240
  2
*U48
 10
0.0
 20
0.0
 30
0.0
  0
POINT
  5
150B
  8
DEFPOINTS
  6
CONTINUOUS
 62
     0
 10
-44.467446028539243
 20
-10.198347115358279
 30
0.0
  0
POINT
  5
150C
  8
DEFPOINTS
  6
CONTINUOUS
 62
     0
 10
-100.9999999999999
 20
-8.0
 30
0.0
  0
POINT
  5
150D
  8
DEFPOINTS
  6
CONTINUOUS
 62
     0
 10
-31.767949192429409
 20
-7.866025403784354
 30
0.0
  0
POINT
  5
150E
  8
DEFPOINTS
  6
CONTINUOUS
 62
     0
 10
-28.999999999999581
 20
-6.2679491924317849
 30
0.0
  0
POINT
  5
150F
  8
DEFPOINTS
  6
CONTINUOUS
 62
     0
 10
-32.267949192429413
 20
-7.9999999999999156
 30
0.0
  0
ENDBLK
  5
1526
  8
0
  0
BLOCK
  8
0
  2
*D12
 70
     1
 10
0.0
 20
0.0
 30
0.0
  3
*D12
  1

  0
LINE
  5
1510
  8
250
  6
CONTINUOUS
 10
-17.7112712925728
 20
-5.1000000000000218
 30
0.0
 11
-17.99999999999994
 21
-5.1000000000000218
 31
0.0
  0
LINE
  5
1511
  8
250
  6
CONTINUOUS
 10
-17.264278637633481
 20
5.1000000000000218
 30
0.0
 11
-16.99999999999994
 21
5.1000000000000218
 31
0.0
  0
LINE
  5
1512
  8
250
  6
CONTINUOUS
 10
-17.49999999999994
 20
-3.9850000000000221
 30
0.0
 11
-17.49999999999994
 21
3.9850000000000221
 31
0.0
  0
LINE
  5
1513
  8
250
  6
CONTINUOUS
 10
-17.49999999999994
 20
5.1000000000000218
 30
0.0
 11
-17.49999999999994
 21
17.304523809523829
 31
0.0
  0
INSERT
  5
1514
  8
250
  6
CONTINUOUS
  2
_OPEN
 10
-17.49999999999994
 20
-5.1000000000000218
 30
0.0
 41
1.1149999999999991
 42
1.1149999999999991
 43
1.1149999999999991
 50
270.0
  0
INSERT
  5
1515
  8
250
  6
CONTINUOUS
  2
_OPEN
 10
-17.49999999999994
 20
5.1000000000000218
 30
0.0
 41
1.1149999999999991
 42
1.1149999999999991
 43
1.1149999999999991
 50
90.0
  0
INSERT
  5
1516
  8
240
  2
*U49
 10
0.0
 20
0.0
 30
0.0
  0
POINT
  5
1517
  8
DEFPOINTS
  6
CONTINUOUS
 62
     0
 10
-17.4612712925728
 20
-5.1000000000000218
 30
0.0
  0
POINT
  5
1518
  8
DEFPOINTS
  6
CONTINUOUS
 62
     0
 10
-17.514278637633481
 20
5.1000000000000218
 30
0.0
  0
POINT
  5
1519
  8
DEFPOINTS
  6
CONTINUOUS
 62
     0
 10
-17.49999999999994
 20
5.1000000000000218
 30
0.0
  0
ENDBLK
  5
1528
  8
0
  0
BLOCK
  8
0
  2
*D13
 70
     1
 10
0.0
 20
0.0
 30
0.0
  3
*D13
  1

  0
LINE
  5
151A
  8
250
  6
CONTINUOUS
 10
0.0000000000000569
 20
8.7857026048283142
 30
0.0
 11
0.0000000000000574
 21
18.0
 31
0.0
  0
LINE
  5
151B
  8
250
  6
CONTINUOUS
 10
9.9999999999998295
 20
8.8000000000000114
 30
0.0
 11
9.9999999999998295
 21
18.0
 31
0.0
  0
LINE
  5
151C
  8
250
  6
CONTINUOUS
 10
1.1150000000000571
 20
17.5
 30
0.0
 11
8.8849999999998293
 21
17.5
 31
0.0
  0
INSERT
  5
151D
  8
250
  6
CONTINUOUS
  2
_OPEN
 10
0.0000000000000574
 20
17.5
 30
0.0
 41
1.1149999999999991
 42
1.1149999999999991
 43
1.1149999999999991
 50
180.0
  0
INSERT
  5
151E
  8
250
  6
CONTINUOUS
  2
_OPEN
 10
9.9999999999998295
 20
17.5
 30
0.0
 41
1.1149999999999991
 42
1.1149999999999991
 43
1.1149999999999991
  0
INSERT
  5
151F
  8
240
  2
*U50
 10
0.0
 20
0.0
 30
0.0
  0
POINT
  5
1520
  8
DEFPOINTS
  6
CONTINUOUS
 62
     0
 10
0.0000000000000568
 20
8.5357026048283142
 30
0.0
  0
POINT
  5
1521
  8
DEFPOINTS
  6
CONTINUOUS
 62
     0
 10
9.9999999999998295
 20
8.5500000000000114
 30
0.0
  0
POINT
  5
1522
  8
DEFPOINTS
  6
CONTINUOUS
 62
     0
 10
9.9999999999998295
 20
17.5
 30
0.0
  0
ENDBLK
  5
152A
  8
0
  0
BLOCK
  8
0
  2
*D15
 70
     1
 10
0.0
 20
0.0
 30
0.0
  3
*D15
  1

  0
LINE
  5
16CF
  8
AM_5
 10
-101.4999999999999
 20
7.9999999999999991
 30
0.0
 11
-113.9999999999999
 21
8.0000000000000036
 31
0.0
  0
LINE
  5
16D0
  8
AM_5
 10
-101.4999999999999
 20
-8.0
 30
0.0
 11
-113.9999999999999
 21
-7.9999999999999982
 31
0.0
  0
LINE
  5
16D1
  8
AM_5
 10
-112.9999999999999
 20
5.7700000000000031
 30
0.0
 11
-112.9999999999999
 21
-5.7699999999999969
 31
0.0
  0
INSERT
  5
16D2
  8
AM_5
  2
_OPEN
 10
-112.9999999999999
 20
8.0000000000000036
 30
0.0
 41
2.2299999999999991
 42
2.2299999999999991
 43
2.2299999999999991
 50
90.0
  0
INSERT
  5
16D3
  8
AM_5
  2
_OPEN
 10
-112.9999999999999
 20
-7.9999999999999982
 30
0.0
 41
2.2299999999999991
 42
2.2299999999999991
 43
2.2299999999999991
 50
270.0
  0
INSERT
  5
16D4
  8
240
  2
*U51
 10
0.0
 20
0.0
 30
0.0
  0
POINT
  5
16D5
  8
DEFPOINTS
 62
     0
 10
-100.9999999999999
 20
7.9999999999999991
 30
0.0
  0
POINT
  5
16D6
  8
DEFPOINTS
 62
     0
 10
-100.9999999999999
 20
-8.0
 30
0.0
  0
POINT
  5
16D7
  8
DEFPOINTS
 62
     0
 10
-112.9999999999999
 20
-7.9999999999999982
 30
0.0
  0
ENDBLK
  5
16DC
  8
0
  0
BLOCK
  8
0
  2
*D16
 70
     1
 10
0.0
 20
0.0
 30
0.0
  3
*D16
  1

  0
LINE
  5
17D5
  8
AM_5
 10
-101.9999999999999
 20
7.5
 30
0.0
 11
-101.9999999999999
 21
29.0
 31
0.0
  0
LINE
  5
17D6
  8
AM_5
 10
10.000000000000171
 20
8.8999999999985278
 30
0.0
 11
10.000000000000171
 21
29.0
 31
0.0
  0
LINE
  5
17D7
  8
AM_5
 10
-99.769999999999939
 20
28.0
 30
0.0
 11
7.770000000000171
 21
28.0
 31
0.0
  0
INSERT
  5
17D8
  8
AM_5
  2
_OPEN
 10
-101.9999999999999
 20
28.0
 30
0.0
 41
2.2299999999999991
 42
2.2299999999999991
 43
2.2299999999999991
 50
180.0
  0
INSERT
  5
17D9
  8
AM_5
  2
_OPEN
 10
10.000000000000171
 20
28.0
 30
0.0
 41
2.2299999999999991
 42
2.2299999999999991
 43
2.2299999999999991
  0
INSERT
  5
17DA
  8
240
  2
*U53
 10
0.0
 20
0.0
 30
0.0
  0
POINT
  5
17DB
  8
DEFPOINTS
 62
     0
 10
-101.9999999999999
 20
7.0
 30
0.0
  0
POINT
  5
17DC
  8
DEFPOINTS
 62
     0
 10
10.000000000000171
 20
8.3999999999985278
 30
0.0
  0
POINT
  5
17DD
  8
DEFPOINTS
 62
     0
 10
10.000000000000171
 20
28.0
 30
0.0
  0
ENDBLK
  5
1704
  8
0
  0
BLOCK
  8
0
  2
*D17
 70
     1
 10
0.0
 20
0.0
 30
0.0
  3
*D17
  1

  0
LINE
  5
17DE
  8
AM_5
 10
10.000000000000171
 20
8.8999999999985278
 30
0.0
 11
10.000000000000171
 21
22.0
 31
0.0
  0
LINE
  5
17DF
  8
AM_5
 10
0.0000000000000569
 20
9.0500000000002405
 30
0.0
 11
0.0000000000000577
 21
22.0
 31
0.0
  0
LINE
  5
17E0
  8
AM_5
 10
7.7700000000001701
 20
21.0
 30
0.0
 11
2.2300000000000568
 21
21.0
 31
0.0
  0
INSERT
  5
17E1
  8
AM_5
  2
_OPEN
 10
10.000000000000171
 20
21.0
 30
0.0
 41
2.2299999999999991
 42
2.2299999999999991
 43
2.2299999999999991
  0
INSERT
  5
17E2
  8
AM_5
  2
_OPEN
 10
0.0000000000000576
 20
21.0
 30
0.0
 41
2.2299999999999991
 42
2.2299999999999991
 43
2.2299999999999991
 50
180.0
  0
INSERT
  5
17E3
  8
240
  2
*U54
 10
0.0
 20
0.0
 30
0.0
  0
POINT
  5
17E4
  8
DEFPOINTS
 62
     0
 10
10.000000000000171
 20
8.3999999999985278
 30
0.0
  0
POINT
  5
17E5
  8
DEFPOINTS
 62
     0
 10
0.0000000000000568
 20
8.5500000000002405
 30
0.0
  0
POINT
  5
17E6
  8
DEFPOINTS
 62
     0
 10
0.0000000000000576
 20
21.0
 30
0.0
  0
ENDBLK
  5
172C
  8
0
  0
BLOCK
  8
0
  2
*D18
 70
     1
 10
0.0
 20
0.0
 30
0.0
  3
*D18
  1

  0
LINE
  5
17E7
  8
AM_5
 10
-25.000000000000011
 20
5.6000000000000476
 30
0.0
 11
-25.000000000000011
 21
22.0
 31
0.0
  0
LINE
  5
17E8
  8
AM_5
 10
0.0000000000000569
 20
9.0500000000002352
 30
0.0
 11
0.0000000000000577
 21
22.0
 31
0.0
  0
LINE
  5
17E9
  8
AM_5
 10
-22.77000000000001
 20
21.0
 30
0.0
 11
-2.2299999999999418
 21
21.0
 31
0.0
  0
INSERT
  5
17EA
  8
AM_5
  2
_OPEN
 10
-25.000000000000011
 20
21.0
 30
0.0
 41
2.2299999999999991
 42
2.2299999999999991
 43
2.2299999999999991
 50
180.0
  0
INSERT
  5
17EB
  8
AM_5
  2
_OPEN
 10
0.0000000000000576
 20
21.0
 30
0.0
 41
2.2299999999999991
 42
2.2299999999999991
 43
2.2299999999999991
  0
INSERT
  5
17EC
  8
240
  2
*U55
 10
0.0
 20
0.0
 30
0.0
  0
POINT
  5
17ED
  8
DEFPOINTS
 62
     0
 10
-25.000000000000011
 20
5.1000000000000476
 30
0.0
  0
POINT
  5
17EE
  8
DEFPOINTS
 62
     0
 10
0.0000000000000568
 20
8.5500000000002352
 30
0.0
  0
POINT
  5
17EF
  8
DEFPOINTS
 62
     0
 10
0.0000000000000576
 20
21.0
 30
0.0
  0
ENDBLK
  5
177E
  8
0
  0
BLOCK
  8
0
  2
*D19
 70
     1
 10
0.0
 20
0.0
 30
0.0
  3
*D19
  1

  0
LINE
  5
17A6
  8
AM_5
 10
5.3000000000000114
 20
8.749999999999968
 30
0.0
 11
22.000000000000011
 21
8.7499999999999627
 31
0.0
  0
LINE
  5
17A7
  8
AM_5
 10
21.0
 20
6.5199999999999632
 30
0.0
 11
21.0
 21
-6.5333333333333359
 31
0.0
  0
INSERT
  5
17A8
  8
AM_5
  2
_OPEN
 10
21.0
 20
8.7499999999999627
 30
0.0
 41
2.2299999999999991
 42
2.2299999999999991
 43
2.2299999999999991
 50
90.0
  0
INSERT
  5
17A9
  8
240
  2
*U52
 10
0.0
 20
0.0
 30
0.0
  0
POINT
  5
17AA
  8
DEFPOINTS
 62
     0
 10
4.8000000000000114
 20
-8.749999999999968
 30
0.0
  0
POINT
  5
17AB
  8
DEFPOINTS
 62
     0
 10
4.8000000000000114
 20
8.749999999999968
 30
0.0
  0
POINT
  5
17AC
  8
DEFPOINTS
 62
     0
 10
21.0
 20
8.7499999999999627
 30
0.0
  0
ENDBLK
  5
17A5
  8
0
  0
BLOCK
  8
0
  2
A$C5A386197
 70
     0
 10
0.0
 20
0.0
 30
0.0
  3
A$C5A386197
  1

  0
LINE
  5
1839
  8
243
 10
-100.9999999999999
 20
-3.9999999999999432
 30
0.0
 11
-33.999999999999147
 21
-3.9999999999999432
 31
0.0
  0
LINE
  5
183A
  8
243
 10
-100.9999999999999
 20
4.0
 30
0.0
 11
-33.999999999999893
 21
4.0
 31
0.0
  0
LINE
  5
183B
  8
240
 10
-100.9999999999999
 20
8.0
 30
0.0
 11
-32.26794919243094
 21
8.0000000000000853
 31
0.0
  0
LINE
  5
183C
  8
240
 10
-100.9999999999999
 20
-8.0
 30
0.0
 11
-32.267949192429413
 21
-7.9999999999999138
 31
0.0
  0
LINE
  5
183D
  8
245
 10
-103.9999999999999
 20
0.0
 30
0.0
 11
12.00000000000062
 21
0.0
 31
0.0
  0
LINE
  5
183E
  8
240
 10
-101.9999999999999
 20
0.0
 30
0.0
 11
-101.9999999999999
 21
7.0
 31
0.0
  0
ARC
  5
183F
  8
240
 10
-100.9999999999999
 20
-7.0
 30
0.0
 40
1.0
 50
180.0
 51
270.0
  0
LINE
  5
1840
  8
240
 10
-101.9999999999999
 20
0.0
 30
0.0
 11
-101.9999999999999
 21
-7.0
 31
0.0
  0
ARC
  5
1841
  8
243
 10
-100.9999999999999
 20
-4.9999999999999432
 30
0.0
 40
1.0
 50
90.0
 51
180.0
  0
ARC
  5
1842
  8
243
 10
-100.9999999999999
 20
5.0
 30
0.0
 40
1.0
 50
180.0
 51
270.0
  0
ARC
  5
1843
  8
240
 10
-100.9999999999999
 20
7.0
 30
0.0
 40
1.0
 50
90.0
 51
180.0
  0
LINE
  5
1844
  8
241
 10
-25.99999999999957
 20
1.800000000000068
 30
0.0
 11
-4.2295884069235106
 21
1.800000000000068
 31
0.0
  0
LINE
  5
1845
  8
240
 10
9.6999999999996191
 20
-1.499999999999829
 30
0.0
 11
-25.999999999999829
 21
-1.499999999999829
 31
0.0
  0
LINE
  5
1846
  8
240
 10
-26.17320508075662
 20
5.1000000000000512
 30
0.0
 11
-0.2499999999999432
 21
5.0999999999999943
 31
0.0
  0
LINE
  5
1847
  8
241
 10
-36.999999999999851
 20
3.8729833462074899
 30
0.0
 11
-31.99999999999994
 21
3.8729833462074899
 31
0.0
  0
LINE
  5
1848
  8
241
 10
-36.999999999999851
 20
-3.8729833462074619
 30
0.0
 11
-31.99999999999994
 21
-3.8729833462074619
 31
0.0
  0
LINE
  5
1849
  8
242
 10
-36.999999999999851
 20
-3.8729833462074619
 30
0.0
 11
-31.999999999999719
 21
3.8729833462078309
 31
0.0
  0
LINE
  5
184A
  8
242
 10
-36.999999999999851
 20
3.8729833462074899
 30
0.0
 11
-31.99999999999994
 21
-3.8729833462074619
 31
0.0
  0
LINE
  5
184B
  8
241
 10
-36.999999999999851
 20
-3.8729833462074619
 30
0.0
 11
-36.999999999999851
 21
3.8729833462074899
 31
0.0
  0
POLYLINE
  8
241
  5
19FC
  66
     1
 10
0.000000
 20
0.000000
 30
0.000000
  70
     8
  0
VERTEX
  8
241
  5
19FD
 10
-32.0000
 20
3.87298
 30
0.000000
  70
    32
  0
VERTEX
  8
241
  5
19FE
 10
-31.9673
 20
3.82427
 30
0.000000
  70
    32
  0
VERTEX
  8
241
  5
19FF
 10
-31.9347
 20
3.77555
 30
0.000000
  70
    32
  0
VERTEX
  8
241
  5
1A00
 10
-31.9020
 20
3.72683
 30
0.000000
  70
    32
  0
VERTEX
  8
241
  5
1A01
 10
-31.8694
 20
3.67812
 30
0.000000
  70
    32
  0
VERTEX
  8
241
  5
1A02
 10
-31.8368
 20
3.62940
 30
0.000000
  70
    32
  0
VERTEX
  8
241
  5
1A03
 10
-31.8043
 20
3.58068
 30
0.000000
  70
    32
  0
VERTEX
  8
241
  5
1A04
 10
-31.7718
 20
3.53197
 30
0.000000
  70
    32
  0
VERTEX
  8
241
  5
1A05
 10
-31.7394
 20
3.48325
 30
0.000000
  70
    32
  0
VERTEX
  8
241
  5
1A06
 10
-31.7071
 20
3.43453
 30
0.000000
  70
    32
  0
VERTEX
  8
241
  5
1A07
 10
-31.6749
 20
3.38582
 30
0.000000
  70
    32
  0
VERTEX
  8
241
  5
1A08
 10
-31.6428
 20
3.33710
 30
0.000000
  70
    32
  0
VERTEX
  8
241
  5
1A09
 10
-31.6108
 20
3.28838
 30
0.000000
  70
    32
  0
VERTEX
  8
241
  5
1A0A
 10
-31.5789
 20
3.23967
 30
0.000000
  70
    32
  0
VERTEX
  8
241
  5
1A0B
 10
-31.5472
 20
3.19095
 30
0.000000
  70
    32
  0
VERTEX
  8
241
  5
1A0C
 10
-31.5156
 20
3.14223
 30
0.000000
  70
    32
  0
VERTEX
  8
241
  5
1A0D
 10
-31.4842
 20
3.09351
 30
0.000000
  70
    32
  0
VERTEX
  8
241
  5
1A0E
 10
-31.4529
 20
3.04480
 30
0.000000
  70
    32
  0
VERTEX
  8
241
  5
1A0F
 10
-31.4218
 20
2.99608
 30
0.000000
  70
    32
  0
VERTEX
  8
241
  5
1A10
 10
-31.3909
 20
2.94736
 30
0.000000
  70
    32
  0
VERTEX
  8
241
  5
1A11
 10
-31.3602
 20
2.89865
 30
0.000000
  70
    32
  0
VERTEX
  8
241
  5
1A12
 10
-31.3297
 20
2.84993
 30
0.000000
  70
    32
  0
VERTEX
  8
241
  5
1A13
 10
-31.2994
 20
2.80121
 30
0.000000
  70
    32
  0
VERTEX
  8
241
  5
1A14
 10
-31.2693
 20
2.75250
 30
0.000000
  70
    32
  0
VERTEX
  8
241
  5
1A15
 10
-31.2395
 20
2.70378
 30
0.000000
  70
    32
  0
VERTEX
  8
241
  5
1A16
 10
-31.2099
 20
2.65506
 30
0.000000
  70
    32
  0
VERTEX
  8
241
  5
1A17
 10
-31.1806
 20
2.60635
 30
0.000000
  70
    32
  0
VERTEX
  8
241
  5
1A18
 10
-31.1516
 20
2.55763
 30
0.000000
  70
    32
  0
VERTEX
  8
241
  5
1A19
 10
-31.1228
 20
2.50891
 30
0.000000
  70
    32
  0
VERTEX
  8
241
  5
1A1A
 10
-31.0943
 20
2.46020
 30
0.000000
  70
    32
  0
VERTEX
  8
241
  5
1A1B
 10
-31.0661
 20
2.41148
 30
0.000000
  70
    32
  0
VERTEX
  8
241
  5
1A1C
 10
-31.0383
 20
2.36276
 30
0.000000
  70
    32
  0
VERTEX
  8
241
  5
1A1D
 10
-31.0107
 20
2.31405
 30
0.000000
  70
    32
  0
VERTEX
  8
241
  5
1A1E
 10
-30.9835
 20
2.26533
 30
0.000000
  70
    32
  0
VERTEX
  8
241
  5
1A1F
 10
-30.9566
 20
2.21661
 30
0.000000
  70
    32
  0
VERTEX
  8
241
  5
1A20
 10
-30.9301
 20
2.16790
 30
0.000000
  70
    32
  0
VERTEX
  8
241
  5
1A21
 10
-30.9039
 20
2.11918
 30
0.000000
  70
    32
  0
VERTEX
  8
241
  5
1A22
 10
-30.8781
 20
2.07046
 30
0.000000
  70
    32
  0
VERTEX
  8
241
  5
1A23
 10
-30.8527
 20
2.02175
 30
0.000000
  70
    32
  0
VERTEX
  8
241
  5
1A24
 10
-30.8277
 20
1.97303
 30
0.000000
  70
    32
  0
VERTEX
  8
241
  5
1A25
 10
-30.8031
 20
1.92431
 30
0.000000
  70
    32
  0
VERTEX
  8
241
  5
1A26
 10
-30.7789
 20
1.87560
 30
0.000000
  70
    32
  0
VERTEX
  8
241
  5
1A27
 10
-30.7551
 20
1.82688
 30
0.000000
  70
    32
  0
VERTEX
  8
241
  5
1A28
 10
-30.7318
 20
1.77816
 30
0.000000
  70
    32
  0
VERTEX
  8
241
  5
1A29
 10
-30.7089
 20
1.72945
 30
0.000000
  70
    32
  0
VERTEX
  8
241
  5
1A2A
 10
-30.6865
 20
1.68073
 30
0.000000
  70
    32
  0
VERTEX
  8
241
  5
1A2B
 10
-30.6645
 20
1.63201
 30
0.000000
  70
    32
  0
VERTEX
  8
241
  5
1A2C
 10
-30.6430
 20
1.58330
 30
0.000000
  70
    32
  0
VERTEX
  8
241
  5
1A2D
 10
-30.6220
 20
1.53458
 30
0.000000
  70
    32
  0
VERTEX
  8
241
  5
1A2E
 10
-30.6014
 20
1.48586
 30
0.000000
  70
    32
  0
VERTEX
  8
241
  5
1A2F
 10
-30.5814
 20
1.43714
 30
0.000000
  70
    32
  0
VERTEX
  8
241
  5
1A30
 10
-30.5619
 20
1.38843
 30
0.000000
  70
    32
  0
VERTEX
  8
241
  5
1A31
 10
-30.5430
 20
1.33971
 30
0.000000
  70
    32
  0
VERTEX
  8
241
  5
1A32
 10
-30.5245
 20
1.29099
 30
0.000000
  70
    32
  0
VERTEX
  8
241
  5
1A33
 10
-30.5067
 20
1.24228
 30
0.000000
  70
    32
  0
VERTEX
  8
241
  5
1A34
 10
-30.4893
 20
1.19356
 30
0.000000
  70
    32
  0
VERTEX
  8
241
  5
1A35
 10
-30.4726
 20
1.14484
 30
0.000000
  70
    32
  0
VERTEX
  8
241
  5
1A36
 10
-30.4564
 20
1.09613
 30
0.000000
  70
    32
  0
VERTEX
  8
241
  5
1A37
 10
-30.4408
 20
1.04741
 30
0.000000
  70
    32
  0
VERTEX
  8
241
  5
1A38
 10
-30.4259
 20
0.998694
 30
0.000000
  70
    32
  0
VERTEX
  8
241
  5
1A39
 10
-30.4115
 20
0.949977
 30
0.000000
  70
    32
  0
VERTEX
  8
241
  5
1A3A
 10
-30.3977
 20
0.901260
 30
0.000000
  70
    32
  0
VERTEX
  8
241
  5
1A3B
 10
-30.3846
 20
0.852544
 30
0.000000
  70
    32
  0
VERTEX
  8
241
  5
1A3C
 10
-30.3721
 20
0.803827
 30
0.000000
  70
    32
  0
VERTEX
  8
241
  5
1A3D
 10
-30.3603
 20
0.755110
 30
0.000000
  70
    32
  0
VERTEX
  8
241
  5
1A3E
 10
-30.3491
 20
0.706393
 30
0.000000
  70
    32
  0
VERTEX
  8
241
  5
1A3F
 10
-30.3386
 20
0.657676
 30
0.000000
  70
    32
  0
VERTEX
  8
241
  5
1A40
 10
-30.3288
 20
0.608960
 30
0.000000
  70
    32
  0
VERTEX
  8
241
  5
1A41
 10
-30.3197
 20
0.560243
 30
0.000000
  70
    32
  0
VERTEX
  8
241
  5
1A42
 10
-30.3113
 20
0.511526
 30
0.000000
  70
    32
  0
VERTEX
  8
241
  5
1A43
 10
-30.3036
 20
0.462809
 30
0.000000
  70
    32
  0
VERTEX
  8
241
  5
1A44
 10
-30.2966
 20
0.414093
 30
0.000000
  70
    32
  0
VERTEX
  8
241
  5
1A45
 10
-30.2903
 20
0.365376
 30
0.000000
  70
    32
  0
VERTEX
  8
241
  5
1A46
 10
-30.2848
 20
0.316659
 30
0.000000
  70
    32
  0
VERTEX
  8
241
  5
1A47
 10
-30.2801
 20
0.267942
 30
0.000000
  70
    32
  0
VERTEX
  8
241
  5
1A48
 10
-30.2761
 20
0.219225
 30
0.000000
  70
    32
  0
VERTEX
  8
241
  5
1A49
 10
-30.2729
 20
0.170509
 30
0.000000
  70
    32
  0
VERTEX
  8
241
  5
1A4A
 10
-30.2705
 20
0.121792
 30
0.000000
  70
    32
  0
VERTEX
  8
241
  5
1A4B
 10
-30.2689
 20
0.0730752
 30
0.000000
  70
    32
  0
VERTEX
  8
241
  5
1A4C
 10
-30.2681
 20
0.0243584
 30
0.000000
  70
    32
  0
VERTEX
  8
241
  5
1A4D
 10
-30.2681
 20
-0.0243584
 30
0.000000
  70
    32
  0
VERTEX
  8
241
  5
1A4E
 10
-30.2689
 20
-0.0730752
 30
0.000000
  70
    32
  0
VERTEX
  8
241
  5
1A4F
 10
-30.2705
 20
-0.121792
 30
0.000000
  70
    32
  0
VERTEX
  8
241
  5
1A50
 10
-30.2729
 20
-0.170509
 30
0.000000
  70
    32
  0
VERTEX
  8
241
  5
1A51
 10
-30.2761
 20
-0.219225
 30
0.000000
  70
    32
  0
VERTEX
  8
241
  5
1A52
 10
-30.2801
 20
-0.267942
 30
0.000000
  70
    32
  0
VERTEX
  8
241
  5
1A53
 10
-30.2848
 20
-0.316659
 30
0.000000
  70
    32
  0
VERTEX
  8
241
  5
1A54
 10
-30.2903
 20
-0.365376
 30
0.000000
  70
    32
  0
VERTEX
  8
241
  5
1A55
 10
-30.2966
 20
-0.414093
 30
0.000000
  70
    32
  0
VERTEX
  8
241
  5
1A56
 10
-30.3036
 20
-0.462809
 30
0.000000
  70
    32
  0
VERTEX
  8
241
  5
1A57
 10
-30.3113
 20
-0.511526
 30
0.000000
  70
    32
  0
VERTEX
  8
241
  5
1A58
 10
-30.3197
 20
-0.560243
 30
0.000000
  70
    32
  0
VERTEX
  8
241
  5
1A59
 10
-30.3288
 20
-0.608960
 30
0.000000
  70
    32
  0
VERTEX
  8
241
  5
1A5A
 10
-30.3386
 20
-0.657676
 30
0.000000
  70
    32
  0
VERTEX
  8
241
  5
1A5B
 10
-30.3491
 20
-0.706393
 30
0.000000
  70
    32
  0
VERTEX
  8
241
  5
1A5C
 10
-30.3603
 20
-0.755110
 30
0.000000
  70
    32
  0
VERTEX
  8
241
  5
1A5D
 10
-30.3721
 20
-0.803827
 30
0.000000
  70
    32
  0
VERTEX
  8
241
  5
1A5E
 10
-30.3846
 20
-0.852544
 30
0.000000
  70
    32
  0
VERTEX
  8
241
  5
1A5F
 10
-30.3977
 20
-0.901260
 30
0.000000
  70
    32
  0
VERTEX
  8
241
  5
1A60
 10
-30.4115
 20
-0.949977
 30
0.000000
  70
    32
  0
VERTEX
  8
241
  5
1A61
 10
-30.4259
 20
-0.998694
 30
0.000000
  70
    32
  0
VERTEX
  8
241
  5
1A62
 10
-30.4408
 20
-1.04741
 30
0.000000
  70
    32
  0
VERTEX
  8
241
  5
1A63
 10
-30.4564
 20
-1.09613
 30
0.000000
  70
    32
  0
VERTEX
  8
241
  5
1A64
 10
-30.4726
 20
-1.14484
 30
0.000000
  70
    32
  0
VERTEX
  8
241
  5
1A65
 10
-30.4893
 20
-1.19356
 30
0.000000
  70
    32
  0
VERTEX
  8
241
  5
1A66
 10
-30.5067
 20
-1.24228
 30
0.000000
  70
    32
  0
VERTEX
  8
241
  5
1A67
 10
-30.5245
 20
-1.29099
 30
0.000000
  70
    32
  0
VERTEX
  8
241
  5
1A68
 10
-30.5430
 20
-1.33971
 30
0.000000
  70
    32
  0
VERTEX
  8
241
  5
1A69
 10
-30.5619
 20
-1.38843
 30
0.000000
  70
    32
  0
VERTEX
  8
241
  5
1A6A
 10
-30.5814
 20
-1.43714
 30
0.000000
  70
    32
  0
VERTEX
  8
241
  5
1A6B
 10
-30.6014
 20
-1.48586
 30
0.000000
  70
    32
  0
VERTEX
  8
241
  5
1A6C
 10
-30.6220
 20
-1.53458
 30
0.000000
  70
    32
  0
VERTEX
  8
241
  5
1A6D
 10
-30.6430
 20
-1.58330
 30
0.000000
  70
    32
  0
VERTEX
  8
241
  5
1A6E
 10
-30.6645
 20
-1.63201
 30
0.000000
  70
    32
  0
VERTEX
  8
241
  5
1A6F
 10
-30.6865
 20
-1.68073
 30
0.000000
  70
    32
  0
VERTEX
  8
241
  5
1A70
 10
-30.7089
 20
-1.72945
 30
0.000000
  70
    32
  0
VERTEX
  8
241
  5
1A71
 10
-30.7318
 20
-1.77816
 30
0.000000
  70
    32
  0
VERTEX
  8
241
  5
1A72
 10
-30.7551
 20
-1.82688
 30
0.000000
  70
    32
  0
VERTEX
  8
241
  5
1A73
 10
-30.7789
 20
-1.87560
 30
0.000000
  70
    32
  0
VERTEX
  8
241
  5
1A74
 10
-30.8031
 20
-1.92431
 30
0.000000
  70
    32
  0
VERTEX
  8
241
  5
1A75
 10
-30.8277
 20
-1.97303
 30
0.000000
  70
    32
  0
VERTEX
  8
241
  5
1A76
 10
-30.8527
 20
-2.02175
 30
0.000000
  70
    32
  0
VERTEX
  8
241
  5
1A77
 10
-30.8781
 20
-2.07046
 30
0.000000
  70
    32
  0
VERTEX
  8
241
  5
1A78
 10
-30.9039
 20
-2.11918
 30
0.000000
  70
    32
  0
VERTEX
  8
241
  5
1A79
 10
-30.9301
 20
-2.16790
 30
0.000000
  70
    32
  0
VERTEX
  8
241
  5
1A7A
 10
-30.9566
 20
-2.21661
 30
0.000000
  70
    32
  0
VERTEX
  8
241
  5
1A7B
 10
-30.9835
 20
-2.26533
 30
0.000000
  70
    32
  0
VERTEX
  8
241
  5
1A7C
 10
-31.0107
 20
-2.31405
 30
0.000000
  70
    32
  0
VERTEX
  8
241
  5
1A7D
 10
-31.0383
 20
-2.36276
 30
0.000000
  70
    32
  0
VERTEX
  8
241
  5
1A7E
 10
-31.0661
 20
-2.41148
 30
0.000000
  70
    32
  0
VERTEX
  8
241
  5
1A7F
 10
-31.0943
 20
-2.46020
 30
0.000000
  70
    32
  0
VERTEX
  8
241
  5
1A80
 10
-31.1228
 20
-2.50891
 30
0.000000
  70
    32
  0
VERTEX
  8
241
  5
1A81
 10
-31.1516
 20
-2.55763
 30
0.000000
  70
    32
  0
VERTEX
  8
241
  5
1A82
 10
-31.1806
 20
-2.60635
 30
0.000000
  70
    32
  0
VERTEX
  8
241
  5
1A83
 10
-31.2099
 20
-2.65506
 30
0.000000
  70
    32
  0
VERTEX
  8
241
  5
1A84
 10
-31.2395
 20
-2.70378
 30
0.000000
  70
    32
  0
VERTEX
  8
241
  5
1A85
 10
-31.2693
 20
-2.75250
 30
0.000000
  70
    32
  0
VERTEX
  8
241
  5
1A86
 10
-31.2994
 20
-2.80121
 30
0.000000
  70
    32
  0
VERTEX
  8
241
  5
1A87
 10
-31.3297
 20
-2.84993
 30
0.000000
  70
    32
  0
VERTEX
  8
241
  5
1A88
 10
-31.3602
 20
-2.89865
 30
0.000000
  70
    32
  0
VERTEX
  8
241
  5
1A89
 10
-31.3909
 20
-2.94736
 30
0.000000
  70
    32
  0
VERTEX
  8
241
  5
1A8A
 10
-31.4218
 20
-2.99608
 30
0.000000
  70
    32
  0
VERTEX
  8
241
  5
1A8B
 10
-31.4529
 20
-3.04480
 30
0.000000
  70
    32
  0
VERTEX
  8
241
  5
1A8C
 10
-31.4842
 20
-3.09351
 30
0.000000
  70
    32
  0
VERTEX
  8
241
  5
1A8D
 10
-31.5156
 20
-3.14223
 30
0.000000
  70
    32
  0
VERTEX
  8
241
  5
1A8E
 10
-31.5472
 20
-3.19095
 30
0.000000
  70
    32
  0
VERTEX
  8
241
  5
1A8F
 10
-31.5789
 20
-3.23967
 30
0.000000
  70
    32
  0
VERTEX
  8
241
  5
1A90
 10
-31.6108
 20
-3.28838
 30
0.000000
  70
    32
  0
VERTEX
  8
241
  5
1A91
 10
-31.6428
 20
-3.33710
 30
0.000000
  70
    32
  0
VERTEX
  8
241
  5
1A92
 10
-31.6749
 20
-3.38582
 30
0.000000
  70
    32
  0
VERTEX
  8
241
  5
1A93
 10
-31.7071
 20
-3.43453
 30
0.000000
  70
    32
  0
VERTEX
  8
241
  5
1A94
 10
-31.7394
 20
-3.48325
 30
0.000000
  70
    32
  0
VERTEX
  8
241
  5
1A95
 10
-31.7718
 20
-3.53197
 30
0.000000
  70
    32
  0
VERTEX
  8
241
  5
1A96
 10
-31.8043
 20
-3.58068
 30
0.000000
  70
    32
  0
VERTEX
  8
241
  5
1A97
 10
-31.8368
 20
-3.62940
 30
0.000000
  70
    32
  0
VERTEX
  8
241
  5
1A98
 10
-31.8694
 20
-3.67812
 30
0.000000
  70
    32
  0
VERTEX
  8
241
  5
1A99
 10
-31.9020
 20
-3.72683
 30
0.000000
  70
    32
  0
VERTEX
  8
241
  5
1A9A
 10
-31.9347
 20
-3.77555
 30
0.000000
  70
    32
  0
VERTEX
  8
241
  5
1A9B
 10
-31.9673
 20
-3.82427
 30
0.000000
  70
    32
  0
VERTEX
  8
241
  5
1A9C
 10
-32.0000
 20
-3.87298
 30
0.000000
  70
    32
  0
SEQEND
  8
241
  5
1A9D
  0
LINE
  5
184D
  8
243
 10
-33.999999999999432
 20
4.0000000000001421
 30
0.0
 11
-31.690598923240831
 21
0.0
 31
0.0
  0
LINE
  5
184E
  8
243
 10
-33.999999999999382
 20
-3.9999999999999432
 30
0.0
 11
-34.000000000000092
 21
4.0
 31
0.0
  0
LINE
  5
184F
  8
240
 10
-31.767949192429409
 20
-7.8660254037843549
 30
0.0
 11
-28.999999999999581
 21
-6.2679491924317849
 31
0.0
  0
LINE
  5
1850
  8
241
 10
-31.99999999999994
 20
-3.8729833462074619
 30
0.0
 11
-31.999999999999769
 21
-7.9634330440025911
 31
0.0
  0
ARC
  5
1851
  8
241
 10
-25.99999999999957
 20
-1.1999999999999309
 30
0.0
 40
3.0
 50
90.0
 51
180.0
  0
ARC
  5
1852
  8
240
 10
-25.999999999999829
 20
-4.499999999999857
 30
0.0
 40
3.000000000000028
 50
90.0
 51
180.0
  0
LINE
  5
1853
  8
241
 10
-28.999999999999581
 20
-1.1999999999999309
 30
0.0
 11
-28.999999999999581
 21
-4.4999999999998863
 31
0.0
  0
LINE
  5
1854
  8
243
 10
-33.999999999999432
 20
-4.0000000000001421
 30
0.0
 11
-31.690598923240831
 21
0.0
 31
0.0
  0
LINE
  5
1855
  8
240
 10
-28.999999999999861
 20
-6.2679491924319271
 30
0.0
 11
-28.999999999999829
 21
-4.499999999999857
 31
0.0
  0
ARC
  5
1856
  8
240
 10
-26.17320508075662
 20
8.1000000000000512
 30
0.0
 40
3.0
 50
239.9999999999998
 51
270.0
  0
LINE
  5
1857
  8
240
 10
-27.67320508075662
 20
5.5019237886467351
 30
0.0
 11
-31.76794919243093
 21
7.8660254037845192
 31
0.0
  0
LINE
  5
1858
  8
241
 10
-31.99999999999994
 20
3.8729833462074899
 30
0.0
 11
-31.99999999999994
 21
7.9634330440023851
 31
0.0
  0
LINE
  5
1859
  8
240
 10
10.000000000000171
 20
8.3999999999985278
 30
0.0
 11
9.9999999999996572
 21
-1.1999999999998181
 31
0.0
  0
LINE
  5
185A
  8
241
 10
-0.5000000000003979
 20
0.027640807674743
 30
0.0
 11
9.9999999999998295
 21
0.027640807674743
 31
0.0
  0
LINE
  5
185B
  8
240
 10
9.9999999999996572
 20
-1.1999999999998181
 30
0.0
 11
9.6999999999996191
 21
-1.499999999999829
 31
0.0
  0
LINE
  5
185C
  8
241
 10
5.3000000000012326
 20
6.0571254567152826
 30
0.0
 11
10.00000000000014
 21
6.0571254567152826
 31
0.0
  0
LINE
  5
185D
  8
241
 10
5.30000000000146
 20
8.6762135885061866
 30
0.0
 11
9.7237864114958654
 21
8.6762135885061866
 31
0.0
  0
LINE
  5
185E
  8
240
 10
9.6999999999999886
 20
8.7000000000001876
 30
0.0
 11
4.9322875655533753
 21
8.7000000000001165
 31
0.0
  0
LINE
  5
185F
  8
240
 10
9.6999999999999886
 20
8.7000000000001876
 30
0.0
 11
10.00000000000005
 21
8.4000000000001762
 31
0.0
  0
CIRCLE
  5
1860
  8
242
 10
2.5000000000001128
 20
6.2357026048283331
 30
0.0
 40
1.0
  0
LINE
  5
1861
  8
245
 10
2.5000000000001128
 20
8.9357026048283341
 30
0.0
 11
2.5000000000001128
 21
3.5357026048283302
 31
0.0
  0
LINE
  5
1862
  8
245
 10
-0.200000000000017
 20
6.2357026048283331
 30
0.0
 11
5.1999999999999877
 21
6.2357026048283331
 31
0.0
  0
LINE
  5
1863
  8
241
 10
-0.0000000000000568
 20
3.9500000000000979
 30
0.0
 11
-0.0000000000000263
 21
5.187750100080013
 31
0.0
  0
LINE
  5
1864
  8
240
 10
-0.0000000000000263
 20
5.187750100080013
 30
0.0
 11
0.0000000000000568
 21
8.5500000000002352
 31
0.0
  0
LINE
  5
1865
  8
241
 10
0.200000000000216
 20
3.7500000000001101
 30
0.0
 11
4.8000000000000114
 21
3.7500000000001101
 31
0.0
  0
ARC
  5
1866
  8
241
 10
0.1999999999999886
 20
3.9500000000000979
 30
0.0
 40
0.2
 50
180.0
 51
270.0
  0
LINE
  5
1867
  8
241
 10
3.3000000000000109
 20
3.4357026048286339
 30
0.0
 11
1.700000000000216
 21
3.4357026048286339
 31
0.0
  0
ARC
  5
1868
  8
241
 10
1.700000000000216
 20
5.4357026048286343
 30
0.0
 40
2.0
 50
251.09158479933589
 51
270.0
  0
ARC
  5
1869
  8
241
 10
3.3000000000000109
 20
5.4357026048286343
 30
0.0
 40
2.0
 50
270.0
 51
302.55755366730227
  0
ARC
  5
186A
  8
241
 10
4.8000000000000114
 20
3.9500000000000979
 30
0.0
 40
0.2
 50
270.0
 51
0.0
  0
ARC
  5
186B
  8
241
 10
3.3000000000000109
 20
5.4357026048286343
 30
0.0
 40
2.0
 50
328.21166938290918
 51
0.0000000000032569
  0
LINE
  5
186C
  8
241
 10
4.999999999999261
 20
3.9500000000000979
 30
0.0
 11
4.9999999999996012
 21
8.7000000000001183
 31
0.0
  0
LINE
  5
186D
  8
241
 10
5.3000000000000114
 20
5.435702604828748
 30
0.0
 11
5.2999999999997547
 21
8.7027076963084227
 31
0.0
  0
ARC
  5
186E
  8
240
 10
0.1999999999999886
 20
8.5500000000002352
 30
0.0
 40
0.2
 50
89.999999999996746
 51
180.0
  0
ARC
  5
186F
  8
240
 10
-0.2499999999999432
 20
5.5
 30
0.0
 40
0.4
 50
270.0
 51
308.68218745347423
  0
ARC
  5
1870
  8
241
 10
4.8000000000000114
 20
8.5500000000002352
 30
0.0
 40
0.2
 50
0.0
 51
48.590377890672798
  0
ARC
  5
1871
  8
240
 10
4.8000000000000114
 20
8.5500000000002352
 30
0.0
 40
0.2
 50
48.590377890672798
 51
90.0
  0
LINE
  5
1872
  8
240
 10
4.8000000000000114
 20
8.749999999999968
 30
0.0
 11
0.1999999999999886
 21
8.7500000000002238
 31
0.0
  0
ARC
  5
1873
  8
241
 10
0.5999999999999659
 20
4.435702604828264
 30
0.0
 40
1.0
 50
136.96684346771929
 51
296.86479600378152
  0
ARC
  5
1874
  8
240
 10
-32.26794919243094
 20
7.0000000000000853
 30
0.0
 40
1.0
 50
59.999999999999858
 51
90.0
  0
ARC
  5
1875
  8
240
 10
-32.267949192429413
 20
-6.9999999999999138
 30
0.0
 40
1.0
 50
270.0
 51
299.99999999999972
  0
LINE
  5
1876
  8
241
 10
-0.2757362899109523
 20
3.952912846721147
 30
0.0
 11
-28.250000000000291
 21
3.952912846721147
 31
0.0
  0
LINE
  5
1877
  8
241
 10
-0.2190263558202616
 20
5.0094585010697861
 30
0.0
 11
-28.250000000000291
 21
5.0094585010697861
 31
0.0
  0
POLYLINE
  8
241
  5
1A9E
  66
     1
 10
0.000000
 20
0.000000
 30
0.000000
  70
     8
  0
VERTEX
  8
241
  5
1A9F
 10
-2.33812
 20
3.95361
 30
0.000000
  70
    32
  0
VERTEX
  8
241
  5
1AA0
 10
-2.38813
 20
3.92021
 30
0.000000
  70
    32
  0
VERTEX
  8
241
  5
1AA1
 10
-2.43774
 20
3.88688
 30
0.000000
  70
    32
  0
VERTEX
  8
241
  5
1AA2
 10
-2.48694
 20
3.85360
 30
0.000000
  70
    32
  0
VERTEX
  8
241
  5
1AA3
 10
-2.53571
 20
3.82039
 30
0.000000
  70
    32
  0
VERTEX
  8
241
  5
1AA4
 10
-2.58405
 20
3.78723
 30
0.000000
  70
    32
  0
VERTEX
  8
241
  5
1AA5
 10
-2.63195
 20
3.75414
 30
0.000000
  70
    32
  0
VERTEX
  8
241
  5
1AA6
 10
-2.67938
 20
3.72111
 30
0.000000
  70
    32
  0
VERTEX
  8
241
  5
1AA7
 10
-2.72635
 20
3.68815
 30
0.000000
  70
    32
  0
VERTEX
  8
241
  5
1AA8
 10
-2.77283
 20
3.65526
 30
0.000000
  70
    32
  0
VERTEX
  8
241
  5
1AA9
 10
-2.81882
 20
3.62243
 30
0.000000
  70
    32
  0
VERTEX
  8
241
  5
1AAA
 10
-2.86431
 20
3.58968
 30
0.000000
  70
    32
  0
VERTEX
  8
241
  5
1AAB
 10
-2.90928
 20
3.55700
 30
0.000000
  70
    32
  0
VERTEX
  8
241
  5
1AAC
 10
-2.95373
 20
3.52439
 30
0.000000
  70
    32
  0
VERTEX
  8
241
  5
1AAD
 10
-2.99763
 20
3.49187
 30
0.000000
  70
    32
  0
VERTEX
  8
241
  5
1AAE
 10
-3.04099
 20
3.45941
 30
0.000000
  70
    32
  0
VERTEX
  8
241
  5
1AAF
 10
-3.08378
 20
3.42704
 30
0.000000
  70
    32
  0
VERTEX
  8
241
  5
1AB0
 10
-3.12600
 20
3.39475
 30
0.000000
  70
    32
  0
VERTEX
  8
241
  5
1AB1
 10
-3.16764
 20
3.36254
 30
0.000000
  70
    32
  0
VERTEX
  8
241
  5
1AB2
 10
-3.20868
 20
3.33042
 30
0.000000
  70
    32
  0
VERTEX
  8
241
  5
1AB3
 10
-3.24910
 20
3.29838
 30
0.000000
  70
    32
  0
VERTEX
  8
241
  5
1AB4
 10
-3.28891
 20
3.26643
 30
0.000000
  70
    32
  0
VERTEX
  8
241
  5
1AB5
 10
-3.32809
 20
3.23457
 30
0.000000
  70
    32
  0
VERTEX
  8
241
  5
1AB6
 10
-3.36663
 20
3.20280
 30
0.000000
  70
    32
  0
VERTEX
  8
241
  5
1AB7
 10
-3.40451
 20
3.17112
 30
0.000000
  70
    32
  0
VERTEX
  8
241
  5
1AB8
 10
-3.44173
 20
3.13954
 30
0.000000
  70
    32
  0
VERTEX
  8
241
  5
1AB9
 10
-3.47826
 20
3.10805
 30
0.000000
  70
    32
  0
VERTEX
  8
241
  5
1ABA
 10
-3.51411
 20
3.07666
 30
0.000000
  70
    32
  0
VERTEX
  8
241
  5
1ABB
 10
-3.54926
 20
3.04537
 30
0.000000
  70
    32
  0
VERTEX
  8
241
  5
1ABC
 10
-3.58370
 20
3.01418
 30
0.000000
  70
    32
  0
VERTEX
  8
241
  5
1ABD
 10
-3.61741
 20
2.98309
 30
0.000000
  70
    32
  0
VERTEX
  8
241
  5
1ABE
 10
-3.65039
 20
2.95211
 30
0.000000
  70
    32
  0
VERTEX
  8
241
  5
1ABF
 10
-3.68262
 20
2.92123
 30
0.000000
  70
    32
  0
VERTEX
  8
241
  5
1AC0
 10
-3.71409
 20
2.89046
 30
0.000000
  70
    32
  0
VERTEX
  8
241
  5
1AC1
 10
-3.74480
 20
2.85979
 30
0.000000
  70
    32
  0
VERTEX
  8
241
  5
1AC2
 10
-3.77472
 20
2.82924
 30
0.000000
  70
    32
  0
VERTEX
  8
241
  5
1AC3
 10
-3.80385
 20
2.79880
 30
0.000000
  70
    32
  0
VERTEX
  8
241
  5
1AC4
 10
-3.83217
 20
2.76847
 30
0.000000
  70
    32
  0
VERTEX
  8
241
  5
1AC5
 10
-3.85968
 20
2.73826
 30
0.000000
  70
    32
  0
VERTEX
  8
241
  5
1AC6
 10
-3.88636
 20
2.70816
 30
0.000000
  70
    32
  0
VERTEX
  8
241
  5
1AC7
 10
-3.91220
 20
2.67819
 30
0.000000
  70
    32
  0
VERTEX
  8
241
  5
1AC8
 10
-3.93719
 20
2.64833
 30
0.000000
  70
    32
  0
VERTEX
  8
241
  5
1AC9
 10
-3.96132
 20
2.61860
 30
0.000000
  70
    32
  0
VERTEX
  8
241
  5
1ACA
 10
-3.98457
 20
2.58899
 30
0.000000
  70
    32
  0
VERTEX
  8
241
  5
1ACB
 10
-4.00694
 20
2.55950
 30
0.000000
  70
    32
  0
VERTEX
  8
241
  5
1ACC
 10
-4.02842
 20
2.53014
 30
0.000000
  70
    32
  0
VERTEX
  8
241
  5
1ACD
 10
-4.04898
 20
2.50091
 30
0.000000
  70
    32
  0
VERTEX
  8
241
  5
1ACE
 10
-4.06863
 20
2.47181
 30
0.000000
  70
    32
  0
VERTEX
  8
241
  5
1ACF
 10
-4.08734
 20
2.44284
 30
0.000000
  70
    32
  0
VERTEX
  8
241
  5
1AD0
 10
-4.10511
 20
2.41401
 30
0.000000
  70
    32
  0
VERTEX
  8
241
  5
1AD1
 10
-4.12192
 20
2.38530
 30
0.000000
  70
    32
  0
VERTEX
  8
241
  5
1AD2
 10
-4.13777
 20
2.35674
 30
0.000000
  70
    32
  0
VERTEX
  8
241
  5
1AD3
 10
-4.15265
 20
2.32831
 30
0.000000
  70
    32
  0
VERTEX
  8
241
  5
1AD4
 10
-4.16653
 20
2.30003
 30
0.000000
  70
    32
  0
VERTEX
  8
241
  5
1AD5
 10
-4.17941
 20
2.27188
 30
0.000000
  70
    32
  0
VERTEX
  8
241
  5
1AD6
 10
-4.19128
 20
2.24388
 30
0.000000
  70
    32
  0
VERTEX
  8
241
  5
1AD7
 10
-4.20213
 20
2.21602
 30
0.000000
  70
    32
  0
VERTEX
  8
241
  5
1AD8
 10
-4.21194
 20
2.18831
 30
0.000000
  70
    32
  0
VERTEX
  8
241
  5
1AD9
 10
-4.22070
 20
2.16075
 30
0.000000
  70
    32
  0
VERTEX
  8
241
  5
1ADA
 10
-4.22841
 20
2.13333
 30
0.000000
  70
    32
  0
VERTEX
  8
241
  5
1ADB
 10
-4.23504
 20
2.10607
 30
0.000000
  70
    32
  0
VERTEX
  8
241
  5
1ADC
 10
-4.24060
 20
2.07896
 30
0.000000
  70
    32
  0
VERTEX
  8
241
  5
1ADD
 10
-4.24506
 20
2.05201
 30
0.000000
  70
    32
  0
VERTEX
  8
241
  5
1ADE
 10
-4.24841
 20
2.02521
 30
0.000000
  70
    32
  0
VERTEX
  8
241
  5
1ADF
 10
-4.25065
 20
1.99856
 30
0.000000
  70
    32
  0
VERTEX
  8
241
  5
1AE0
 10
-4.25177
 20
1.97208
 30
0.000000
  70
    32
  0
VERTEX
  8
241
  5
1AE1
 10
-4.25174
 20
1.94576
 30
0.000000
  70
    32
  0
VERTEX
  8
241
  5
1AE2
 10
-4.25056
 20
1.91960
 30
0.000000
  70
    32
  0
VERTEX
  8
241
  5
1AE3
 10
-4.24822
 20
1.89361
 30
0.000000
  70
    32
  0
VERTEX
  8
241
  5
1AE4
 10
-4.24471
 20
1.86778
 30
0.000000
  70
    32
  0
VERTEX
  8
241
  5
1AE5
 10
-4.24001
 20
1.84212
 30
0.000000
  70
    32
  0
VERTEX
  8
241
  5
1AE6
 10
-4.23411
 20
1.81663
 30
0.000000
  70
    32
  0
VERTEX
  8
241
  5
1AE7
 10
-4.22701
 20
1.79131
 30
0.000000
  70
    32
  0
VERTEX
  8
241
  5
1AE8
 10
-4.21869
 20
1.76616
 30
0.000000
  70
    32
  0
VERTEX
  8
241
  5
1AE9
 10
-4.20918
 20
1.74117
 30
0.000000
  70
    32
  0
VERTEX
  8
241
  5
1AEA
 10
-4.19848
 20
1.71636
 30
0.000000
  70
    32
  0
VERTEX
  8
241
  5
1AEB
 10
-4.18662
 20
1.69171
 30
0.000000
  70
    32
  0
VERTEX
  8
241
  5
1AEC
 10
-4.17360
 20
1.66723
 30
0.000000
  70
    32
  0
VERTEX
  8
241
  5
1AED
 10
-4.15944
 20
1.64290
 30
0.000000
  70
    32
  0
VERTEX
  8
241
  5
1AEE
 10
-4.14415
 20
1.61874
 30
0.000000
  70
    32
  0
VERTEX
  8
241
  5
1AEF
 10
-4.12774
 20
1.59473
 30
0.000000
  70
    32
  0
VERTEX
  8
241
  5
1AF0
 10
-4.11024
 20
1.57088
 30
0.000000
  70
    32
  0
VERTEX
  8
241
  5
1AF1
 10
-4.09165
 20
1.54718
 30
0.000000
  70
    32
  0
VERTEX
  8
241
  5
1AF2
 10
-4.07199
 20
1.52363
 30
0.000000
  70
    32
  0
VERTEX
  8
241
  5
1AF3
 10
-4.05127
 20
1.50024
 30
0.000000
  70
    32
  0
VERTEX
  8
241
  5
1AF4
 10
-4.02950
 20
1.47699
 30
0.000000
  70
    32
  0
VERTEX
  8
241
  5
1AF5
 10
-4.00671
 20
1.45388
 30
0.000000
  70
    32
  0
VERTEX
  8
241
  5
1AF6
 10
-3.98290
 20
1.43092
 30
0.000000
  70
    32
  0
VERTEX
  8
241
  5
1AF7
 10
-3.95808
 20
1.40810
 30
0.000000
  70
    32
  0
VERTEX
  8
241
  5
1AF8
 10
-3.93228
 20
1.38542
 30
0.000000
  70
    32
  0
VERTEX
  8
241
  5
1AF9
 10
-3.90550
 20
1.36288
 30
0.000000
  70
    32
  0
VERTEX
  8
241
  5
1AFA
 10
-3.87777
 20
1.34048
 30
0.000000
  70
    32
  0
VERTEX
  8
241
  5
1AFB
 10
-3.84908
 20
1.31820
 30
0.000000
  70
    32
  0
VERTEX
  8
241
  5
1AFC
 10
-3.81947
 20
1.29606
 30
0.000000
  70
    32
  0
VERTEX
  8
241
  5
1AFD
 10
-3.78893
 20
1.27405
 30
0.000000
  70
    32
  0
VERTEX
  8
241
  5
1AFE
 10
-3.75749
 20
1.25217
 30
0.000000
  70
    32
  0
VERTEX
  8
241
  5
1AFF
 10
-3.72516
 20
1.23041
 30
0.000000
  70
    32
  0
VERTEX
  8
241
  5
1B00
 10
-3.69195
 20
1.20878
 30
0.000000
  70
    32
  0
VERTEX
  8
241
  5
1B01
 10
-3.65788
 20
1.18727
 30
0.000000
  70
    32
  0
VERTEX
  8
241
  5
1B02
 10
-3.62296
 20
1.16588
 30
0.000000
  70
    32
  0
VERTEX
  8
241
  5
1B03
 10
-3.58720
 20
1.14461
 30
0.000000
  70
    32
  0
VERTEX
  8
241
  5
1B04
 10
-3.55062
 20
1.12345
 30
0.000000
  70
    32
  0
VERTEX
  8
241
  5
1B05
 10
-3.51323
 20
1.10241
 30
0.000000
  70
    32
  0
VERTEX
  8
241
  5
1B06
 10
-3.47505
 20
1.08148
 30
0.000000
  70
    32
  0
VERTEX
  8
241
  5
1B07
 10
-3.43610
 20
1.06066
 30
0.000000
  70
    32
  0
VERTEX
  8
241
  5
1B08
 10
-3.39637
 20
1.03995
 30
0.000000
  70
    32
  0
VERTEX
  8
241
  5
1B09
 10
-3.35589
 20
1.01934
 30
0.000000
  70
    32
  0
VERTEX
  8
241
  5
1B0A
 10
-3.31468
 20
0.998839
 30
0.000000
  70
    32
  0
VERTEX
  8
241
  5
1B0B
 10
-3.27274
 20
0.978440
 30
0.000000
  70
    32
  0
VERTEX
  8
241
  5
1B0C
 10
-3.23009
 20
0.958141
 30
0.000000
  70
    32
  0
VERTEX
  8
241
  5
1B0D
 10
-3.18675
 20
0.937941
 30
0.000000
  70
    32
  0
VERTEX
  8
241
  5
1B0E
 10
-3.14272
 20
0.917836
 30
0.000000
  70
    32
  0
VERTEX
  8
241
  5
1B0F
 10
-3.09802
 20
0.897827
 30
0.000000
  70
    32
  0
VERTEX
  8
241
  5
1B10
 10
-3.05267
 20
0.877910
 30
0.000000
  70
    32
  0
VERTEX
  8
241
  5
1B11
 10
-3.00668
 20
0.858083
 30
0.000000
  70
    32
  0
VERTEX
  8
241
  5
1B12
 10
-2.96007
 20
0.838345
 30
0.000000
  70
    32
  0
VERTEX
  8
241
  5
1B13
 10
-2.91284
 20
0.818693
 30
0.000000
  70
    32
  0
VERTEX
  8
241
  5
1B14
 10
-2.86501
 20
0.799126
 30
0.000000
  70
    32
  0
VERTEX
  8
241
  5
1B15
 10
-2.81660
 20
0.779642
 30
0.000000
  70
    32
  0
VERTEX
  8
241
  5
1B16
 10
-2.76761
 20
0.760238
 30
0.000000
  70
    32
  0
VERTEX
  8
241
  5
1B17
 10
-2.71807
 20
0.740913
 30
0.000000
  70
    32
  0
VERTEX
  8
241
  5
1B18
 10
-2.66799
 20
0.721665
 30
0.000000
  70
    32
  0
VERTEX
  8
241
  5
1B19
 10
-2.61738
 20
0.702491
 30
0.000000
  70
    32
  0
VERTEX
  8
241
  5
1B1A
 10
-2.56625
 20
0.683390
 30
0.000000
  70
    32
  0
VERTEX
  8
241
  5
1B1B
 10
-2.51462
 20
0.664360
 30
0.000000
  70
    32
  0
VERTEX
  8
241
  5
1B1C
 10
-2.46250
 20
0.645399
 30
0.000000
  70
    32
  0
VERTEX
  8
241
  5
1B1D
 10
-2.40991
 20
0.626505
 30
0.000000
  70
    32
  0
VERTEX
  8
241
  5
1B1E
 10
-2.35687
 20
0.607676
 30
0.000000
  70
    32
  0
VERTEX
  8
241
  5
1B1F
 10
-2.30337
 20
0.588909
 30
0.000000
  70
    32
  0
VERTEX
  8
241
  5
1B20
 10
-2.24944
 20
0.570204
 30
0.000000
  70
    32
  0
VERTEX
  8
241
  5
1B21
 10
-2.19510
 20
0.551558
 30
0.000000
  70
    32
  0
VERTEX
  8
241
  5
1B22
 10
-2.14035
 20
0.532968
 30
0.000000
  70
    32
  0
VERTEX
  8
241
  5
1B23
 10
-2.08521
 20
0.514434
 30
0.000000
  70
    32
  0
VERTEX
  8
241
  5
1B24
 10
-2.02970
 20
0.495953
 30
0.000000
  70
    32
  0
VERTEX
  8
241
  5
1B25
 10
-1.97383
 20
0.477523
 30
0.000000
  70
    32
  0
VERTEX
  8
241
  5
1B26
 10
-1.91760
 20
0.459143
 30
0.000000
  70
    32
  0
VERTEX
  8
241
  5
1B27
 10
-1.86104
 20
0.440809
 30
0.000000
  70
    32
  0
VERTEX
  8
241
  5
1B28
 10
-1.80417
 20
0.422521
 30
0.000000
  70
    32
  0
VERTEX
  8
241
  5
1B29
 10
-1.74698
 20
0.404276
 30
0.000000
  70
    32
  0
VERTEX
  8
241
  5
1B2A
 10
-1.68951
 20
0.386072
 30
0.000000
  70
    32
  0
VERTEX
  8
241
  5
1B2B
 10
-1.63175
 20
0.367908
 30
0.000000
  70
    32
  0
VERTEX
  8
241
  5
1B2C
 10
-1.57373
 20
0.349781
 30
0.000000
  70
    32
  0
VERTEX
  8
241
  5
1B2D
 10
-1.51546
 20
0.331689
 30
0.000000
  70
    32
  0
VERTEX
  8
241
  5
1B2E
 10
-1.45695
 20
0.313631
 30
0.000000
  70
    32
  0
VERTEX
  8
241
  5
1B2F
 10
-1.39822
 20
0.295604
 30
0.000000
  70
    32
  0
VERTEX
  8
241
  5
1B30
 10
-1.33929
 20
0.277607
 30
0.000000
  70
    32
  0
VERTEX
  8
241
  5
1B31
 10
-1.28015
 20
0.259638
 30
0.000000
  70
    32
  0
VERTEX
  8
241
  5
1B32
 10
-1.22084
 20
0.241694
 30
0.000000
  70
    32
  0
VERTEX
  8
241
  5
1B33
 10
-1.16136
 20
0.223773
 30
0.000000
  70
    32
  0
VERTEX
  8
241
  5
1B34
 10
-1.10172
 20
0.205875
 30
0.000000
  70
    32
  0
VERTEX
  8
241
  5
1B35
 10
-1.04195
 20
0.187996
 30
0.000000
  70
    32
  0
VERTEX
  8
241
  5
1B36
 10
-0.982047
 20
0.170134
 30
0.000000
  70
    32
  0
VERTEX
  8
241
  5
1B37
 10
-0.922037
 20
0.152289
 30
0.000000
  70
    32
  0
VERTEX
  8
241
  5
1B38
 10
-0.861929
 20
0.134457
 30
0.000000
  70
    32
  0
VERTEX
  8
241
  5
1B39
 10
-0.801737
 20
0.116637
 30
0.000000
  70
    32
  0
VERTEX
  8
241
  5
1B3A
 10
-0.741476
 20
0.0988264
 30
0.000000
  70
    32
  0
VERTEX
  8
241
  5
1B3B
 10
-0.681159
 20
0.0810241
 30
0.000000
  70
    32
  0
VERTEX
  8
241
  5
1B3C
 10
-0.620800
 20
0.0632276
 30
0.000000
  70
    32
  0
VERTEX
  8
241
  5
1B3D
 10
-0.560413
 20
0.0454351
 30
0.000000
  70
    32
  0
VERTEX
  8
241
  5
1B3E
 10
-0.500013
 20
0.0276446
 30
0.000000
  70
    32
  0
SEQEND
  8
241
  5
1B3F
  0
POLYLINE
  5
1879
  8
241
 10
-28.249999999999989
 20
5.0094585010741062
 30
0.0
 66
     1
 70
     8
  0
VERTEX
  8
241
  5
1B40
 10
-28.2500
 20
5.00946
 30
0.000000
  70
    32
  0
VERTEX
  8
241
  5
1B41
 10
-28.2807
 20
5.00930
 30
0.000000
  70
    32
  0
VERTEX
  8
241
  5
1B42
 10
-28.3113
 20
5.00882
 30
0.000000
  70
    32
  0
VERTEX
  8
241
  5
1B43
 10
-28.3420
 20
5.00803
 30
0.000000
  70
    32
  0
VERTEX
  8
241
  5
1B44
 10
-28.3725
 20
5.00691
 30
0.000000
  70
    32
  0
VERTEX
  8
241
  5
1B45
 10
-28.4030
 20
5.00549
 30
0.000000
  70
    32
  0
VERTEX
  8
241
  5
1B46
 10
-28.4334
 20
5.00374
 30
0.000000
  70
    32
  0
VERTEX
  8
241
  5
1B47
 10
-28.4637
 20
5.00168
 30
0.000000
  70
    32
  0
VERTEX
  8
241
  5
1B48
 10
-28.4939
 20
4.99931
 30
0.000000
  70
    32
  0
VERTEX
  8
241
  5
1B49
 10
-28.5239
 20
4.99662
 30
0.000000
  70
    32
  0
VERTEX
  8
241
  5
1B4A
 10
-28.5537
 20
4.99363
 30
0.000000
  70
    32
  0
VERTEX
  8
241
  5
1B4B
 10
-28.5834
 20
4.99032
 30
0.000000
  70
    32
  0
VERTEX
  8
241
  5
1B4C
 10
-28.6129
 20
4.98671
 30
0.000000
  70
    32
  0
VERTEX
  8
241
  5
1B4D
 10
-28.6421
 20
4.98280
 30
0.000000
  70
    32
  0
VERTEX
  8
241
  5
1B4E
 10
-28.6711
 20
4.97858
 30
0.000000
  70
    32
  0
VERTEX
  8
241
  5
1B4F
 10
-28.6999
 20
4.97406
 30
0.000000
  70
    32
  0
VERTEX
  8
241
  5
1B50
 10
-28.7284
 20
4.96925
 30
0.000000
  70
    32
  0
VERTEX
  8
241
  5
1B51
 10
-28.7566
 20
4.96414
 30
0.000000
  70
    32
  0
VERTEX
  8
241
  5
1B52
 10
-28.7844
 20
4.95874
 30
0.000000
  70
    32
  0
VERTEX
  8
241
  5
1B53
 10
-28.8120
 20
4.95305
 30
0.000000
  70
    32
  0
VERTEX
  8
241
  5
1B54
 10
-28.8392
 20
4.94708
 30
0.000000
  70
    32
  0
VERTEX
  8
241
  5
1B55
 10
-28.8661
 20
4.94083
 30
0.000000
  70
    32
  0
VERTEX
  8
241
  5
1B56
 10
-28.8926
 20
4.93430
 30
0.000000
  70
    32
  0
VERTEX
  8
241
  5
1B57
 10
-28.9187
 20
4.92750
 30
0.000000
  70
    32
  0
VERTEX
  8
241
  5
1B58
 10
-28.9445
 20
4.92043
 30
0.000000
  70
    32
  0
VERTEX
  8
241
  5
1B59
 10
-28.9698
 20
4.91309
 30
0.000000
  70
    32
  0
VERTEX
  8
241
  5
1B5A
 10
-28.9946
 20
4.90550
 30
0.000000
  70
    32
  0
VERTEX
  8
241
  5
1B5B
 10
-29.0190
 20
4.89765
 30
0.000000
  70
    32
  0
VERTEX
  8
241
  5
1B5C
 10
-29.0430
 20
4.88955
 30
0.000000
  70
    32
  0
VERTEX
  8
241
  5
1B5D
 10
-29.0665
 20
4.88120
 30
0.000000
  70
    32
  0
VERTEX
  8
241
  5
1B5E
 10
-29.0894
 20
4.87261
 30
0.000000
  70
    32
  0
VERTEX
  8
241
  5
1B5F
 10
-29.1119
 20
4.86379
 30
0.000000
  70
    32
  0
VERTEX
  8
241
  5
1B60
 10
-29.1339
 20
4.85473
 30
0.000000
  70
    32
  0
VERTEX
  8
241
  5
1B61
 10
-29.1553
 20
4.84545
 30
0.000000
  70
    32
  0
VERTEX
  8
241
  5
1B62
 10
-29.1762
 20
4.83595
 30
0.000000
  70
    32
  0
VERTEX
  8
241
  5
1B63
 10
-29.1965
 20
4.82624
 30
0.000000
  70
    32
  0
VERTEX
  8
241
  5
1B64
 10
-29.2163
 20
4.81632
 30
0.000000
  70
    32
  0
VERTEX
  8
241
  5
1B65
 10
-29.2354
 20
4.80620
 30
0.000000
  70
    32
  0
VERTEX
  8
241
  5
1B66
 10
-29.2540
 20
4.79588
 30
0.000000
  70
    32
  0
VERTEX
  8
241
  5
1B67
 10
-29.2720
 20
4.78537
 30
0.000000
  70
    32
  0
VERTEX
  8
241
  5
1B68
 10
-29.2893
 20
4.77468
 30
0.000000
  70
    32
  0
VERTEX
  8
241
  5
1B69
 10
-29.3061
 20
4.76381
 30
0.000000
  70
    32
  0
VERTEX
  8
241
  5
1B6A
 10
-29.3222
 20
4.75277
 30
0.000000
  70
    32
  0
VERTEX
  8
241
  5
1B6B
 10
-29.3376
 20
4.74157
 30
0.000000
  70
    32
  0
VERTEX
  8
241
  5
1B6C
 10
-29.3524
 20
4.73021
 30
0.000000
  70
    32
  0
VERTEX
  8
241
  5
1B6D
 10
-29.3665
 20
4.71870
 30
0.000000
  70
    32
  0
VERTEX
  8
241
  5
1B6E
 10
-29.3800
 20
4.70705
 30
0.000000
  70
    32
  0
VERTEX
  8
241
  5
1B6F
 10
-29.3928
 20
4.69526
 30
0.000000
  70
    32
  0
VERTEX
  8
241
  5
1B70
 10
-29.4048
 20
4.68335
 30
0.000000
  70
    32
  0
VERTEX
  8
241
  5
1B71
 10
-29.4162
 20
4.67131
 30
0.000000
  70
    32
  0
VERTEX
  8
241
  5
1B72
 10
-29.4269
 20
4.65916
 30
0.000000
  70
    32
  0
VERTEX
  8
241
  5
1B73
 10
-29.4369
 20
4.64690
 30
0.000000
  70
    32
  0
VERTEX
  8
241
  5
1B74
 10
-29.4462
 20
4.63454
 30
0.000000
  70
    32
  0
VERTEX
  8
241
  5
1B75
 10
-29.4547
 20
4.62208
 30
0.000000
  70
    32
  0
VERTEX
  8
241
  5
1B76
 10
-29.4625
 20
4.60955
 30
0.000000
  70
    32
  0
VERTEX
  8
241
  5
1B77
 10
-29.4696
 20
4.59693
 30
0.000000
  70
    32
  0
VERTEX
  8
241
  5
1B78
 10
-29.4760
 20
4.58425
 30
0.000000
  70
    32
  0
VERTEX
  8
241
  5
1B79
 10
-29.4816
 20
4.57150
 30
0.000000
  70
    32
  0
VERTEX
  8
241
  5
1B7A
 10
-29.4865
 20
4.55870
 30
0.000000
  70
    32
  0
VERTEX
  8
241
  5
1B7B
 10
-29.4906
 20
4.54585
 30
0.000000
  70
    32
  0
VERTEX
  8
241
  5
1B7C
 10
-29.4940
 20
4.53297
 30
0.000000
  70
    32
  0
VERTEX
  8
241
  5
1B7D
 10
-29.4966
 20
4.52005
 30
0.000000
  70
    32
  0
VERTEX
  8
241
  5
1B7E
 10
-29.4985
 20
4.50711
 30
0.000000
  70
    32
  0
VERTEX
  8
241
  5
1B7F
 10
-29.4996
 20
4.49415
 30
0.000000
  70
    32
  0
VERTEX
  8
241
  5
1B80
 10
-29.5000
 20
4.48119
 30
0.000000
  70
    32
  0
VERTEX
  8
241
  5
1B81
 10
-29.4996
 20
4.46822
 30
0.000000
  70
    32
  0
VERTEX
  8
241
  5
1B82
 10
-29.4985
 20
4.45526
 30
0.000000
  70
    32
  0
VERTEX
  8
241
  5
1B83
 10
-29.4966
 20
4.44232
 30
0.000000
  70
    32
  0
VERTEX
  8
241
  5
1B84
 10
-29.4940
 20
4.42941
 30
0.000000
  70
    32
  0
VERTEX
  8
241
  5
1B85
 10
-29.4906
 20
4.41652
 30
0.000000
  70
    32
  0
VERTEX
  8
241
  5
1B86
 10
-29.4865
 20
4.40367
 30
0.000000
  70
    32
  0
VERTEX
  8
241
  5
1B87
 10
-29.4816
 20
4.39087
 30
0.000000
  70
    32
  0
VERTEX
  8
241
  5
1B88
 10
-29.4760
 20
4.37812
 30
0.000000
  70
    32
  0
VERTEX
  8
241
  5
1B89
 10
-29.4696
 20
4.36544
 30
0.000000
  70
    32
  0
VERTEX
  8
241
  5
1B8A
 10
-29.4625
 20
4.35283
 30
0.000000
  70
    32
  0
VERTEX
  8
241
  5
1B8B
 10
-29.4547
 20
4.34029
 30
0.000000
  70
    32
  0
VERTEX
  8
241
  5
1B8C
 10
-29.4462
 20
4.32784
 30
0.000000
  70
    32
  0
VERTEX
  8
241
  5
1B8D
 10
-29.4369
 20
4.31548
 30
0.000000
  70
    32
  0
VERTEX
  8
241
  5
1B8E
 10
-29.4269
 20
4.30322
 30
0.000000
  70
    32
  0
VERTEX
  8
241
  5
1B8F
 10
-29.4162
 20
4.29106
 30
0.000000
  70
    32
  0
VERTEX
  8
241
  5
1B90
 10
-29.4048
 20
4.27902
 30
0.000000
  70
    32
  0
VERTEX
  8
241
  5
1B91
 10
-29.3928
 20
4.26711
 30
0.000000
  70
    32
  0
VERTEX
  8
241
  5
1B92
 10
-29.3800
 20
4.25532
 30
0.000000
  70
    32
  0
VERTEX
  8
241
  5
1B93
 10
-29.3665
 20
4.24367
 30
0.000000
  70
    32
  0
VERTEX
  8
241
  5
1B94
 10
-29.3524
 20
4.23216
 30
0.000000
  70
    32
  0
VERTEX
  8
241
  5
1B95
 10
-29.3376
 20
4.22080
 30
0.000000
  70
    32
  0
VERTEX
  8
241
  5
1B96
 10
-29.3222
 20
4.20960
 30
0.000000
  70
    32
  0
VERTEX
  8
241
  5
1B97
 10
-29.3061
 20
4.19856
 30
0.000000
  70
    32
  0
VERTEX
  8
241
  5
1B98
 10
-29.2893
 20
4.18769
 30
0.000000
  70
    32
  0
VERTEX
  8
241
  5
1B99
 10
-29.2720
 20
4.17700
 30
0.000000
  70
    32
  0
VERTEX
  8
241
  5
1B9A
 10
-29.2540
 20
4.16649
 30
0.000000
  70
    32
  0
VERTEX
  8
241
  5
1B9B
 10
-29.2354
 20
4.15618
 30
0.000000
  70
    32
  0
VERTEX
  8
241
  5
1B9C
 10
-29.2163
 20
4.14605
 30
0.000000
  70
    32
  0
VERTEX
  8
241
  5
1B9D
 10
-29.1965
 20
4.13613
 30
0.000000
  70
    32
  0
VERTEX
  8
241
  5
1B9E
 10
-29.1762
 20
4.12642
 30
0.000000
  70
    32
  0
VERTEX
  8
241
  5
1B9F
 10
-29.1553
 20
4.11692
 30
0.000000
  70
    32
  0
VERTEX
  8
241
  5
1BA0
 10
-29.1339
 20
4.10764
 30
0.000000
  70
    32
  0
VERTEX
  8
241
  5
1BA1
 10
-29.1119
 20
4.09859
 30
0.000000
  70
    32
  0
VERTEX
  8
241
  5
1BA2
 10
-29.0894
 20
4.08976
 30
0.000000
  70
    32
  0
VERTEX
  8
241
  5
1BA3
 10
-29.0665
 20
4.08117
 30
0.000000
  70
    32
  0
VERTEX
  8
241
  5
1BA4
 10
-29.0430
 20
4.07283
 30
0.000000
  70
    32
  0
VERTEX
  8
241
  5
1BA5
 10
-29.0190
 20
4.06472
 30
0.000000
  70
    32
  0
VERTEX
  8
241
  5
1BA6
 10
-28.9946
 20
4.05687
 30
0.000000
  70
    32
  0
VERTEX
  8
241
  5
1BA7
 10
-28.9698
 20
4.04928
 30
0.000000
  70
    32
  0
VERTEX
  8
241
  5
1BA8
 10
-28.9445
 20
4.04194
 30
0.000000
  70
    32
  0
VERTEX
  8
241
  5
1BA9
 10
-28.9187
 20
4.03487
 30
0.000000
  70
    32
  0
VERTEX
  8
241
  5
1BAA
 10
-28.8926
 20
4.02807
 30
0.000000
  70
    32
  0
VERTEX
  8
241
  5
1BAB
 10
-28.8661
 20
4.02154
 30
0.000000
  70
    32
  0
VERTEX
  8
241
  5
1BAC
 10
-28.8392
 20
4.01529
 30
0.000000
  70
    32
  0
VERTEX
  8
241
  5
1BAD
 10
-28.8120
 20
4.00932
 30
0.000000
  70
    32
  0
VERTEX
  8
241
  5
1BAE
 10
-28.7844
 20
4.00363
 30
0.000000
  70
    32
  0
VERTEX
  8
241
  5
1BAF
 10
-28.7566
 20
3.99823
 30
0.000000
  70
    32
  0
VERTEX
  8
241
  5
1BB0
 10
-28.7284
 20
3.99313
 30
0.000000
  70
    32
  0
VERTEX
  8
241
  5
1BB1
 10
-28.6999
 20
3.98831
 30
0.000000
  70
    32
  0
VERTEX
  8
241
  5
1BB2
 10
-28.6711
 20
3.98379
 30
0.000000
  70
    32
  0
VERTEX
  8
241
  5
1BB3
 10
-28.6421
 20
3.97958
 30
0.000000
  70
    32
  0
VERTEX
  8
241
  5
1BB4
 10
-28.6129
 20
3.97566
 30
0.000000
  70
    32
  0
VERTEX
  8
241
  5
1BB5
 10
-28.5834
 20
3.97205
 30
0.000000
  70
    32
  0
VERTEX
  8
241
  5
1BB6
 10
-28.5537
 20
3.96874
 30
0.000000
  70
    32
  0
VERTEX
  8
241
  5
1BB7
 10
-28.5239
 20
3.96575
 30
0.000000
  70
    32
  0
VERTEX
  8
241
  5
1BB8
 10
-28.4939
 20
3.96306
 30
0.000000
  70
    32
  0
VERTEX
  8
241
  5
1BB9
 10
-28.4637
 20
3.96069
 30
0.000000
  70
    32
  0
VERTEX
  8
241
  5
1BBA
 10
-28.4334
 20
3.95863
 30
0.000000
  70
    32
  0
VERTEX
  8
241
  5
1BBB
 10
-28.4030
 20
3.95689
 30
0.000000
  70
    32
  0
VERTEX
  8
241
  5
1BBC
 10
-28.3725
 20
3.95546
 30
0.000000
  70
    32
  0
VERTEX
  8
241
  5
1BBD
 10
-28.3420
 20
3.95434
 30
0.000000
  70
    32
  0
VERTEX
  8
241
  5
1BBE
 10
-28.3113
 20
3.95355
 30
0.000000
  70
    32
  0
VERTEX
  8
241
  5
1BBF
 10
-28.2807
 20
3.95307
 30
0.000000
  70
    32
  0
VERTEX
  8
241
  5
1BC0
 10
-28.2500
 20
3.95291
 30
0.000000
  70
    32
  0
SEQEND
  8
241
  5
1BC1
  0
LINE
  5
187A
  8
241
 10
0.5500000000000967
 20
3.1256673487823572
 30
0.0
 11
9.9999999999998295
 21
3.125667348782371
 31
0.0
  0
LINE
  5
187B
  8
241
 10
0.1500000000000909
 20
3.5256673487823629
 30
0.0
 11
0.1500000000000909
 21
3.542674049853658
 31
0.0
  0
ARC
  5
187C
  8
241
 10
0.5500000000000967
 20
3.5256673487823629
 30
0.0
 40
0.4
 50
180.0
 51
270.0
  0
LINE
  5
187D
  8
247
 10
-90.887488225226079
 20
5.9027677713245552
 30
0.0
 11
-90.887488225226079
 21
5.9027677713245552
 31
0.0
1001
HATCH_DISTANCE
1040
1.0
1001
HATCH_DISPLAY
1070
     0
1001
HATCH_TYPE
1070
     7
  0
LINE
  5
187E
  8
247
 10
-90.978777745489765
 20
6.1922689615101003
 30
0.0
 11
-90.887488225226079
 21
5.9027677713245552
 31
0.0
1001
HATCH_DISTANCE
1040
1.0
1001
HATCH_DISPLAY
1070
     0
1001
HATCH_TYPE
1070
     7
  0
LINE
  5
187F
  8
247
 10
-90.978777745489765
 20
6.1922689615101003
 30
0.0
 11
-90.978777745489765
 21
6.1922689615101003
 31
0.0
1001
HATCH_DISTANCE
1040
1.0
1001
HATCH_DISPLAY
1070
     0
1001
HATCH_TYPE
1070
     7
  0
LINE
  5
1880
  8
247
 10
-90.887488225226079
 20
5.9027677713245552
 30
0.0
 11
-90.978777745489765
 21
6.1922689615101003
 31
0.0
1001
HATCH_DISTANCE
1040
1.0
1001
HATCH_DISPLAY
1070
     0
1001
HATCH_TYPE
1070
     7
  0
LINE
  5
1881
  8
247
 10
-90.887488225226079
 20
5.9027677713245552
 30
0.0
 11
-90.887488225226079
 21
5.9027677713245552
 31
0.0
  0
LINE
  5
1882
  8
247
 10
-90.978777745489765
 20
6.1922689615101003
 30
0.0
 11
-90.887488225226079
 21
5.9027677713245552
 31
0.0
  0
LINE
  5
1883
  8
247
 10
-90.978777745489765
 20
6.1922689615101003
 30
0.0
 11
-90.978777745489765
 21
6.1922689615101003
 31
0.0
  0
LINE
  5
1884
  8
247
 10
-90.887488225226079
 20
5.9027677713245552
 30
0.0
 11
-90.978777745489765
 21
6.1922689615101003
 31
0.0
  0
LINE
  5
1885
  8
247
 10
-90.887488225226079
 20
5.9027677713245552
 30
0.0
 11
-90.887488225226079
 21
5.9027677713245552
 31
0.0
1001
HATCH_DISTANCE
1040
1.0
1001
HATCH_DISPLAY
1070
     0
1001
HATCH_TYPE
1070
     7
  0
LINE
  5
1886
  8
247
 10
-90.978777745489765
 20
6.1922689615101003
 30
0.0
 11
-90.887488225226079
 21
5.9027677713245552
 31
0.0
1001
HATCH_DISTANCE
1040
1.0
1001
HATCH_DISPLAY
1070
     0
1001
HATCH_TYPE
1070
     7
  0
LINE
  5
1887
  8
247
 10
-90.978777745489765
 20
6.1922689615101003
 30
0.0
 11
-90.978777745489765
 21
6.1922689615101003
 31
0.0
1001
HATCH_DISTANCE
1040
1.0
1001
HATCH_DISPLAY
1070
     0
1001
HATCH_TYPE
1070
     7
  0
LINE
  5
1888
  8
247
 10
-90.887488225226079
 20
5.9027677713245552
 30
0.0
 11
-90.978777745489765
 21
6.1922689615101003
 31
0.0
1001
HATCH_DISTANCE
1040
1.0
1001
HATCH_DISPLAY
1070
     0
1001
HATCH_TYPE
1070
     7
  0
LINE
  5
1889
  8
247
 10
-90.887488225226079
 20
5.9027677713245552
 30
0.0
 11
-90.887488225226079
 21
5.9027677713245552
 31
0.0
  0
LINE
  5
188A
  8
247
 10
-90.978777745489765
 20
6.1922689615101003
 30
0.0
 11
-90.887488225226079
 21
5.9027677713245552
 31
0.0
  0
LINE
  5
188B
  8
247
 10
-90.978777745489765
 20
6.1922689615101003
 30
0.0
 11
-90.978777745489765
 21
6.1922689615101003
 31
0.0
  0
LINE
  5
188C
  8
247
 10
-90.887488225226079
 20
5.9027677713245552
 30
0.0
 11
-90.978777745489765
 21
6.1922689615101003
 31
0.0
  0
LINE
  5
188D
  8
247
 10
-92.931345799688984
 20
6.24485456331674
 30
0.0
 11
-93.71970639539208
 21
6.24485456331674
 31
0.0
1001
HATCH_DISTANCE
1040
1.0
1001
HATCH_DISPLAY
1070
     0
1001
HATCH_TYPE
1070
     7
  0
LINE
  5
188E
  8
247
 10
-93.713629582647954
 20
3.516697162231841
 30
0.0
 11
-92.931345799688984
 21
6.24485456331674
 31
0.0
1001
HATCH_DISTANCE
1040
1.0
1001
HATCH_DISPLAY
1070
     0
1001
HATCH_TYPE
1070
     7
  0
LINE
  5
188F
  8
247
 10
-94.391623357062031
 20
3.516697162231841
 30
0.0
 11
-93.713629582647954
 21
3.516697162231841
 31
0.0
1001
HATCH_DISTANCE
1040
1.0
1001
HATCH_DISPLAY
1070
     0
1001
HATCH_TYPE
1070
     7
  0
LINE
  5
1890
  8
247
 10
-93.704943516974112
 20
5.91141950472299
 30
0.0
 11
-94.391623357062031
 21
3.516697162231841
 31
0.0
1001
HATCH_DISTANCE
1040
1.0
1001
HATCH_DISPLAY
1070
     0
1001
HATCH_TYPE
1070
     7
  0
LINE
  5
1891
  8
247
 10
-93.815321782354971
 20
5.91141950472299
 30
0.0
 11
-93.704943516974112
 21
5.91141950472299
 31
0.0
1001
HATCH_DISTANCE
1040
1.0
1001
HATCH_DISPLAY
1070
     0
1001
HATCH_TYPE
1070
     7
  0
LINE
  5
1892
  8
247
 10
-93.71970639539208
 20
6.24485456331674
 30
0.0
 11
-93.815321782354971
 21
5.91141950472299
 31
0.0
1001
HATCH_DISTANCE
1040
1.0
1001
HATCH_DISPLAY
1070
     0
1001
HATCH_TYPE
1070
     7
  0
LINE
  5
1893
  8
247
 10
-92.931345799688984
 20
6.24485456331674
 30
0.0
 11
-93.71970639539208
 21
6.24485456331674
 31
0.0
  0
LINE
  5
1894
  8
247
 10
-93.713629582647954
 20
3.516697162231841
 30
0.0
 11
-92.931345799688984
 21
6.24485456331674
 31
0.0
  0
LINE
  5
1895
  8
247
 10
-94.391623357062031
 20
3.516697162231841
 30
0.0
 11
-93.713629582647954
 21
3.516697162231841
 31
0.0
  0
LINE
  5
1896
  8
247
 10
-93.704943516974112
 20
5.91141950472299
 30
0.0
 11
-94.391623357062031
 21
3.516697162231841
 31
0.0
  0
LINE
  5
1897
  8
247
 10
-93.815321782354971
 20
5.91141950472299
 30
0.0
 11
-93.704943516974112
 21
5.91141950472299
 31
0.0
  0
LINE
  5
1898
  8
247
 10
-93.71970639539208
 20
6.24485456331674
 30
0.0
 11
-93.815321782354971
 21
5.91141950472299
 31
0.0
  0
LINE
  5
1899
  8
247
 10
-93.731445589292377
 20
3.5166971622318348
 30
0.0
 11
-93.706467158045868
 21
3.5416755934783661
 31
0.0
  0
LINE
  5
189A
  8
247
 10
-94.068205193832483
 20
3.5166971622318419
 30
0.0
 11
-93.571082426512731
 21
4.0138199295516079
 31
0.0
  0
LINE
  5
189B
  8
247
 10
-94.386259732460886
 20
3.5354022281435169
 30
0.0
 11
-93.435697694979595
 21
4.4859642656248289
 31
0.0
  0
LINE
  5
189C
  8
247
 10
-94.25087315333991
 20
4.0075484118046134
 30
0.0
 11
-93.300312963446444
 21
4.9581086016980711
 31
0.0
  0
LINE
  5
189D
  8
247
 10
-94.11548657421892
 20
4.4796945954656939
 30
0.0
 11
-93.164928231913294
 21
5.4302529377713
 31
0.0
  0
LINE
  5
189E
  8
247
 10
-93.980099995097902
 20
4.9518407791267904
 30
0.0
 11
-93.029543500380171
 21
5.9023972738445281
 31
0.0
  0
LINE
  5
189F
  8
247
 10
-93.844713415976912
 20
5.4239869627878639
 30
0.0
 11
-93.023845815448055
 21
6.2448545633167276
 31
0.0
  0
LINE
  5
18A0
  8
247
 10
-93.709326836855936
 20
5.8961331464489666
 30
0.0
 11
-93.360605419988133
 21
6.2448545633167418
 31
0.0
  0
LINE
  5
18A1
  8
247
 10
-93.728688742419067
 20
6.2135308454259208
 30
0.0
 11
-93.697365024528224
 21
6.2448545633167347
 31
0.0
  0
LINE
  5
18A2
  8
247
 10
-90.060095059612294
 20
3.1469324374307699
 30
0.0
 11
-89.066543638402578
 21
4.1404838586405068
 31
0.0
  0
LINE
  5
18A3
  8
247
 10
-89.382413642709651
 20
4.1613734588735616
 30
0.0
 11
-88.984392580619456
 21
4.5593945209637416
 31
0.0
  0
LINE
  5
18A4
  8
247
 10
-90.479005721935565
 20
3.064781379647648
 30
0.0
 11
-90.080984659845384
 21
3.462802441737828
 31
0.0
  0
LINE
  5
18A5
  8
247
 10
-89.28609372996948
 20
4.5944529761538169
 30
0.0
 11
-88.998167317728715
 21
4.8823793883945683
 31
0.0
  0
LINE
  5
18A6
  8
247
 10
-90.818546191363495
 20
3.0620005147598088
 30
0.0
 11
-90.514064177125661
 21
3.366482528997643
 31
0.0
  0
LINE
  5
18A7
  8
247
 10
-89.310005179503307
 20
4.9073011311600894
 30
0.0
 11
-89.062616535846146
 21
5.1546897748172489
 31
0.0
  0
LINE
  5
18A8
  8
247
 10
-91.155305795903544
 20
3.0620005147598159
 30
0.0
 11
-90.852174700189366
 21
3.3651316104740152
 31
0.0
  0
LINE
  5
18A9
  8
247
 10
-89.390184978132623
 20
5.1638809370708572
 30
0.0
 11
-89.162925606073443
 21
5.3911403091300221
 31
0.0
  0
LINE
  5
18AA
  8
247
 10
-91.492065400443664
 20
3.0620005147598088
 30
0.0
 11
-91.188934304729457
 21
3.3651316104740081
 31
0.0
  0
LINE
  5
18AB
  8
247
 10
-89.50984736135652
 20
5.3809781583870651
 30
0.0
 11
-89.292493789807764
 21
5.5983317299358211
 31
0.0
  0
LINE
  5
18AC
  8
247
 10
-91.828825004983784
 20
3.0620005147598159
 30
0.0
 11
-91.525693909269563
 21
3.3651316104740152
 31
0.0
  0
LINE
  5
18AD
  8
247
 10
-89.662635676227183
 20
5.5649494480565016
 30
0.0
 11
-89.448289584644684
 21
5.7792955396389942
 31
0.0
  0
LINE
  5
18AE
  8
247
 10
-92.165584609523862
 20
3.0620005147598159
 30
0.0
 11
-91.862453513809655
 21
3.3651316104740232
 31
0.0
  0
LINE
  5
18AF
  8
247
 10
-89.846817330273566
 20
5.717527398550188
 30
0.0
 11
-89.629422660279644
 21
5.9349220685441253
 31
0.0
  0
LINE
  5
18B0
  8
247
 10
-92.502344214063939
 20
3.0620005147598088
 30
0.0
 11
-92.199213118349746
 21
3.3651316104740232
 31
0.0
  0
LINE
  5
18B1
  8
247
 10
-90.064149189861084
 20
5.8369551435027907
 30
0.0
 11
-89.836795612301756
 21
6.0643087210621109
 31
0.0
  0
LINE
  5
18B2
  8
247
 10
-92.839103818604045
 20
3.062000514759823
 30
0.0
 11
-92.535972722889824
 21
3.3651316104740299
 31
0.0
  0
LINE
  5
18B3
  8
247
 10
-90.321029291002674
 20
5.916834646901278
 30
0.0
 11
-90.073457220847303
 21
6.1644067170566643
 31
0.0
  0
LINE
  5
18B4
  8
247
 10
-93.175863423144136
 20
3.0620005147598159
 30
0.0
 11
-92.872732327429929
 21
3.3651316104740232
 31
0.0
  0
LINE
  5
18B5
  8
247
 10
-90.634360324840245
 20
5.9402632176037784
 30
0.0
 11
-90.346041380162731
 21
6.228582162281306
 31
0.0
  0
LINE
  5
18B6
  8
247
 10
-93.512623027684228
 20
3.0620005147598159
 30
0.0
 11
-93.209491931970035
 21
3.3651316104740081
 31
0.0
  0
LINE
  5
18B7
  8
247
 10
-90.916526852352604
 20
5.9948562946315098
 30
0.0
 11
-90.669451739576772
 21
6.241931407407356
 31
0.0
  0
LINE
  5
18B8
  8
247
 10
-93.849382632224319
 20
3.0620005147598159
 30
0.0
 11
-93.546251536510084
 21
3.3651316104740299
 31
0.0
  0
LINE
  5
18B9
  8
247
 10
-94.186142236764425
 20
3.0620005147598159
 30
0.0
 11
-93.883011141050204
 21
3.3651316104740232
 31
0.0
  0
LINE
  5
18BA
  8
247
 10
-94.522901841304517
 20
3.062000514759823
 30
0.0
 11
-94.219770745590296
 21
3.3651316104740441
 31
0.0
  0
LINE
  5
18BB
  8
247
 10
-94.859661445844608
 20
3.0620005147598088
 30
0.0
 11
-94.556530350130373
 21
3.3651316104740299
 31
0.0
  0
LINE
  5
18BC
  8
247
 10
-95.196421050384686
 20
3.0620005147598301
 30
0.0
 11
-94.893289954670465
 21
3.365131610474037
 31
0.0
  0
LINE
  5
18BD
  8
247
 10
-95.533180654924806
 20
3.0620005147598159
 30
0.0
 11
-95.230049559210585
 21
3.3651316104740232
 31
0.0
  0
LINE
  5
18BE
  8
247
 10
-95.869940259464883
 20
3.0620005147598301
 30
0.0
 11
-95.566809163750662
 21
3.365131610474037
 31
0.0
  0
LINE
  5
18BF
  8
247
 10
-96.206699864004946
 20
3.062000514759823
 30
0.0
 11
-95.903568768290754
 21
3.3651316104740232
 31
0.0
  0
LINE
  5
18C0
  8
247
 10
-96.543459468545052
 20
3.0620005147598368
 30
0.0
 11
-96.240328372830845
 21
3.3651316104740299
 31
0.0
  0
LINE
  5
18C1
  8
247
 10
-96.873427413340764
 20
3.0687921745041962
 30
0.0
 11
-96.577087977370937
 21
3.3651316104740299
 31
0.0
  0
LINE
  5
18C2
  8
247
 10
-97.157516575616711
 20
3.121462616768369
 30
0.0
 11
-96.901864439763983
 21
3.3771147526210958
 31
0.0
  0
LINE
  5
18C3
  8
247
 10
-97.402878528994904
 20
3.212860267930238
 30
0.0
 11
-97.171378398143275
 21
3.4443603987819031
 31
0.0
  0
LINE
  5
18C4
  8
247
 10
-97.617638489586284
 20
3.334859911878993
 30
0.0
 11
-97.398347461243887
 21
3.5541509402213829
 31
0.0
  0
LINE
  5
18C5
  8
247
 10
-97.80558976358229
 20
3.4836682424230712
 30
0.0
 11
-97.591028213231866
 21
3.6982297927734962
 31
0.0
  0
LINE
  5
18C6
  8
247
 10
-97.968140447973553
 20
3.6578771625718849
 30
0.0
 11
-97.752194319522516
 21
3.8738232910229371
 31
0.0
  0
LINE
  5
18C7
  8
247
 10
-98.104881954304005
 20
3.8578952607815258
 30
0.0
 11
-97.881055954010904
 21
4.0817212610746401
 31
0.0
  0
LINE
  5
18C8
  8
247
 10
-96.357813359824519
 20
5.9417234598011097
 30
0.0
 11
-96.119000280637152
 21
6.1805365389884841
 31
0.0
  0
LINE
  5
18C9
  8
247
 10
-98.213431997146756
 20
4.0861048224788936
 30
0.0
 11
-97.972758152162385
 21
4.3267786674632509
 31
0.0
  0
LINE
  5
18CA
  8
247
 10
-96.694572964364596
 20
5.9417234598011168
 30
0.0
 11
-96.391441860848985
 21
6.2448545633167418
 31
0.0
  0
LINE
  5
18CB
  8
247
 10
-98.288386680453954
 20
4.3479097437117673
 30
0.0
 11
-98.014469523206813
 21
4.6218269009589292
 31
0.0
  0
LINE
  5
18CC
  8
247
 10
-97.081068367303203
 20
5.8919876614026228
 30
0.0
 11
-96.728202311349975
 21
6.2448537173558369
 31
0.0
  0
LINE
  5
18CD
  8
247
 10
-98.317987409782745
 20
4.6550686189230879
 30
0.0
 11
-97.965121353829517
 21
5.0079346748763021
 31
0.0
  0
LINE
  5
18CE
  8
247
 10
-98.270492897395513
 20
5.039322735850412
 30
0.0
 11
-97.112456428277341
 21
6.1973592049685839
 31
0.0
  0
LINE
  5
18CF
  8
247
 10
-91.553372163547934
 20
3.674212960735765
 30
0.0
 11
-91.269191329335484
 21
3.958393794948214
 31
0.0
  0
LINE
  5
18D0
  8
247
 10
-92.043050706861223
 20
3.5212940219625182
 30
0.0
 11
-91.133805288457708
 21
4.4305394403660401
 31
0.0
  0
LINE
  5
18D1
  8
247
 10
-91.900035284313077
 20
4.001069049050769
 30
0.0
 11
-90.998419247579989
 21
4.9026850857838786
 31
0.0
  0
LINE
  5
18D2
  8
247
 10
-92.359294282149193
 20
3.5418100512146671
 30
0.0
 11
-92.003413404319474
 21
3.897690929044372
 31
0.0
  0
LINE
  5
18D3
  8
247
 10
-91.747279345000422
 20
4.4905845929035229
 30
0.0
 11
-91.175206945387998
 21
5.0626569925159544
 31
0.0
  0
LINE
  5
18D4
  8
247
 10
-92.604076527294581
 20
3.6337874106093788
 30
0.0
 11
-92.339389852421945
 21
3.8984740854819999
 31
0.0
  0
LINE
  5
18D5
  8
247
 10
-91.815097653443715
 20
4.7595258890003427
 30
0.0
 11
-91.511966549928104
 21
5.0626569925159606
 31
0.0
  0
LINE
  5
18D6
  8
247
 10
-92.801348227012028
 20
3.7732753154320369
 30
0.0
 11
-92.480309825678631
 21
4.0943137167654049
 31
0.0
  0
LINE
  5
18D7
  8
247
 10
-91.068911465316035
 20
5.8424716816681084
 30
0.0
 11
-91.037350789734461
 21
5.8740323572496527
 31
0.0
  0
LINE
  5
18D8
  8
247
 10
-92.957162932345966
 20
3.9542202146381831
 30
0.0
 11
-92.404968862648118
 21
4.506414284335996
 31
0.0
  0
LINE
  5
18D9
  8
247
 10
-91.490044249169998
 20
5.7580985023542288
 30
0.0
 11
-91.118084436588347
 21
6.1300583149358649
 31
0.0
  0
LINE
  5
18DA
  8
247
 10
-93.069032309121027
 20
4.1791104424031849
 30
0.0
 11
-92.269582361574038
 21
4.9785603899501742
 31
0.0
  0
LINE
  5
18DB
  8
247
 10
-91.683407047285115
 20
5.9014953087792028
 30
0.0
 11
-91.456424542750383
 21
6.1284778133139417
 31
0.0
  0
LINE
  5
18DC
  8
247
 10
-93.122605734116306
 20
4.4622966219480338
 30
0.0
 11
-92.134195860499986
 21
5.4507064955643472
 31
0.0
  0
LINE
  5
18DD
  8
247
 10
-93.074888641933484
 20
4.8467733186709259
 30
0.0
 11
-91.701542912163845
 21
6.2201190484405648
 31
0.0
  0
LINE
  5
18DE
  8
247
 10
-92.963086870564666
 20
5.2953346945798643
 30
0.0
 11
-92.018399718481433
 21
6.240021846663061
 31
0.0
  0
TEXT
  5
18DF
  8
247
 10
-87.974312790015588
 20
3.494196058338324
 30
0.0
 40
2.5
  1
ST16-BFM10/17.5-25
  7
YOKO
 11
-87.974312790015588
 21
3.494196058338324
 31
0.0
 73
     1
  0
LINE
  5
18E0
  8
247
 10
-91.032038548712421
 20
5.8571859536975932
 30
0.0
 11
-91.123328068976093
 21
6.1466871438831383
 31
0.0
  0
ARC
  5
18E1
  8
247
 10
-90.57303891492333
 20
4.6534277139515083
 30
0.0
 40
1.288299322128293
 50
110.8721834020772
 51
132.54194893738571
  0
ARC
  5
18E2
  8
247
 10
-91.762240269903813
 20
5.5931249795765083
 30
0.0
 40
0.3182875066995621
 50
1.7101213820643839
 51
163.99839835444811
  0
LINE
  5
18E3
  8
247
 10
-92.476729253058124
 20
4.2561575113147949
 30
0.0
 11
-92.068198064093281
 21
5.6808668313831561
 31
0.0
  0
ARC
  5
18E4
  8
247
 10
-92.170771458868657
 20
4.1684271035999441
 30
0.0
 40
0.3182872831821442
 50
164.0002730571837
 51
344.00027305718362
  0
LINE
  5
18E5
  8
247
 10
-91.86481366467919
 20
4.0806966958851092
 30
0.0
 11
-91.670161107306171
 21
4.7595258890003409
 31
0.0
  0
LINE
  5
18E6
  8
247
 10
-91.922434666876484
 20
4.7595258890003409
 30
0.0
 11
-91.670161107306171
 21
4.7595258890003409
 31
0.0
  0
LINE
  5
18E7
  8
247
 10
-91.922434666876484
 20
4.7595258890003409
 30
0.0
 11
-91.83551678967919
 21
5.0626569925159668
 31
0.0
  0
LINE
  5
18E8
  8
247
 10
-91.83551678967919
 20
5.0626569925159668
 30
0.0
 11
-90.952547887091299
 21
5.0626569925159526
 31
0.0
  0
LINE
  5
18E9
  8
247
 10
-91.395846226935035
 20
3.516697162231849
 30
0.0
 11
-90.952547887091299
 21
5.0626569925159526
 31
0.0
  0
LINE
  5
18EA
  8
247
 10
-91.573664525274921
 20
3.6945040164798959
 30
0.0
 11
-91.395846226935035
 21
3.516697162231849
 31
0.0
  0
ARC
  5
18EB
  8
247
 10
-92.13822446179833
 20
4.5018621621936941
 30
0.0
 40
0.9851760864257813
 50
163.99975070172709
 51
304.96387329163082
  0
ARC
  5
18EC
  8
247
 10
-90.527514317755362
 20
4.4500662027210378
 30
0.0
 40
2.5780792236328121
 50
155.20517736984181
 51
172.7948259620502
  0
ARC
  5
18ED
  8
247
 10
-91.920924046759268
 20
5.2596899209827566
 30
0.0
 40
0.9851660728454588
 50
53.4440121970555
 51
164.00018438768501
  0
ARC
  5
18EE
  8
247
 10
-90.57303891492333
 20
4.6534277139515083
 30
0.0
 40
1.591427564620969
 50
110.22964506332001
 51
118.57168892371681
  0
LINE
  5
18EF
  8
247
 10
-96.100558140997549
 20
6.244854563316748
 30
0.0
 11
-96.187476018194843
 21
5.9417234598011239
 31
0.0
  0
LINE
  5
18F0
  8
247
 10
-96.726561406378423
 20
6.244854563316748
 30
0.0
 11
-96.100558140997549
 21
6.244854563316748
 31
0.0
  0
LINE
  5
18F1
  8
247
 10
-96.726561406378423
 20
5.9417234598011239
 30
0.0
 11
-96.187476018194843
 21
5.9417234598011239
 31
0.0
  0
ARC
  5
18F2
  8
247
 10
-96.726561406378423
 20
4.6534277139515083
 30
0.0
 40
1.288295745849608
 50
90.0
 51
270.0
  0
ARC
  5
18F3
  8
247
 10
-96.726561406378423
 20
4.6534277139515083
 30
0.0
 40
1.591426849365233
 50
90.0
 51
270.0
  0
LINE
  5
18F4
  8
247
 10
-96.726561406378423
 20
3.0620005147598301
 30
0.0
 11
-90.57303891492333
 21
3.0620005147598159
 31
0.0
  0
LINE
  5
18F5
  8
247
 10
-96.726561406378423
 20
3.3651316104740361
 30
0.0
 11
-90.57303891492333
 21
3.3651316104740201
 31
0.0
  0
ARC
  5
18F6
  8
247
 10
-90.57303891492333
 20
4.6534277139515083
 30
0.0
 40
1.591426849365233
 50
270.0
 51
104.7707939660941
  0
ARC
  5
18F7
  8
247
 10
-90.57303891492333
 20
4.6534277139515083
 30
0.0
 40
1.288295745849608
 50
270.0
 51
104.1274364964119
  0
LINE
  5
18F8
  8
247
 10
-90.887488225226079
 20
5.9027677713245437
 30
0.0
 11
-90.978777745489765
 21
6.1922689615100932
 31
0.0
  0
LINE
  5
18F9
  8
247
 10
-93.713629582647954
 20
3.516697162231849
 30
0.0
 11
-92.931345799688984
 21
6.244854563316748
 31
0.0
  0
LINE
  5
18FA
  8
247
 10
-96.567499974493657
 20
3.516697162231849
 30
0.0
 11
-95.872134068732279
 21
5.9417234598002411
 31
0.0
  0
LINE
  5
18FB
  8
247
 10
-95.203539623516264
 20
4.4019203597886172
 30
0.0
 11
-94.209559947584864
 21
5.3959000357200457
 31
0.0
  0
LINE
  5
18FC
  8
247
 10
-96.353807188473084
 20
4.2619316084521284
 30
0.0
 11
-95.292717984213184
 21
5.323020812711972
 31
0.0
  0
ARC
  5
18FD
  8
247
 10
-95.300066807989765
 20
5.5173422036976003
 30
0.0
 40
0.4546839594841006
 50
261.6626016879294
 51
66.338155095189762
  0
LINE
  5
18FE
  8
247
 10
-95.321092473334787
 20
4.6211271145102133
 30
0.0
 11
-94.236344265735056
 21
5.7058753221099323
 31
0.0
  0
ARC
  5
18FF
  8
247
 10
-94.961882451300312
 20
5.4870382486194753
 30
0.0
 40
0.7578227519989014
 50
287.66957754739798
 51
90.236159842671626
  0
LINE
  5
1900
  8
247
 10
-96.218421566796096
 20
4.7340768346691942
 30
0.0
 11
-95.157336831243313
 21
5.795161570221949
 31
0.0
  0
LINE
  5
1901
  8
247
 10
-95.117583682421696
 20
5.9338003791426646
 30
0.0
 11
-95.365996213936668
 21
5.0674635351172688
 31
0.0
  0
LINE
  5
1902
  8
247
 10
-94.391623357062031
 20
3.516697162231849
 30
0.0
 11
-93.704943516974112
 21
5.9114195047229989
 31
0.0
  0
LINE
  5
1903
  8
247
 10
-93.71970639539208
 20
6.244854563316748
 30
0.0
 11
-92.931345799688984
 21
6.244854563316748
 31
0.0
  0
LINE
  5
1904
  8
247
 10
-95.053276545073487
 20
5.8992218563917884
 30
0.0
 11
-94.740649065439143
 21
6.2118493360261171
 31
0.0
  0
LINE
  5
1905
  8
247
 10
-94.893943258925219
 20
5.7217955379999799
 30
0.0
 11
-94.515961175382174
 21
6.0997776215430104
 31
0.0
  0
LINE
  5
1906
  8
247
 10
-95.942892888311818
 20
6.244854563316748
 30
0.0
 11
-94.965006011127286
 21
6.2448545633166344
 31
0.0
  0
LINE
  5
1907
  8
247
 10
-95.947650323442105
 20
5.678367287103355
 30
0.0
 11
-95.381163047228753
 21
6.2448545633166912
 31
0.0
  0
LINE
  5
1908
  8
247
 10
-96.029810765509623
 20
5.9417234598011239
 30
0.0
 11
-95.872134068732279
 21
5.9417234598002411
 31
0.0
  0
LINE
  5
1909
  8
247
 10
-95.942892888311818
 20
6.244854563316748
 30
0.0
 11
-96.029810765509623
 21
5.9417234598011239
 31
0.0
  0
LINE
  5
190A
  8
247
 10
-96.021053755284456
 20
5.9417234598010964
 30
0.0
 11
-95.717922651768845
 21
6.2448545633167214
 31
0.0
  0
LINE
  5
190B
  8
247
 10
-94.8550904579497
 20
5.4238887344354216
 30
0.0
 11
-94.347829820383694
 21
5.9311493720014141
 31
0.0
  0
LINE
  5
190C
  8
247
 10
-96.083035945119093
 20
5.2062220608862599
 30
0.0
 11
-95.044403442688704
 21
6.2448545633166344
 31
0.0
  0
LINE
  5
190D
  8
247
 10
-93.815321782354971
 20
5.9114195047229989
 30
0.0
 11
-93.704943516974112
 21
5.9114195047229989
 31
0.0
  0
LINE
  5
190E
  8
247
 10
-93.815321782354971
 20
5.9114195047229989
 30
0.0
 11
-93.71970639539208
 21
6.244854563316748
 31
0.0
  0
LINE
  5
190F
  8
247
 10
-95.752003216532984
 20
3.516697162231849
 30
0.0
 11
-94.639746276675282
 21
4.6289541020895513
 31
0.0
  0
ARC
  5
1910
  8
247
 10
-95.309565404181171
 20
4.2745138345569753
 30
0.0
 40
0.7578163146972659
 50
270.0
 51
40.329840654168393
  0
LINE
  5
1911
  8
247
 10
-95.415243611992878
 20
3.516697162231821
 30
0.0
 11
-94.558264894633879
 21
4.3736758795908459
 31
0.0
  0
LINE
  5
1912
  8
247
 10
-96.489192810150016
 20
3.7897863822350639
 30
0.0
 11
-95.206613338727564
 21
5.0723658536575149
 31
0.0
  0
ARC
  5
1913
  8
247
 10
-95.647749760870624
 20
4.3048292337268972
 30
0.0
 40
0.4546969681978227
 50
261.6628542111489
 51
66.338192159110065
  0
LINE
  5
1914
  8
247
 10
-95.465263017377367
 20
4.7213000266253839
 30
0.0
 11
-95.713679635592428
 21
3.8549374861837271
 31
0.0
  0
LINE
  5
1915
  8
247
 10
-96.425522425613167
 20
3.516697162231849
 30
0.0
 11
-95.563490018929514
 21
4.3787295689155012
 31
0.0
  0
LINE
  5
1916
  8
247
 10
-95.021666449940597
 20
3.5735147197440229
 30
0.0
 11
-94.608566289368241
 21
3.986614880316381
 31
0.0
  0
LINE
  5
1917
  8
247
 10
-96.567499974493657
 20
3.516697162231849
 30
0.0
 11
-95.309565404181171
 21
3.516697162231849
 31
0.0
  0
LINE
  5
1918
  8
247
 10
-96.088762821073104
 20
3.516697162231849
 30
0.0
 11
-95.698868664701422
 21
3.906591318603517
 31
0.0
  0
LINE
  5
1919
  8
247
 10
-94.391623357062031
 20
3.516697162231849
 30
0.0
 11
-93.713629582647954
 21
3.516697162231849
 31
0.0
  0
ENDBLK
  5
191D
  8
0
  0
BLOCK
  8
0
  2
*U21
 70
     1
 10
0.0
 20
0.0
 30
0.0
  3
*U21
  1

  0
TEXT
  5
1939
  8
250
 62
    40
 10
65.535714285714207
 20
84.500000000000014
 30
0.0
 40
1.5
  1
68
  0
ENDBLK
  5
193B
  8
0
  0
BLOCK
  8
0
  2
*U22
 70
     1
 10
0.0
 20
0.0
 30
0.0
  3
*U22
  1

  0
TEXT
  5
193D
  8
250
 62
    40
 10
90.680888111321735
 20
57.074394728413651
 30
0.0
 40
1.5
  1
30°
 50
287.92804259846878
  0
ENDBLK
  5
193F
  8
0
  0
BLOCK
  8
0
  2
*U23
 70
     1
 10
0.0
 20
0.0
 30
0.0
  3
*U23
  1

  0
TEXT
  5
1941
  8
250
 62
    40
 10
117.0
 20
73.072142857142921
 30
0.0
 40
1.5
  1
\U+2205
 50
90.0
  0
TEXT
  5
1942
  8
250
 62
    40
 10
117.0
 20
74.429285714285768
 30
0.0
 40
1.5
  1
10.2
 50
90.0
  0
TEXT
  5
1943
  8
250
 62
    40
 10
115.59999999999999
 20
79.429285714285768
 30
0.0
 40
1.05
  1
 0
 50
90.0
  0
TEXT
  5
1944
  8
250
 62
    40
 10
117.0
 20
79.429285714285768
 30
0.0
 40
1.05
  1
 -0.1
 50
90.0
  0
ENDBLK
  5
1946
  8
0
  0
BLOCK
  8
0
  2
*U24
 70
     1
 10
0.0
 20
0.0
 30
0.0
  3
*U24
  1

  0
TEXT
  5
1948
  8
250
 62
    40
 10
132.58499999999989
 20
85.0
 30
0.0
 40
1.5
  1
10
  0
TEXT
  5
1949
  8
250
 62
    40
 10
135.4421428571427
 20
86.400000000000006
 30
0.0
 40
1.05
  1
 +0.1
  0
TEXT
  5
194A
  8
250
 62
    40
 10
135.4421428571427
 20
85.0
 30
0.0
 40
1.05
  1
 0
  0
TEXT
  5
194B
  8
250
 62
    40
 10
139.87214285714271
 20
85.0
 30
0.0
 40
1.5
  1
(チップ)
  0
ENDBLK
  5
194D
  8
0
  0
BLOCK
  8
0
  2
*U25
 70
     1
 10
0.0
 20
0.0
 30
0.0
  3
*U25
  1

  0
INSERT
  5
194F
  8
250
  6
CONTINUOUS
  2
_OPEN
 10
-101.5942419443171
 20
4.1957136631683483
 30
0.0
 41
1.1149999999999991
 42
1.1149999999999991
 43
1.1149999999999991
 50
233.54138912336171
  0
POLYLINE
  5
1950
  8
250
  6
CONTINUOUS
 66
     1
 10
0.0
 20
0.0
 30
0.0
  0
VERTEX
  5
1951
  8
250
  6
CONTINUOUS
 10
-100.93166217640351
 20
5.0924929287356653
 30
0.0
  0
VERTEX
  5
1952
  8
250
  6
CONTINUOUS
 10
-96.36123242887578
 20
11.27841473135987
 30
0.0
  0
SEQEND
  5
1953
  8
250
  6
CONTINUOUS
  0
ENDBLK
  5
1955
  8
0
  0
BLOCK
  8
0
  2
*U26
 70
     1
 10
0.0
 20
0.0
 30
0.0
  3
*U26
  1

  0
TEXT
  5
1957
  8
250
 62
    40
 10
-98.718711777430741
 20
8.8357039674761246
 30
0.0
 40
1.5
  1
R1
 50
53.5413891233597
  0
ENDBLK
  5
1959
  8
0
  0
BLOCK
  8
0
  2
*U27
 70
     1
 10
0.0
 20
0.0
 30
0.0
  3
*U27
  1

  0
INSERT
  5
195B
  8
250
  6
CONTINUOUS
  2
_OPEN
 10
-101.6458761100824
 20
-7.763442237778853
 30
0.0
 41
1.1149999999999991
 42
1.1149999999999991
 43
1.1149999999999991
 50
49.768604984406132
  0
POLYLINE
  5
195C
  8
250
  6
CONTINUOUS
 66
     1
 10
0.0
 20
0.0
 30
0.0
  0
VERTEX
  5
195D
  8
250
  6
CONTINUOUS
 10
-102.3660279728243
 20
-8.6146803329022816
 30
0.0
  0
VERTEX
  5
195E
  8
250
  6
CONTINUOUS
 10
-105.09606455441499
 20
-11.841654058253081
 30
0.0
  0
SEQEND
  5
195F
  8
250
  6
CONTINUOUS
  0
ENDBLK
  5
1961
  8
0
  0
BLOCK
  8
0
  2
*U28
 70
     1
 10
0.0
 20
0.0
 30
0.0
  3
*U28
  1

  0
TEXT
  5
1963
  8
250
 62
    40
 10
-105.66232170475659
 20
-11.73684235686296
 30
0.0
 40
1.5
  1
R1
 50
49.768604984405059
  0
ENDBLK
  5
1965
  8
0
  0
BLOCK
  8
0
  2
*U29
 70
     1
 10
0.0
 20
0.0
 30
0.0
  3
*U29
  1

  0
INSERT
  5
1967
  8
250
  6
CONTINUOUS
  2
_OPEN
 10
-36.999999999999858
 20
2.2062366344386528
 30
0.0
 41
1.1149999999999991
 42
1.1149999999999991
 43
1.1149999999999991
 50
300.0
  0
POLYLINE
  5
1968
  8
250
  6
CONTINUOUS
 66
     1
 10
0.0
 20
0.0
 30
0.0
  0
VERTEX
  5
1969
  8
250
  6
CONTINUOUS
 10
-37.55749999999987
 20
3.171854959658301
 30
0.0
  0
VERTEX
  5
196A
  8
250
  6
CONTINUOUS
 10
-42.541392880985818
 20
11.804210649006791
 30
0.0
  0
SEQEND
  5
196B
  8
250
  6
CONTINUOUS
  0
ENDBLK
  5
196D
  8
0
  0
BLOCK
  8
0
  2
*U30
 70
     1
 10
0.0
 20
0.0
 30
0.0
  3
*U30
  1

  0
TEXT
  5
196F
  8
250
 62
    40
 10
-48.898535738128672
 20
12.304210649006791
 30
0.0
 40
1.5
  1
C0.3
  7
YOKO
  0
ENDBLK
  5
1971
  8
0
  0
BLOCK
  8
0
  2
*U31
 70
     1
 10
0.0
 20
0.0
 30
0.0
  3
*U31
  1

  0
INSERT
  5
1973
  8
250
  6
CONTINUOUS
  2
_OPEN
 10
-31.961519995272649
 20
7.9518934536643817
 30
0.0
 41
1.1149999999999991
 42
1.1149999999999991
 43
1.1149999999999991
 50
252.15583149287971
  0
POLYLINE
  5
1974
  8
250
  6
CONTINUOUS
 66
     1
 10
0.0
 20
0.0
 30
0.0
  0
VERTEX
  5
1975
  8
250
  6
CONTINUOUS
 10
-31.61985144044106
 20
9.0132546545000327
 30
0.0
  0
VERTEX
  5
1976
  8
250
  6
CONTINUOUS
 10
-30.763539169558101
 20
11.67330811058298
 30
0.0
  0
SEQEND
  5
1977
  8
250
  6
CONTINUOUS
  0
ENDBLK
  5
1979
  8
0
  0
BLOCK
  8
0
  2
*U32
 70
     1
 10
0.0
 20
0.0
 30
0.0
  3
*U32
  1

  0
TEXT
  5
197B
  8
250
 62
    40
 10
-31.939895489894891
 20
9.6507662436437371
 30
0.0
 40
1.5
  1
R1
 50
72.15583149288571
  0
ENDBLK
  5
197D
  8
0
  0
BLOCK
  8
0
  2
*U33
 70
     1
 10
0.0
 20
0.0
 30
0.0
  3
*U33
  1

  0
INSERT
  5
197F
  8
250
  6
CONTINUOUS
  2
_OPEN
 10
-27.098645472069119
 20
5.2463076405948916
 30
0.0
 41
1.1149999999999991
 42
1.1149999999999991
 43
1.1149999999999991
 50
252.0323400539186
  0
POLYLINE
  5
1980
  8
250
  6
CONTINUOUS
 66
     1
 10
0.0
 20
0.0
 30
0.0
  0
VERTEX
  5
1981
  8
250
  6
CONTINUOUS
 10
-26.754690126631271
 20
6.3069299675071298
 30
0.0
  0
VERTEX
  5
1982
  8
250
  6
CONTINUOUS
 10
-25.512476160309401
 20
10.13742681821315
 30
0.0
  0
SEQEND
  5
1983
  8
250
  6
CONTINUOUS
  0
ENDBLK
  5
1985
  8
0
  0
BLOCK
  8
0
  2
*U34
 70
     1
 10
0.0
 20
0.0
 30
0.0
  3
*U34
  1

  0
TEXT
  5
1987
  8
250
 62
    40
 10
-27.243896405079699
 20
6.4192611149201904
 30
0.0
 40
1.5
  1
R3
 50
72.032340053920421
  0
ENDBLK
  5
1989
  8
0
  0
BLOCK
  8
0
  2
*U35
 70
     1
 10
0.0
 20
0.0
 30
0.0
  3
*U35
  1

  0
INSERT
  5
198B
  8
250
  6
CONTINUOUS
  2
_OPEN
 10
-27.871766510526701
 20
-2.1555405462941191
 30
0.0
 41
1.1149999999999991
 42
1.1149999999999991
 43
1.1149999999999991
 50
128.60312126561311
  0
POLYLINE
  5
198C
  8
250
  6
CONTINUOUS
 66
     1
 10
0.0
 20
0.0
 30
0.0
  0
VERTEX
  5
198D
  8
250
  6
CONTINUOUS
 10
-27.17609329078088
 20
-3.0268979765880748
 30
0.0
  0
VERTEX
  5
198E
  8
250
  6
CONTINUOUS
 10
-23.828722503243458
 20
-7.2196084689301179
 30
0.0
  0
SEQEND
  5
198F
  8
250
  6
CONTINUOUS
  0
ENDBLK
  5
1991
  8
0
  0
BLOCK
  8
0
  2
*U36
 70
     1
 10
0.0
 20
0.0
 30
0.0
  3
*U36
  1

  0
TEXT
  5
1993
  8
250
 62
    40
 10
-26.395384519864219
 20
-3.2033836956714481
 30
0.0
 40
1.5
  1
R3
 50
308.6031212656128
  0
ENDBLK
  5
1995
  8
0
  0
BLOCK
  8
0
  2
*U37
 70
     1
 10
0.0
 20
0.0
 30
0.0
  3
*U37
  1

  0
INSERT
  5
1997
  8
250
  6
CONTINUOUS
  2
_OPEN
 10
9.8499999999996248
 20
-1.3499999999998229
 30
0.0
 41
1.1149999999999991
 42
1.1149999999999991
 43
1.1149999999999991
 50
135.00000000000011
  0
POLYLINE
  5
1998
  8
250
  6
CONTINUOUS
 66
     1
 10
0.0
 20
0.0
 30
0.0
  0
VERTEX
  5
1999
  8
250
  6
CONTINUOUS
 10
10.63842406102262
 20
-2.1384240610228229
 30
0.0
  0
VERTEX
  5
199A
  8
250
  6
CONTINUOUS
 10
15.622126615273681
 20
-7.1221266152738698
 30
0.0
  0
SEQEND
  5
199B
  8
250
  6
CONTINUOUS
  0
ENDBLK
  5
199D
  8
0
  0
BLOCK
  8
0
  2
*U38
 70
     1
 10
0.0
 20
0.0
 30
0.0
  3
*U38
  1

  0
TEXT
  5
199F
  8
250
 62
    40
 10
11.531008918441421
 20
-2.323902137255426
 30
0.0
 40
1.5
  1
C0.3
 50
315.0
  0
ENDBLK
  5
19A1
  8
0
  0
BLOCK
  8
0
  2
*U39
 70
     1
 10
0.0
 20
0.0
 30
0.0
  3
*U39
  1

  0
INSERT
  5
19A3
  8
250
  6
CONTINUOUS
  2
_OPEN
 10
9.8499999999998238
 20
-8.6999999999999886
 30
0.0
 41
1.1149999999999991
 42
1.1149999999999991
 43
1.1149999999999991
 50
134.99999999999849
  0
POLYLINE
  5
19A4
  8
250
  6
CONTINUOUS
 66
     1
 10
0.0
 20
0.0
 30
0.0
  0
VERTEX
  5
19A5
  8
250
  6
CONTINUOUS
 10
10.6384240610228
 20
-9.4884240610230091
 30
0.0
  0
VERTEX
  5
19A6
  8
250
  6
CONTINUOUS
 10
16.01924263543
 20
-14.86924263543048
 30
0.0
  0
SEQEND
  5
19A7
  8
250
  6
CONTINUOUS
  0
ENDBLK
  5
19A9
  8
0
  0
BLOCK
  8
0
  2
*U40
 70
     1
 10
0.0
 20
0.0
 30
0.0
  3
*U40
  1

  0
TEXT
  5
19AB
  8
250
 62
    40
 10
11.928124938598071
 20
-10.071018157411761
 30
0.0
 40
1.5
  1
C0.3
 50
314.99999999999869
  0
ENDBLK
  5
19AD
  8
0
  0
BLOCK
  8
0
  2
*U41
 70
     1
 10
0.0
 20
0.0
 30
0.0
  3
*U41
  1

  0
INSERT
  5
19AF
  8
250
  6
CONTINUOUS
  2
_OPEN
 10
0.1999999999999886
 20
-8.7999999999999812
 30
0.0
 41
1.1149999999999991
 42
1.1149999999999991
 43
1.1149999999999991
 50
45.0000000000082
  0
POLYLINE
  5
19B0
  8
250
  6
CONTINUOUS
 66
     1
 10
0.0
 20
0.0
 30
0.0
  0
VERTEX
  5
19B1
  8
250
  6
CONTINUOUS
 10
-0.5884240610228991
 20
-9.5884240610230957
 30
0.0
  0
VERTEX
  5
19B2
  8
250
  6
CONTINUOUS
 10
-6.0068810824642753
 20
-15.00688108246602
 30
0.0
  0
SEQEND
  5
19B3
  8
250
  6
CONTINUOUS
  0
ENDBLK
  5
19B5
  8
0
  0
BLOCK
  8
0
  2
*U42
 70
     1
 10
0.0
 20
0.0
 30
0.0
  3
*U42
  1

  0
TEXT
  5
19B7
  8
250
 62
    40
 10
-5.3502818199007613
 20
-13.643175038716461
 30
0.0
 40
1.5
  1
C0.1
 50
45.000000000008129
  0
ENDBLK
  5
19B9
  8
0
  0
BLOCK
  8
0
  2
*U43
 70
     1
 10
0.0
 20
0.0
 30
0.0
  3
*U43
  1

  0
INSERT
  5
19BB
  8
250
  6
CONTINUOUS
  2
_OPEN
 10
0.0380873194313836
 20
-5.222500997510088
 30
0.0
 41
1.1149999999999991
 42
1.1149999999999991
 43
1.1149999999999991
 50
43.927493486524661
  0
POLYLINE
  5
19BC
  8
250
  6
CONTINUOUS
 66
     1
 10
0.0
 20
0.0
 30
0.0
  0
VERTEX
  5
19BD
  8
250
  6
CONTINUOUS
 10
-0.7649560834830163
 20
-5.9960294669510397
 30
0.0
  0
VERTEX
  5
19BE
  8
250
  6
CONTINUOUS
 10
-5.3147429011917771
 20
-10.37859412113079
 30
0.0
  0
SEQEND
  5
19BF
  8
250
  6
CONTINUOUS
  0
ENDBLK
  5
19C1
  8
0
  0
BLOCK
  8
0
  2
*U44
 70
     1
 10
0.0
 20
0.0
 30
0.0
  3
*U44
  1

  0
TEXT
  5
19C3
  8
250
 62
    40
 10
-5.4514146334165536
 20
-9.9087175356238131
 30
0.0
 40
1.5
  1
R0.4
 50
43.927493486497568
  0
ENDBLK
  5
19C5
  8
0
  0
BLOCK
  8
0
  2
*U45
 70
     1
 10
0.0
 20
0.0
 30
0.0
  3
*U45
  1

  0
INSERT
  5
19C7
  8
250
  6
CONTINUOUS
  2
_OPEN
 10
0.1999999999998181
 20
8.6500000000001904
 30
0.0
 41
1.1149999999999991
 42
1.1149999999999991
 43
1.1149999999999991
 50
315.0000000000245
  0
POLYLINE
  5
19C8
  8
250
  6
CONTINUOUS
 66
     1
 10
0.0
 20
0.0
 30
0.0
  0
VERTEX
  5
19C9
  8
250
  6
CONTINUOUS
 10
-0.5884240610235193
 20
9.4384240610228538
 30
0.0
  0
VERTEX
  5
19CA
  8
250
  6
CONTINUOUS
 10
-6.7707401972065213
 20
15.62074019720057
 30
0.0
  0
SEQEND
  5
19CB
  8
250
  6
CONTINUOUS
  0
ENDBLK
  5
19CD
  8
0
  0
BLOCK
  8
0
  2
*U46
 70
     1
 10
0.0
 20
0.0
 30
0.0
  3
*U46
  1

  0
TEXT
  5
19CF
  8
250
 62
    40
 10
-5.407034262061341
 20
14.9641410432416
 30
0.0
 40
1.5
  1
C0.1
 50
315.0000000000245
  0
ENDBLK
  5
19D1
  8
0
  0
BLOCK
  8
0
  2
*U47
 70
     1
 10
0.0
 20
0.0
 30
0.0
  3
*U47
  1

  0
TEXT
  5
19D3
  8
250
 62
    40
 10
-69.366666666666674
 20
18.0
 30
0.0
 40
1.399999999999999
  1
68
  0
ENDBLK
  5
19D5
  8
0
  0
BLOCK
  8
0
  2
*U48
 70
     1
 10
0.0
 20
0.0
 30
0.0
  3
*U48
  1

  0
TEXT
  5
19D7
  8
250
 62
    40
 10
-44.269127406345397
 20
-9.5801016314854266
 30
0.0
 40
1.399999999999999
  1
30°
 50
287.92804259846878
  0
ENDBLK
  5
19D9
  8
0
  0
BLOCK
  8
0
  2
*U49
 70
     1
 10
0.0
 20
0.0
 30
0.0
  3
*U49
  1

  0
TEXT
  5
19DB
  8
250
 62
    40
 10
-17.99999999999994
 20
6.572142857142877
 30
0.0
 40
1.5
  1
\U+2205
 50
90.0
  0
TEXT
  5
19DC
  8
250
 62
    40
 10
-17.99999999999994
 20
7.9292857142857347
 30
0.0
 40
1.399999999999999
  1
10.2
 50
90.0
  0
TEXT
  5
19DD
  8
250
 62
    40
 10
-19.399999999999942
 20
12.595952380952401
 30
0.0
 40
1.05
  1
 0
 50
90.0
  0
TEXT
  5
19DE
  8
250
 62
    40
 10
-17.99999999999994
 20
12.595952380952401
 30
0.0
 40
1.05
  1
 -0.1
 50
90.0
  0
ENDBLK
  5
19E0
  8
0
  0
BLOCK
  8
0
  2
*U50
 70
     1
 10
0.0
 20
0.0
 30
0.0
  3
*U50
  1

  0
TEXT
  5
19E2
  8
250
 62
    40
 10
-2.0683333333333889
 20
18.466666666666661
 30
0.0
 40
1.399999999999999
  1
10
  0
TEXT
  5
19E3
  8
250
 62
    40
 10
0.5983333333332768
 20
19.86666666666666
 30
0.0
 40
1.05
  1
 +0.1
  0
TEXT
  5
19E4
  8
250
 62
    40
 10
0.5983333333332768
 20
18.466666666666661
 30
0.0
 40
1.05
  1
 0
  0
TEXT
  5
19E5
  8
250
 62
    40
 10
5.0283333333332774
 20
18.466666666666661
 30
0.0
 40
1.399999999999999
  1
(チップ)
  0
ENDBLK
  5
19E7
  8
0
  0
BLOCK
  8
0
  2
*U51
 70
     1
 10
0.0
 20
0.0
 30
0.0
  3
*U51
  1

  0
TEXT
  5
19E9
  8
AM_5
 62
    40
 10
-113.9999999999999
 20
-3.800000000000014
 30
0.0
 40
2.7999999999999989
  1
\U+220516
 50
90.0
  0
ENDBLK
  5
19EB
  8
0
  0
BLOCK
  8
0
  2
*U52
 70
     1
 10
0.0
 20
0.0
 30
0.0
  3
*U52
  1

  0
TEXT
  5
19ED
  8
AM_5
 62
    40
 10
20.0
 20
-5.7999999999999989
 30
0.0
 40
2.7999999999999989
  1
\U+220517.5
 50
90.0
  0
ENDBLK
  5
19EF
  8
0
  0
BLOCK
  8
0
  2
*U53
 70
     1
 10
0.0
 20
0.0
 30
0.0
  3
*U53
  1

  0
TEXT
  5
19F1
  8
AM_5
 62
    40
 10
-50.199999999999882
 20
29.0
 30
0.0
 40
2.7999999999999989
  1
112
  0
ENDBLK
  5
19F3
  8
0
  0
BLOCK
  8
0
  2
*U54
 70
     1
 10
0.0
 20
0.0
 30
0.0
  3
*U54
  1

  0
TEXT
  5
19F5
  8
AM_5
 62
    40
 10
2.133333333333447
 20
22.0
 30
0.0
 40
2.7999999999999989
  1
10
  0
ENDBLK
  5
19F7
  8
0
  0
BLOCK
  8
0
  2
*U55
 70
     1
 10
0.0
 20
0.0
 30
0.0
  3
*U55
  1

  0
TEXT
  5
19F9
  8
AM_5
 62
    40
 10
-15.166666666666639
 20
22.0
 30
0.0
 40
2.7999999999999989
  1
25
  0
ENDBLK
  5
19FB
  8
0
  0
ENDSEC
  0
SECTION
  2
ENTITIES
  0
TEXT
  5
160E
  8
241
 10
-105.7211547800366
 20
40.09007650839272
 30
0.0
 40
4.0
  1
ST16-BFM10/17.5-25
  7
YOKO
  0
LINE
  5
17F0
  8
250
 10
-25.000000000000011
 20
5.6000000000000476
 30
0.0
 11
-25.000000000000011
 21
22.0
 31
0.0
  0
LINE
  5
17F1
  8
250
 10
0.0000000000000569
 20
9.0500000000002352
 30
0.0
 11
0.0000000000000577
 21
22.0
 31
0.0
  0
LINE
  5
17F2
  8
250
 10
-22.77000000000001
 20
21.0
 30
0.0
 11
-2.2299999999999418
 21
21.0
 31
0.0
  0
LINE
  5
17F6
  8
250
 10
10.000000000000171
 20
8.8999999999985278
 30
0.0
 11
10.000000000000171
 21
22.0
 31
0.0
  0
LINE
  5
17F7
  8
250
 10
0.0000000000000569
 20
9.0500000000002405
 30
0.0
 11
0.0000000000000577
 21
22.0
 31
0.0
  0
LINE
  5
17F8
  8
250
 10
7.7700000000001701
 20
21.0
 30
0.0
 11
2.2300000000000568
 21
21.0
 31
0.0
  0
LINE
  5
17FC
  8
250
 10
-101.9999999999999
 20
7.5
 30
0.0
 11
-101.9999999999999
 21
29.0
 31
0.0
  0
LINE
  5
17FD
  8
250
 10
10.000000000000171
 20
8.8999999999985278
 30
0.0
 11
10.000000000000171
 21
29.0
 31
0.0
  0
LINE
  5
17FE
  8
250
 10
-99.769999999999939
 20
28.0
 30
0.0
 11
7.770000000000171
 21
28.0
 31
0.0
  0
LINE
  5
1802
  8
250
 10
-101.4999999999999
 20
7.9999999999999991
 30
0.0
 11
-113.9999999999999
 21
8.0000000000000036
 31
0.0
  0
LINE
  5
1803
  8
250
 10
-101.4999999999999
 20
-8.0
 30
0.0
 11
-113.9999999999999
 21
-7.9999999999999982
 31
0.0
  0
LINE
  5
1804
  8
250
 10
-112.9999999999999
 20
5.7700000000000031
 30
0.0
 11
-112.9999999999999
 21
-5.7699999999999969
 31
0.0
  0
LINE
  5
1808
  8
250
 10
5.3000000000000114
 20
8.749999999999968
 30
0.0
 11
22.000000000000011
 21
8.7499999999999627
 31
0.0
  0
LINE
  5
1809
  8
250
 10
21.0
 20
6.5199999999999632
 30
0.0
 11
21.0
 21
-6.5333333333333359
 31
0.0
  0
TEXT
  5
180C
  8
250
 10
-15.166666666666639
 20
22.0
 30
0.0
 40
2.7999999999999989
  1
25
  0
LINE
  5
180D
  8
250
 10
-2.2299999999999418
 20
21.37166666666667
 30
0.0
 11
0.0000000000000576
 21
21.0
 31
0.0
  0
LINE
  5
180E
  8
250
 10
-2.2299999999999418
 20
20.62833333333333
 30
0.0
 11
0.0000000000000576
 21
21.0
 31
0.0
  0
LINE
  5
180F
  8
250
 10
0.0000000000000576
 20
21.0
 30
0.0
 11
-2.2299999999999418
 21
21.0
 31
0.0
  0
LINE
  5
1810
  8
250
 10
-22.77000000000001
 20
20.62833333333333
 30
0.0
 11
-25.000000000000011
 21
21.0
 31
0.0
  0
LINE
  5
1811
  8
250
 10
-22.77000000000001
 20
21.37166666666667
 30
0.0
 11
-25.000000000000011
 21
21.0
 31
0.0
  0
LINE
  5
1812
  8
250
 10
-25.000000000000011
 20
21.0
 30
0.0
 11
-22.77000000000001
 21
21.0
 31
0.0
  0
TEXT
  5
1813
  8
250
 10
2.133333333333447
 20
22.0
 30
0.0
 40
2.7999999999999989
  1
10
  0
LINE
  5
1814
  8
250
 10
2.2300000000000568
 20
20.62833333333333
 30
0.0
 11
0.0000000000000576
 21
21.0
 31
0.0
  0
LINE
  5
1815
  8
250
 10
2.2300000000000568
 20
21.37166666666667
 30
0.0
 11
0.0000000000000576
 21
21.0
 31
0.0
  0
LINE
  5
1816
  8
250
 10
0.0000000000000576
 20
21.0
 30
0.0
 11
2.2300000000000568
 21
21.0
 31
0.0
  0
LINE
  5
1817
  8
250
 10
7.7700000000001701
 20
21.37166666666667
 30
0.0
 11
10.000000000000171
 21
21.0
 31
0.0
  0
LINE
  5
1818
  8
250
 10
7.7700000000001701
 20
20.62833333333333
 30
0.0
 11
10.000000000000171
 21
21.0
 31
0.0
  0
LINE
  5
1819
  8
250
 10
10.000000000000171
 20
21.0
 30
0.0
 11
7.7700000000001701
 21
21.0
 31
0.0
  0
TEXT
  5
181A
  8
250
 10
-50.199999999999882
 20
29.0
 30
0.0
 40
2.7999999999999989
  1
112
  0
LINE
  5
181B
  8
250
 10
7.770000000000171
 20
28.371666666666659
 30
0.0
 11
10.000000000000171
 21
28.0
 31
0.0
  0
LINE
  5
181C
  8
250
 10
7.770000000000171
 20
27.62833333333333
 30
0.0
 11
10.000000000000171
 21
28.0
 31
0.0
  0
LINE
  5
181D
  8
250
 10
10.000000000000171
 20
28.0
 30
0.0
 11
7.770000000000171
 21
28.0
 31
0.0
  0
LINE
  5
181E
  8
250
 10
-99.769999999999939
 20
27.62833333333333
 30
0.0
 11
-101.9999999999999
 21
28.0
 31
0.0
  0
LINE
  5
181F
  8
250
 10
-99.769999999999939
 20
28.371666666666659
 30
0.0
 11
-101.9999999999999
 21
28.0
 31
0.0
  0
LINE
  5
1820
  8
250
 10
-101.9999999999999
 20
28.0
 30
0.0
 11
-99.769999999999939
 21
28.0
 31
0.0
  0
TEXT
  5
1821
  8
250
 10
-113.9999999999999
 20
-3.800000000000014
 30
0.0
 40
2.7999999999999989
  1
\U+220516
 50
90.0
  0
LINE
  5
1822
  8
250
 10
-112.6283333333332
 20
-5.7699999999999969
 30
0.0
 11
-112.9999999999999
 21
-7.9999999999999982
 31
0.0
  0
LINE
  5
1823
  8
250
 10
-113.3716666666666
 20
-5.7699999999999969
 30
0.0
 11
-112.9999999999999
 21
-7.9999999999999982
 31
0.0
  0
LINE
  5
1824
  8
250
 10
-112.9999999999999
 20
-7.9999999999999982
 30
0.0
 11
-112.9999999999999
 21
-5.7699999999999969
 31
0.0
  0
LINE
  5
1825
  8
250
 10
-113.3716666666666
 20
5.7700000000000031
 30
0.0
 11
-112.9999999999999
 21
8.0000000000000036
 31
0.0
  0
LINE
  5
1826
  8
250
 10
-112.6283333333332
 20
5.7700000000000031
 30
0.0
 11
-112.9999999999999
 21
8.0000000000000036
 31
0.0
  0
LINE
  5
1827
  8
250
 10
-112.9999999999999
 20
8.0000000000000036
 30
0.0
 11
-112.9999999999999
 21
5.7700000000000031
 31
0.0
  0
TEXT
  5
1828
  8
250
 10
20.0
 20
-5.7999999999999989
 30
0.0
 40
2.7999999999999989
  1
\U+220517.5
 50
90.0
  0
LINE
  5
1829
  8
250
 10
20.628333333333341
 20
6.5199999999999623
 30
0.0
 11
21.0
 21
8.7499999999999627
 31
0.0
  0
LINE
  5
182A
  8
250
 10
21.37166666666667
 20
6.5199999999999623
 30
0.0
 11
21.0
 21
8.7499999999999627
 31
0.0
  0
LINE
  5
182B
  8
250
 10
21.0
 20
8.7499999999999627
 30
0.0
 11
21.0
 21
6.5199999999999623
 31
0.0
  0
INSERT
  5
191F
  8
240
  2
A$C5A386197
 10
0.0
 20
0.0
 30
0.0
  0
VIEWPORT
  5
22
 67
     1
  8
0
 10
261.51769911504419
 20
148.5
 30
0.0
 40
523.0353982300885
 41
297.0
 68
     1
 69
     1
1001
ACAD
1000
MVIEW
1002
{
1070
    16
1010
0.0
1020
0.0
1030
0.0
1010
0.0
1020
0.0
1030
1.0
1040
0.0
1040
297.0
1040
261.51769911504419
1040
148.5
1040
50.0
1040
0.0
1040
0.0
1070
     0
1070
   100
1070
     1
1070
     1
1070
     0
1070
     0
1070
     0
1070
     0
1040
0.0
1040
0.0
1040
0.0
1040
1.0
1040
1.0
1040
10.0
1040
10.0
1070
     0
1002
{
1002
}
1002
}
1001
GENIUS_GENODEF_13
1002
{
1000
HIER
1070
     0
1002
}
1002
{
1000
MANEDIT
1070
     0
1002
}
1002
{
1000
NOSEL
1070
     0
1002
}
1002
{
1000
BEHIND
1070
     0
1002
}
1002
{
1000
OTHER
1070
     0
1002
}
1002
{
1000
REACTOR
1002
}
1001
GENIUS_GENOBJ-N-SDF_13
1002
{
1000
OWNER
1000
GEN
1002
}
1001
GENIUS_GENSCREG_15
1000
PF
1040
1.0
1000
DF
1040
1.0
1000
MIN
1011
0.0
1021
0.0
1031
0.0
1021
0.0
1031
0.0
1000
MAX
1011
523.0353982300885
1021
0.0
1031
0.0
1021
297.0
1031
0.0
1000
FLAGS
1070
     2
  0
ENDSEC
  0
EOF
