ISO-10303-21;
HEADER;
FILE_DESCRIPTION((''),'1');
FILE_NAME('U:/Translate/00_BIG-HP\X2\FF71FF6FFF8CFF9F\X0\2013/ST15-FCR16082-120.stp','2013-12-02T02:01:16',(''),(''),'Spatial Interop R18','Kubotek KeyCreator V8.5.1 (14335)',' ');
FILE_SCHEMA(('CONFIG_CONTROL_DESIGN'));
ENDSEC;
DATA;
#1=DESIGN_CONTEXT('',#27,'design');
#2=APPLICATION_PROTOCOL_DEFINITION('INTERNATIONAL STANDARD','config_control_design',1994,#27);
#3=PRODUCT_CATEGORY_RELATIONSHIP('NONE','NONE',#28,#29);
#4=DATE_AND_TIME(#30,#31);
#5=DATE_TIME_ROLE('creation_date');
#6=DATE_TIME_ROLE('classification_date');
#7=PERSON_AND_ORGANIZATION_ROLE('creator');
#8=PERSON_AND_ORGANIZATION_ROLE('design_supplier');
#9=PERSON_AND_ORGANIZATION_ROLE('classification_officer');
#10=PERSON_AND_ORGANIZATION_ROLE('design_owner');
#11=APPROVAL_PERSON_ORGANIZATION(#32,#33,#34);
#12=APPROVAL_DATE_TIME(#4,#33);
#13=CC_DESIGN_APPROVAL(#33,(#35,#36,#37));
#14=CC_DESIGN_DATE_AND_TIME_ASSIGNMENT(#4,#5,(#37));
#15=CC_DESIGN_DATE_AND_TIME_ASSIGNMENT(#4,#6,(#35));
#16=CC_DESIGN_PERSON_AND_ORGANIZATION_ASSIGNMENT(#32,#10,(#38));
#17=CC_DESIGN_PERSON_AND_ORGANIZATION_ASSIGNMENT(#32,#7,(#37));
#18=CC_DESIGN_PERSON_AND_ORGANIZATION_ASSIGNMENT(#32,#7,(#36));
#19=CC_DESIGN_PERSON_AND_ORGANIZATION_ASSIGNMENT(#32,#8,(#36));
#20=CC_DESIGN_SECURITY_CLASSIFICATION(#35,(#36));
#21=CC_DESIGN_PERSON_AND_ORGANIZATION_ASSIGNMENT(#32,#9,(#35));
#22=SHAPE_DEFINITION_REPRESENTATION(#39,#40);
#23= (GEOMETRIC_REPRESENTATION_CONTEXT(3)GLOBAL_UNCERTAINTY_ASSIGNED_CONTEXT((#43))GLOBAL_UNIT_ASSIGNED_CONTEXT((#45,#46,#47))REPRESENTATION_CONTEXT('NONE','WORKSPACE'));
#27=APPLICATION_CONTEXT('CONFIGURATION CONTROLLED 3D DESIGNS OF MECHANICAL PARTS AND ASSEMBLIES');
#28=PRODUCT_CATEGORY('part','NONE');
#29=PRODUCT_RELATED_PRODUCT_CATEGORY('detail',' ',(#38));
#30=CALENDAR_DATE(2013,2,11);
#31=LOCAL_TIME(11,1,16.0,#49);
#32=PERSON_AND_ORGANIZATION(#50,#51);
#33=APPROVAL(#52,'SOLID MODEL');
#34=APPROVAL_ROLE('APPROVED');
#35=SECURITY_CLASSIFICATION('','',#53);
#36=PRODUCT_DEFINITION_FORMATION_WITH_SPECIFIED_SOURCE(' ','NONE',#38,.NOT_KNOWN.);
#37=PRODUCT_DEFINITION('NONE','NONE',#36,#1);
#38=PRODUCT('1','1','PART-1-DESC',(#54));
#39=PRODUCT_DEFINITION_SHAPE('NONE','NONE',#37);
#40=ADVANCED_BREP_SHAPE_REPRESENTATION('1',(#55,#56),#23);
#43=UNCERTAINTY_MEASURE_WITH_UNIT(LENGTH_MEASURE(1.0E-006),#45,'','');
#45= (CONVERSION_BASED_UNIT('MILLIMETRE',#59)LENGTH_UNIT()NAMED_UNIT(#62));
#46= (NAMED_UNIT(#64)PLANE_ANGLE_UNIT()SI_UNIT($,.RADIAN.));
#47= (NAMED_UNIT(#64)SOLID_ANGLE_UNIT()SI_UNIT($,.STERADIAN.));
#49=COORDINATED_UNIVERSAL_TIME_OFFSET(9,0,.AHEAD.);
#50=PERSON('','UNSPECIFIED',$,$,$,$);
#51=ORGANIZATION('UNSPECIFIED','UNSPECIFIED','UNSPECIFIED');
#52=APPROVAL_STATUS('approved');
#53=SECURITY_CLASSIFICATION_LEVEL('unclassified');
#54=MECHANICAL_CONTEXT('',#27,'mechanical');
#55=MANIFOLD_SOLID_BREP('1',#70);
#56=AXIS2_PLACEMENT_3D('',#71,#72,#73);
#59=LENGTH_MEASURE_WITH_UNIT(LENGTH_MEASURE(1.0),#74);
#62=DIMENSIONAL_EXPONENTS(1.0,0.0,0.0,0.0,0.0,0.0,0.0);
#64=DIMENSIONAL_EXPONENTS(0.0,0.0,0.0,0.0,0.0,0.0,0.0);
#70=CLOSED_SHELL('',(#75,#76,#77,#78,#79,#80,#81));
#71=CARTESIAN_POINT('',(0.0,0.0,0.0));
#72=DIRECTION('',(0.0,0.0,1.0));
#73=DIRECTION('',(1.0,0.0,0.0));
#74= (NAMED_UNIT(#62)LENGTH_UNIT()SI_UNIT(.MILLI.,.METRE.));
#75=ADVANCED_FACE('',(#83),#84,.T.);
#76=ADVANCED_FACE('',(#85,#86),#87,.T.);
#77=ADVANCED_FACE('',(#88,#89),#90,.T.);
#78=ADVANCED_FACE('',(#91,#92),#93,.T.);
#79=ADVANCED_FACE('',(#94,#95),#96,.T.);
#80=ADVANCED_FACE('',(#97,#98),#99,.T.);
#81=ADVANCED_FACE('',(#100),#101,.T.);
#83=FACE_OUTER_BOUND('',#102,.T.);
#84=PLANE('',#103);
#85=FACE_BOUND('',#104,.T.);
#86=FACE_BOUND('',#105,.T.);
#87=CYLINDRICAL_SURFACE('',#106,7.49999999999957);
#88=FACE_BOUND('',#107,.T.);
#89=FACE_OUTER_BOUND('',#108,.T.);
#90=PLANE('',#109);
#91=FACE_BOUND('',#110,.T.);
#92=FACE_BOUND('',#111,.T.);
#93=CYLINDRICAL_SURFACE('',#112,7.25000000000084);
#94=FACE_BOUND('',#113,.T.);
#95=FACE_BOUND('',#114,.T.);
#96=CONICAL_SURFACE('',#115,7.62500000000029,1.12034537417554);
#97=FACE_BOUND('',#116,.T.);
#98=FACE_BOUND('',#117,.T.);
#99=CYLINDRICAL_SURFACE('',#118,7.99999999999999);
#100=FACE_OUTER_BOUND('',#119,.T.);
#101=PLANE('',#120);
#102=EDGE_LOOP('',(#121));
#103=AXIS2_PLACEMENT_3D('',#122,#123,#124);
#104=EDGE_LOOP('',(#125));
#105=EDGE_LOOP('',(#126));
#106=AXIS2_PLACEMENT_3D('',#127,#128,#129);
#107=EDGE_LOOP('',(#130));
#108=EDGE_LOOP('',(#131));
#109=AXIS2_PLACEMENT_3D('',#132,#133,#134);
#110=EDGE_LOOP('',(#135));
#111=EDGE_LOOP('',(#136));
#112=AXIS2_PLACEMENT_3D('',#137,#138,#139);
#113=EDGE_LOOP('',(#140));
#114=EDGE_LOOP('',(#141));
#115=AXIS2_PLACEMENT_3D('',#142,#143,#144);
#116=EDGE_LOOP('',(#145));
#117=EDGE_LOOP('',(#146));
#118=AXIS2_PLACEMENT_3D('',#147,#148,#149);
#119=EDGE_LOOP('',(#150));
#120=AXIS2_PLACEMENT_3D('',#151,#152,#153);
#121=ORIENTED_EDGE('',*,*,#154,.F.);
#122=CARTESIAN_POINT('',(-7.34788079488411E-015,3.74999999999953,120.0));
#123=DIRECTION('',(-6.12323399573677E-017,4.01908415000644E-014,1.0));
#124=DIRECTION('',(-2.45615211717385E-030,-1.0,4.01908415000644E-014));
#125=ORIENTED_EDGE('',*,*,#155,.F.);
#126=ORIENTED_EDGE('',*,*,#154,.T.);
#127=CARTESIAN_POINT('',(-4.43934464690896E-015,-1.73172138839815E-014,72.4999999999968));
#128=DIRECTION('',(-6.12323399573677E-017,-2.38858122537686E-016,1.0));
#129=DIRECTION('',(-1.94529944915752E-032,1.0,2.38858122537686E-016));
#130=ORIENTED_EDGE('',*,*,#156,.F.);
#131=ORIENTED_EDGE('',*,*,#155,.T.);
#132=CARTESIAN_POINT('',(-1.53080849893406E-015,7.37500000000056,24.9999999999979));
#133=DIRECTION('',(6.12323399573677E-017,-3.18890355163694E-011,-1.0));
#134=DIRECTION('',(1.95263543649817E-027,1.0,-3.18890355163694E-011));
#135=ORIENTED_EDGE('',*,*,#157,.F.);
#136=ORIENTED_EDGE('',*,*,#156,.T.);
#137=CARTESIAN_POINT('',(-1.11357185655772E-015,-4.34387585307654E-015,18.1860085264263));
#138=DIRECTION('',(-6.12323399573677E-017,-2.38858122537686E-016,1.0));
#139=DIRECTION('',(-1.94529944915752E-032,1.0,2.38858122537686E-016));
#140=ORIENTED_EDGE('',*,*,#158,.F.);
#141=ORIENTED_EDGE('',*,*,#157,.T.);
#142=CARTESIAN_POINT('',(-6.85230468348536E-016,-2.67298070413945E-015,11.1906627907021));
#143=DIRECTION('',(6.12323399573677E-017,2.38858122537686E-016,-1.0));
#144=DIRECTION('',(-1.94529944915752E-032,1.0,2.38858122537686E-016));
#145=ORIENTED_EDGE('',*,*,#159,.F.);
#146=ORIENTED_EDGE('',*,*,#158,.T.);
#147=CARTESIAN_POINT('',(-3.37062861257969E-016,-1.31483138278422E-015,5.50465426427677));
#148=DIRECTION('',(-6.12323399573677E-017,-2.38858122537686E-016,1.0));
#149=DIRECTION('',(-1.94529944915752E-032,1.0,2.38858122537686E-016));
#150=ORIENTED_EDGE('',*,*,#159,.T.);
#151=CARTESIAN_POINT('',(0.0,3.99999999999999,0.0));
#152=DIRECTION('',(6.12323399573677E-017,1.22464679914735E-016,-1.0));
#153=DIRECTION('',(-1.23259516440783E-032,1.0,1.22464679914735E-016));
#154=EDGE_CURVE('',#160,#160,#161,.T.);
#155=EDGE_CURVE('',#162,#162,#163,.T.);
#156=EDGE_CURVE('',#164,#164,#165,.T.);
#157=EDGE_CURVE('',#166,#166,#167,.T.);
#158=EDGE_CURVE('',#168,#168,#169,.T.);
#159=EDGE_CURVE('',#170,#170,#171,.T.);
#160=VERTEX_POINT('',#172);
#161=CIRCLE('',#173,7.49999999999911);
#162=VERTEX_POINT('',#174);
#163=CIRCLE('',#175,7.50000000000003);
#164=VERTEX_POINT('',#176);
#165=CIRCLE('',#177,7.2500000000011);
#166=VERTEX_POINT('',#178);
#167=CIRCLE('',#179,7.25000000000059);
#168=VERTEX_POINT('',#180);
#169=CIRCLE('',#181,8.0);
#170=VERTEX_POINT('',#182);
#171=CIRCLE('',#183,7.99999999999997);
#172=CARTESIAN_POINT('',(-7.3478807948841E-015,7.49999999999908,120.0));
#173=AXIS2_PLACEMENT_3D('',#184,#185,#186);
#174=CARTESIAN_POINT('',(-1.53080849893382E-015,7.50000000000002,24.9999999999939));
#175=AXIS2_PLACEMENT_3D('',#187,#188,#189);
#176=CARTESIAN_POINT('',(-1.53080849893431E-015,7.25000000000109,25.0000000000019));
#177=AXIS2_PLACEMENT_3D('',#190,#191,#192);
#178=CARTESIAN_POINT('',(-6.96335214181137E-016,7.25000000000058,11.3720170528507));
#179=AXIS2_PLACEMENT_3D('',#193,#194,#195);
#180=CARTESIAN_POINT('',(-6.74125722515938E-016,8.0,11.0093085285535));
#181=AXIS2_PLACEMENT_3D('',#196,#197,#198);
#182=CARTESIAN_POINT('',(0.0,7.99999999999997,0.0));
#183=AXIS2_PLACEMENT_3D('',#199,#200,#201);
#184=CARTESIAN_POINT('',(-7.3478807948841E-015,-2.86629747045223E-014,120.0));
#185=DIRECTION('',(6.12323399573677E-017,2.38858122537686E-016,-1.0));
#186=DIRECTION('',(-1.94529944915752E-032,1.0,2.38858122537686E-016));
#187=CARTESIAN_POINT('',(-1.53080849893382E-015,-5.9714530634407E-015,24.9999999999939));
#188=DIRECTION('',(6.12323399573676E-017,2.38858122537686E-016,-1.0));
#189=DIRECTION('',(-1.94529944915752E-032,1.0,2.38858122537686E-016));
#190=CARTESIAN_POINT('',(-1.53080849893431E-015,-5.9714530634426E-015,25.0000000000019));
#191=DIRECTION('',(6.12323399573677E-017,2.38858122537686E-016,-1.0));
#192=DIRECTION('',(-1.94529944915752E-032,1.0,2.38858122537686E-016));
#193=CARTESIAN_POINT('',(-6.96335214181137E-016,-2.71629864271047E-015,11.3720170528507));
#194=DIRECTION('',(6.12323399573677E-017,2.38858122537686E-016,-1.0));
#195=DIRECTION('',(-1.94529944915752E-032,1.0,2.38858122537686E-016));
#196=CARTESIAN_POINT('',(-6.74125722515938E-016,-2.62966276556843E-015,11.0093085285535));
#197=DIRECTION('',(6.12323399573677E-017,2.38858122537686E-016,-1.0));
#198=DIRECTION('',(-1.94529944915752E-032,1.0,2.38858122537686E-016));
#199=CARTESIAN_POINT('',(0.0,0.0,0.0));
#200=DIRECTION('',(6.12323399573676E-017,2.38858122537686E-016,-1.0));
#201=DIRECTION('',(-1.94529944915752E-032,1.0,2.38858122537686E-016));
ENDSEC;
END-ISO-10303-21;
