  0
SECTION
  2
HEADER
  9
$ACADVER
  1
AC1009
  9
$INSBASE
 10
0.0
 20
0.0
 30
0.0
  9
$EXTMIN
 10
-2.0
 20
-16.64097608393714
 30
0.0
  9
$EXTMAX
 10
137.5
 20
47.000000553236568
 30
0.0
  9
$LIMMIN
 10
0.0
 20
0.0
  9
$LIMMAX
 10
297.0
 20
210.0
  9
$ORTHOMODE
 70
     1
  9
$REGENMODE
 70
     1
  9
$FILLMODE
 70
     1
  9
$QTEXTMODE
 70
     0
  9
$MIRRTEXT
 70
     1
  9
$DRAGMODE
 70
     2
  9
$LTSCALE
 40
10.0
  9
$OSMODE
 70
    35
  9
$ATTMODE
 70
     1
  9
$TEXTSIZE
 40
3.0
  9
$TRACEWID
 40
1.0
  9
$TEXTSTYLE
  7
YOKO
  9
$CLAYER
  8
240
  9
$CELTYPE
  6
BYLAYER
  9
$CECOLOR
 62
   256
  9
$DIMSCALE
 40
1.0
  9
$DIMASZ
 40
2.2299999999999991
  9
$DIMEXO
 40
0.5
  9
$DIMDLI
 40
7.0
  9
$DIMRND
 40
0.0
  9
$DIMDLE
 40
0.0
  9
$DIMEXE
 40
1.0
  9
$DIMTP
 40
0.0
  9
$DIMTM
 40
0.01
  9
$DIMTXT
 40
2.7999999999999989
  9
$DIMCEN
 40
0.0
  9
$DIMTSZ
 40
0.0
  9
$DIMTOL
 70
     0
  9
$DIMLIM
 70
     0
  9
$DIMTIH
 70
     0
  9
$DIMTOH
 70
     0
  9
$DIMSE1
 70
     0
  9
$DIMSE2
 70
     0
  9
$DIMTAD
 70
     3
  9
$DIMZIN
 70
     9
  9
$DIMBLK
  1
OPEN
  9
$DIMASO
 70
     1
  9
$DIMSHO
 70
     1
  9
$DIMPOST
  1

  9
$DIMAPOST
  1

  9
$DIMALT
 70
     0
  9
$DIMALTD
 70
     2
  9
$DIMALTF
 40
25.399999999999999
  9
$DIMLFAC
 40
1.0
  9
$DIMTOFL
 70
     1
  9
$DIMTVP
 40
0.0
  9
$DIMTIX
 70
     1
  9
$DIMSOXD
 70
     0
  9
$DIMSAH
 70
     0
  9
$DIMBLK1
  1

  9
$DIMBLK2
  1

  9
$DIMSTYLE
  2
BIGT
  9
$DIMCLRD
 70
   256
  9
$DIMCLRE
 70
   256
  9
$DIMCLRT
 70
    40
  9
$DIMTFAC
 40
1.0
  9
$DIMGAP
 40
1.0
  9
$LUNITS
 70
     2
  9
$LUPREC
 70
     6
  9
$SKETCHINC
 40
1.0
  9
$FILLETRAD
 40
0.0
  9
$AUNITS
 70
     0
  9
$AUPREC
 70
     6
  9
$MENU
  1
.
  9
$ELEVATION
 40
0.0
  9
$PELEVATION
 40
0.0
  9
$THICKNESS
 40
0.0
  9
$LIMCHECK
 70
     0
  9
$BLIPMODE
 70
     0
  9
$CHAMFERA
 40
0.2
  9
$CHAMFERB
 40
0.2
  9
$SKPOLY
 70
     0
  9
$TDCREATE
 40
2457739.5839851862
  9
$TDUPDATE
 40
2457742.6024632179
  9
$TDINDWG
 40
0.0153512153
  9
$TDUSRTIMER
 40
0.0153511806
  9
$USRTIMER
 70
     1
  9
$ANGBASE
 50
0.0
  9
$ANGDIR
 70
     0
  9
$PDMODE
 70
     1
  9
$PDSIZE
 40
0.0
  9
$PLINEWID
 40
0.0
  9
$COORDS
 70
     1
  9
$SPLFRAME
 70
     0
  9
$SPLINETYPE
 70
     6
  9
$SPLINESEGS
 70
     4
  9
$ATTDIA
 70
     1
  9
$ATTREQ
 70
     1
  9
$HANDLING
 70
     1
  9
$HANDSEED
  5
4479
  9
$SURFTAB1
 70
     6
  9
$SURFTAB2
 70
     6
  9
$SURFTYPE
 70
     6
  9
$SURFU
 70
     6
  9
$SURFV
 70
     6
  9
$UCSNAME
  2

  9
$UCSORG
 10
0.0
 20
0.0
 30
0.0
  9
$UCSXDIR
 10
1.0
 20
0.0
 30
0.0
  9
$UCSYDIR
 10
0.0
 20
1.0
 30
0.0
  9
$PUCSNAME
  2

  9
$PUCSORG
 10
0.0
 20
0.0
 30
0.0
  9
$PUCSXDIR
 10
1.0
 20
0.0
 30
0.0
  9
$PUCSYDIR
 10
0.0
 20
1.0
 30
0.0
  9
$USERI1
 70
     1
  9
$USERI2
 70
     0
  9
$USERI3
 70
     0
  9
$USERI4
 70
     0
  9
$USERI5
 70
     0
  9
$USERR1
 40
0.0
  9
$USERR2
 40
0.0
  9
$USERR3
 40
0.0
  9
$USERR4
 40
0.0
  9
$USERR5
 40
0.0
  9
$WORLDVIEW
 70
     1
  9
$SHADEDGE
 70
     3
  9
$SHADEDIF
 70
    70
  9
$TILEMODE
 70
     1
  9
$MAXACTVP
 70
    16
  9
$PLIMCHECK
 70
     0
  9
$PEXTMIN
 10
1.0000000000000000E+020
 20
1.0000000000000000E+020
 30
1.0000000000000000E+020
  9
$PEXTMAX
 10
-1.0000000000000000E+020
 20
-1.0000000000000000E+020
 30
-1.0000000000000000E+020
  9
$PLIMMIN
 10
0.0
 20
0.0
  9
$PLIMMAX
 10
420.0
 20
297.0
  9
$UNITMODE
 70
     0
  9
$VISRETAIN
 70
     1
  9
$PLINEGEN
 70
     0
  9
$PSLTSCALE
 70
     1
  0
ENDSEC
  0
SECTION
  2
TABLES
  0
TABLE
  2
VPORT
 70
     1
  0
VPORT
  2
*ACTIVE
 70
     0
 10
0.0
 20
0.0
 11
1.0
 21
1.0
 12
67.729792689718863
 22
18.273809966061162
 13
0.0
 23
0.0
 14
7.0
 24
7.0
 15
7.0
 25
7.0
 16
0.0
 26
0.0
 36
1.0
 17
0.0
 27
0.0
 37
0.0
 40
150.05698894419069
 41
1.5120087336244541
 42
50.0
 43
0.0
 44
0.0
 50
0.0
 51
0.0
 71
     0
 72
  2000
 73
     1
 74
     0
 75
     0
 76
     1
 77
     0
 78
     0
  0
ENDTAB
  0
TABLE
  2
LTYPE
 70
    13
  0
LTYPE
  2
CONTINUOUS
 70
     0
  3
Solid line
 72
    65
 73
     0
 40
0.0
  0
LTYPE
  2
CENTER2
 70
     0
  3
___ _ ___ _ ___ _ ___ _ ___ _ ___ _ ___ _ ___ _
 72
    65
 73
     4
 40
1.125
 49
0.75
 49
-0.125
 49
0.125
 49
-0.125
  0
LTYPE
  2
HIDDEN2
 70
     0
  3
_ _ _ _ _ _ _ _ _ _ _ _ _ _ _ _ _ _ _ _ _ _ _ _
 72
    65
 73
     2
 40
0.1875
 49
0.125
 49
-0.0625
  0
LTYPE
  2
PHANTOM2
 70
     0
  3
___ _ _ ___ _ _ ___ _ _ ___ _ _ ___ _ _ ___ _ _
 72
    65
 73
     6
 40
1.25
 49
0.625
 49
-0.125
 49
0.125
 49
-0.125
 49
0.125
 49
-0.125
  0
LTYPE
  2
AM_ISO02W050
 70
     0
  3
__ __ __ __ __ __ __ __ __ __ __ __ __ __ __
 72
    65
 73
     2
 40
7.5
 49
6.0
 49
-1.5
  0
LTYPE
  2
AMCONSTR
 70
     0
  3
_______________________
 72
    65
 73
     2
 40
9999.0
 49
9999.0
 49
0.0
  0
LTYPE
  2
ACISOWELD
 70
     0
  3
_ _ _ _ _
 72
    65
 73
     2
 40
2.0
 49
2.0
 49
-1.0
  0
LTYPE
  2
ACISOTGB
 70
     0
  3
__ . . __ . .
 72
    65
 73
     6
 40
9.0
 49
4.0
 49
-1.0
 49
1.0
 49
-1.0
 49
1.0
 49
-1.0
  0
LTYPE
  2
ACISOTGL
 70
     0
  3
_ _ _ _ _
 72
    65
 73
     2
 40
3.0
 49
2.0
 49
-1.0
  0
LTYPE
  2
ACJISTGB
 70
     0
  3
__ . . __ . .
 72
    65
 73
     6
 40
9.0
 49
4.0
 49
-1.0
 49
1.0
 49
-1.0
 49
1.0
 49
-1.0
  0
LTYPE
  2
ACJISTGL
 70
     0
  3
_ _ _ _ _
 72
    65
 73
     2
 40
3.0
 49
2.0
 49
-1.0
  0
ENDTAB
  0
TABLE
  2
LAYER
 70
     8
  0
LAYER
  2
0
 70
     0
 62
     7
  6
CONTINUOUS
  0
LAYER
  2
DEFPOINTS
 70
     0
 62
     7
  6
CONTINUOUS
  0
LAYER
  2
245
 70
     0
 62
     2
  6
CENTER2
  0
LAYER
  2
240
 70
     0
 62
     4
  6
CONTINUOUS
  0
LAYER
  2
241
 70
     0
 62
   211
  6
CONTINUOUS
  0
LAYER
  2
243
 70
     0
 62
   211
  6
HIDDEN2
  0
LAYER
  2
247
 70
     0
 62
    60
  6
CONTINUOUS
  0
LAYER
  2
250
 70
     0
 62
     3
  6
CONTINUOUS
  0
ENDTAB
  0
TABLE
  2
STYLE
 70
     6
  0
STYLE
  2
STANDARD
 70
     0
 40
0.0
 41
1.0
 50
0.0
 71
     0
 42
3.0
  3
romans.shx
  4
extfont.shx
  0
STYLE
  2
ACISOTS
 70
     0
 40
1.0
 41
1.0
 50
0.0
 71
     0
 42
3.0
  3
amgdt.shx
  4
extfont.shx
  0
STYLE
  2
ACISOGDT
 70
     0
 40
0.0
 41
1.0
 50
0.0
 71
     0
 42
3.0
  3
amgdt.shx
  4
extfont.shx
  0
STYLE
  2
ACJISTS
 70
     0
 40
1.0
 41
1.0
 50
0.0
 71
     0
 42
3.0
  3
amgdt.shx
  4
extfont.shx
  0
STYLE
  2
ACJISGDT
 70
     0
 40
0.0
 41
1.0
 50
0.0
 71
     0
 42
3.0
  3
amgdt.shx
  4
extfont.shx
  0
STYLE
  2
YOKO
 70
     0
 40
0.0
 41
1.0
 50
0.0
 71
     0
 42
3.0
  3
romans.shx
  4
extfont.shx
  0
ENDTAB
  0
TABLE
  2
VIEW
 70
     0
  0
ENDTAB
  0
TABLE
  2
UCS
 70
     0
  0
ENDTAB
  0
TABLE
  2
APPID
 70
    35
  0
APPID
  2
ACAD
 70
     0
  0
APPID
  2
GLOBAL
 70
     0
  0
APPID
  2
DETAIL
 70
     0
  0
APPID
  2
GRPNAME
 70
     0
  0
APPID
  2
GPARA
 70
     0
  0
APPID
  2
MCAD_NO_VIS
 70
     0
  0
APPID
  2
ACAD_TEMP_GRAPHIC
 70
     0
  0
APPID
  2
ACATTRIBSERVICES
 70
     0
  0
APPID
  2
GENIUS_GENSCREG_15
 70
     0
  0
APPID
  2
GENIUS_GENODEF_13
 70
     0
  0
APPID
  2
GENIUS_GENOBJ-N-SDF_13
 70
     0
  0
APPID
  2
GENIUS_GENREC_14
 70
     0
  0
APPID
  2
GENIUS_GENOBJ-N-REC_13
 70
     0
  0
APPID
  2
GENIUS_GENDIMSH_14
 70
     0
  0
APPID
  2
GENIUS_GENOBJ-N-DIM_13
 70
     0
  0
APPID
  2
GENIUS_GENDIM_13
 70
     0
  0
APPID
  2
GENIUS_GENDTOL_13
 70
     0
  0
APPID
  2
GENIUS_GENOLIS_13
 70
     0
  0
APPID
  2
GENIUS_GENOENT_13
 70
     0
  0
APPID
  2
GENIUS_GENOBJ-F-FEM_13
 70
     0
  0
APPID
  2
GENIUS_GENOREF_13
 70
     0
  0
APPID
  2
GENIUS_GEFFEM_13
 70
     0
  0
APPID
  2
GENIUS_GEFFEMP_13
 70
     0
  0
APPID
  2
AD_DRAW
 70
     0
  0
APPID
  2
DESIGNERASSEMBLIES
 70
     0
  0
APPID
  2
ACADM_DIM_EDIT
 70
     0
  0
APPID
  2
AMDT_DM_ADJ
 70
     0
  0
APPID
  2
ITEMNAME
 70
     0
  0
APPID
  2
GENIUS_GENOBJ-N-FIL_13
 70
     0
  0
APPID
  2
GENIUS_GENFIL_13
 70
     0
  0
APPID
  2
GENIUS_GENOBJ-N-CHA_13
 70
     0
  0
APPID
  2
ACAD_NAV_VCDISPLAY
 70
     0
  0
APPID
  2
ACAD_PSEXT
 70
     0
  0
APPID
  2
ACAD_EXEMPT_FROM_CAD_STANDARDS
 70
     0
  0
APPID
  2
ACAD_MLEADERVER
 70
     0
  0
ENDTAB
  0
TABLE
  2
DIMSTYLE
 70
    23
  0
DIMSTYLE
  2
BIGT
 70
     0
  3

  4

  5
OPEN
  6

  7

 40
1.0
 41
2.2299999999999991
 42
0.5
 43
7.0
 44
1.0
 45
0.0
 46
0.0
 47
0.0
 48
0.01
140
2.7999999999999989
141
0.0
142
0.0
143
25.399999999999999
144
1.0
145
0.0
146
1.0
147
1.0
 71
     0
 72
     0
 73
     0
 74
     0
 75
     0
 76
     0
 77
     3
 78
     9
170
     0
171
     2
172
     1
173
     0
174
     1
175
     0
176
   256
177
   256
178
    40
  0
DIMSTYLE
  2
AM_ISO
 70
     0
  3

  4
"
  5

  6

  7

 40
1.0
 41
2.5
 42
1.0
 43
10.0
 44
1.0
 45
0.0
 46
0.0
 47
0.1
 48
0.1
140
3.5
141
0.0
142
0.0
143
0.0393701
144
1.0
145
0.0
146
0.71
147
1.5
 71
     0
 72
     0
 73
     0
 74
     0
 75
     0
 76
     0
 77
     1
 78
     8
170
     0
171
     2
172
     1
173
     0
174
     0
175
     0
176
   256
177
   256
178
     2
  0
DIMSTYLE
  2
AM_ISO$3
 70
     0
  3

  4
"
  5

  6

  7

 40
1.0
 41
2.5
 42
1.0
 43
10.0
 44
1.0
 45
0.0
 46
0.0
 47
0.1
 48
0.1
140
3.5
141
0.0
142
0.0
143
0.0393701
144
1.0
145
0.0
146
0.71
147
1.5
 71
     0
 72
     0
 73
     0
 74
     1
 75
     0
 76
     0
 77
     1
 78
     8
170
     0
171
     2
172
     0
173
     0
174
     0
175
     0
176
   256
177
   256
178
     2
  0
DIMSTYLE
  2
AM_ISO$4
 70
     0
  3

  4
"
  5

  6

  7

 40
1.0
 41
2.5
 42
1.0
 43
10.0
 44
1.0
 45
0.0
 46
0.0
 47
0.1
 48
0.1
140
3.5
141
0.0
142
0.0
143
0.0393701
144
1.0
145
0.0
146
0.71
147
1.5
 71
     0
 72
     0
 73
     0
 74
     1
 75
     0
 76
     0
 77
     1
 78
     8
170
     0
171
     2
172
     0
173
     0
174
     0
175
     0
176
   256
177
   256
178
     2
  0
DIMSTYLE
  2
AM_ISO$6
 70
     0
  3

  4
"
  5

  6

  7

 40
1.0
 41
2.5
 42
1.0
 43
10.0
 44
1.0
 45
0.0
 46
0.0
 47
0.1
 48
0.1
140
3.5
141
0.0
142
0.0
143
0.0393701
144
1.0
145
0.0
146
0.71
147
1.5
 71
     0
 72
     0
 73
     0
 74
     0
 75
     0
 76
     0
 77
     0
 78
     8
170
     0
171
     2
172
     1
173
     0
174
     0
175
     0
176
   256
177
   256
178
     2
  0
DIMSTYLE
  2
AM_ISO$7
 70
     0
  3

  4
"
  5

  6

  7

 40
1.0
 41
2.5
 42
1.0
 43
10.0
 44
1.0
 45
0.0
 46
0.0
 47
0.1
 48
0.1
140
5.0
141
0.0
142
0.0
143
0.0393701
144
1.0
145
0.0
146
0.71
147
1.5
 71
     0
 72
     0
 73
     0
 74
     0
 75
     0
 76
     0
 77
     1
 78
     8
170
     0
171
     2
172
     1
173
     0
174
     0
175
     0
176
   256
177
   256
178
     2
  0
DIMSTYLE
  2
AM_ISO$SF
 70
     0
  3

  4
"
  5

  6

  7

 40
1.0
 41
2.5
 42
1.0
 43
10.0
 44
1.0
 45
0.0
 46
0.0
 47
0.1
 48
0.1
140
3.5
141
0.0
142
0.0
143
0.0393701
144
1.0
145
0.0
146
0.71
147
1.5
 71
     0
 72
     0
 73
     0
 74
     0
 75
     1
 76
     1
 77
     1
 78
     8
170
     0
171
     2
172
     1
173
     0
174
     0
175
     0
176
   256
177
   256
178
     2
  0
DIMSTYLE
  2
AM_ISO$SH
 70
     0
  3

  4
"
  5

  6
GENAXEH
  7

 40
1.0
 41
2.5
 42
1.0
 43
10.0
 44
1.0
 45
0.0
 46
0.0
 47
0.1
 48
0.1
140
3.5
141
0.0
142
0.0
143
0.0393701
144
2.0
145
0.0
146
0.71
147
1.5
 71
     0
 72
     0
 73
     0
 74
     0
 75
     1
 76
     1
 77
     1
 78
     8
170
     0
171
     2
172
     1
173
     1
174
     0
175
     0
176
   256
177
   256
178
     2
  0
DIMSTYLE
  2
BIGT$2
 70
     0
  3

  4

  5
OPEN
  6

  7

 40
1.0
 41
2.2299999999999991
 42
0.5
 43
7.0
 44
1.0
 45
0.0
 46
0.0
 47
0.0
 48
0.01
140
2.7999999999999989
141
0.0
142
0.0
143
25.399999999999999
144
1.0
145
0.0
146
1.0
147
1.0
 71
     0
 72
     0
 73
     0
 74
     0
 75
     0
 76
     0
 77
     3
 78
     9
170
     0
171
     2
172
     1
173
     0
174
     0
175
     0
176
   256
177
   256
178
    40
  0
DIMSTYLE
  2
BIGT$3
 70
     0
  3

  4

  5
OPEN
  6

  7

 40
1.0
 41
2.2299999999999991
 42
0.5
 43
2.5
 44
1.0
 45
0.0
 46
0.0
 47
0.0
 48
0.01
140
2.7999999999999989
141
0.0
142
0.0
143
25.399999999999999
144
1.0
145
0.0
146
1.0
147
1.0
 71
     0
 72
     0
 73
     0
 74
     0
 75
     0
 76
     0
 77
     3
 78
     9
170
     0
171
     2
172
     1
173
     0
174
     0
175
     0
176
   256
177
   256
178
    40
  0
DIMSTYLE
  2
BIGT$7
 70
     0
  3

  4

  5
OPEN
  6

  7

 40
0.0
 41
2.2299999999999991
 42
0.5
 43
7.0
 44
1.0
 45
0.0
 46
0.0
 47
0.0
 48
0.01
140
2.7999999999999989
141
0.0
142
0.0
143
25.399999999999999
144
1.0
145
0.0
146
1.0
147
1.0
 71
     0
 72
     0
 73
     0
 74
     0
 75
     0
 76
     0
 77
     3
 78
     9
170
     0
171
     2
172
     0
173
     0
174
     0
175
     0
176
   256
177
   256
178
    40
  0
DIMSTYLE
  2
BIGT$6
 70
     0
  3

  4

  5
OPEN
  6

  7

 40
1.0
 41
2.2299999999999991
 42
0.5
 43
2.5
 44
1.0
 45
0.0
 46
0.0
 47
0.0
 48
0.01
140
2.7999999999999989
141
0.0
142
0.0
143
25.399999999999999
144
1.0
145
0.0
146
1.0
147
1.0
 71
     0
 72
     0
 73
     0
 74
     0
 75
     0
 76
     0
 77
     3
 78
     9
170
     0
171
     2
172
     1
173
     0
174
     0
175
     0
176
   256
177
   256
178
    40
  0
DIMSTYLE
  2
BIGT$0
 70
     0
  3

  4

  5
OPEN
  6

  7

 40
1.0
 41
2.2299999999999991
 42
0.5
 43
7.0
 44
1.0
 45
0.0
 46
0.0
 47
0.0
 48
0.01
140
2.7999999999999989
141
0.0
142
0.0
143
25.399999999999999
144
1.0
145
0.0
146
1.0
147
1.0
 71
     0
 72
     0
 73
     0
 74
     0
 75
     0
 76
     0
 77
     3
 78
     9
170
     0
171
     2
172
     1
173
     0
174
     1
175
     0
176
   256
177
   256
178
    40
  0
DIMSTYLE
  2
BIGT$4
 70
     0
  3

  4

  5
OPEN
  6

  7

 40
1.0
 41
2.2299999999999991
 42
0.5
 43
2.5
 44
1.0
 45
0.0
 46
0.0
 47
0.0
 48
0.01
140
2.7999999999999989
141
0.0
142
0.0
143
25.399999999999999
144
1.0
145
0.0
146
1.0
147
1.0
 71
     0
 72
     0
 73
     0
 74
     0
 75
     0
 76
     0
 77
     3
 78
     9
170
     0
171
     2
172
     1
173
     0
174
     0
175
     0
176
   256
177
   256
178
    40
  0
DIMSTYLE
  2
BIGT$SH
 70
     0
  3

  4

  5
OPEN
  6

  7

 40
1.0
 41
2.2299999999999991
 42
0.5
 43
7.0
 44
1.0
 45
0.0
 46
0.0
 47
0.0
 48
0.0
140
2.7999999999999989
141
0.0
142
0.0
143
25.399999999999999
144
1.0
145
0.0
146
1.0
147
1.0
 71
     0
 72
     0
 73
     0
 74
     0
 75
     0
 76
     0
 77
     3
 78
     9
170
     0
171
     2
172
     1
173
     0
174
     0
175
     0
176
   256
177
   256
178
    40
  0
DIMSTYLE
  2
BIGT$SF
 70
     0
  3

  4

  5
OPEN
  6

  7

 40
1.0
 41
2.2299999999999991
 42
0.5
 43
7.0
 44
1.0
 45
0.0
 46
0.0
 47
0.0
 48
0.0
140
2.7999999999999989
141
0.0
142
0.0
143
25.399999999999999
144
1.0
145
0.0
146
1.0
147
1.0
 71
     0
 72
     0
 73
     0
 74
     0
 75
     0
 76
     0
 77
     3
 78
     9
170
     0
171
     2
172
     1
173
     0
174
     0
175
     0
176
   256
177
   256
178
    40
  0
DIMSTYLE
  2
TECHNICAL_OSAKA
 70
     0
  3

  4
"
  5
OPEN30
  6

  7

 40
1.0
 41
2.5
 42
1.0
 43
10.0
 44
1.0
 45
0.0
 46
0.0
 47
0.1
 48
0.1
140
2.7999999999999989
141
0.0
142
0.0
143
0.0393701
144
1.0
145
0.0
146
0.71
147
1.5
 71
     0
 72
     0
 73
     0
 74
     0
 75
     0
 76
     0
 77
     3
 78
     8
170
     0
171
     2
172
     1
173
     0
174
     0
175
     0
176
   256
177
   256
178
    40
  0
DIMSTYLE
  2
TECHNICAL_OSAKA$3
 70
     0
  3

  4
"
  5
OPEN30
  6

  7

 40
1.0
 41
2.5
 42
1.0
 43
10.0
 44
1.0
 45
0.0
 46
0.0
 47
0.1
 48
0.1
140
2.7999999999999989
141
0.0
142
0.0
143
0.0393701
144
1.0
145
0.0
146
0.71
147
1.5
 71
     0
 72
     0
 73
     0
 74
     1
 75
     0
 76
     0
 77
     3
 78
     8
170
     0
171
     2
172
     0
173
     0
174
     0
175
     0
176
   256
177
   256
178
    40
  0
DIMSTYLE
  2
TECHNICAL_OSAKA$4
 70
     0
  3

  4
"
  5
OPEN30
  6

  7

 40
1.0
 41
2.5
 42
1.0
 43
10.0
 44
1.0
 45
0.0
 46
0.0
 47
0.1
 48
0.1
140
2.7999999999999989
141
0.0
142
0.0
143
0.0393701
144
1.0
145
0.0
146
0.71
147
1.5
 71
     0
 72
     0
 73
     0
 74
     1
 75
     0
 76
     0
 77
     3
 78
     8
170
     0
171
     2
172
     0
173
     0
174
     0
175
     0
176
   256
177
   256
178
    40
  0
DIMSTYLE
  2
TECHNICAL_OSAKA$6
 70
     0
  3

  4
"
  5
OPEN30
  6

  7

 40
1.0
 41
2.5
 42
1.0
 43
10.0
 44
1.0
 45
0.0
 46
0.0
 47
0.1
 48
0.1
140
2.7999999999999989
141
0.0
142
0.0
143
0.0393701
144
1.0
145
0.0
146
0.71
147
1.5
 71
     0
 72
     0
 73
     0
 74
     0
 75
     0
 76
     0
 77
     0
 78
     8
170
     0
171
     2
172
     1
173
     0
174
     0
175
     0
176
   256
177
   256
178
    40
  0
DIMSTYLE
  2
TECHNICAL_OSAKA$7
 70
     0
  3

  4
"
  5
OPEN30
  6

  7

 40
1.0
 41
2.5
 42
1.0
 43
10.0
 44
1.0
 45
0.0
 46
0.0
 47
0.1
 48
0.1
140
2.7999999999999989
141
0.0
142
0.0
143
0.0393701
144
1.0
145
0.0
146
0.71
147
1.5
 71
     0
 72
     0
 73
     0
 74
     0
 75
     0
 76
     0
 77
     3
 78
     8
170
     0
171
     2
172
     1
173
     0
174
     0
175
     0
176
   256
177
   256
178
    40
  0
DIMSTYLE
  2
TECHNICAL_OSAKA$SF
 70
     0
  3

  4
"
  5
OPEN30
  6
OPEN30
  7
OPEN30
 40
1.0
 41
2.5
 42
1.0
 43
10.0
 44
1.0
 45
0.0
 46
0.0
 47
0.1
 48
0.1
140
3.5
141
0.0
142
0.0
143
0.0393701
144
1.0
145
0.0
146
0.71
147
1.5
 71
     0
 72
     0
 73
     0
 74
     0
 75
     1
 76
     1
 77
     3
 78
     8
170
     0
171
     2
172
     1
173
     0
174
     0
175
     0
176
   256
177
   256
178
    40
  0
DIMSTYLE
  2
TECHNICAL_OSAKA$SH
 70
     0
  3

  4
"
  5
OPEN30
  6
GENAXEH
  7
OPEN30
 40
1.0
 41
2.5
 42
1.0
 43
10.0
 44
1.0
 45
0.0
 46
0.0
 47
0.1
 48
0.1
140
3.5
141
0.0
142
0.0
143
0.0393701
144
2.0
145
0.0
146
0.71
147
1.5
 71
     0
 72
     0
 73
     0
 74
     0
 75
     1
 76
     1
 77
     3
 78
     8
170
     0
171
     2
172
     1
173
     1
174
     0
175
     0
176
   256
177
   256
178
    40
  0
ENDTAB
  0
ENDSEC
  0
SECTION
  2
BLOCKS
  0
BLOCK
  8
0
  2
$MODEL_SPACE
 70
     0
 10
0.0
 20
0.0
 30
0.0
  3
$MODEL_SPACE
  1

  0
ENDBLK
  5
1C
  8
0
  0
BLOCK
 67
     1
  8
0
  2
$PAPER_SPACE
 70
     0
 10
0.0
 20
0.0
 30
0.0
  3
$PAPER_SPACE
  1

  0
ENDBLK
  5
19
 67
     1
  8
0
  0
BLOCK
  8
0
  2
_OPEN
 70
     0
 10
0.0
 20
0.0
 30
0.0
  3
_OPEN
  1

  0
LINE
  5
4380
  8
0
  6
BYBLOCK
 62
     0
 10
-1.0
 20
0.1666666666666666
 30
0.0
 11
0.0
 21
0.0
 31
0.0
  0
LINE
  5
4381
  8
0
  6
BYBLOCK
 62
     0
 10
-1.0
 20
-0.1666666666666666
 30
0.0
 11
0.0
 21
0.0
 31
0.0
  0
LINE
  5
4382
  8
0
  6
BYBLOCK
 62
     0
 10
0.0
 20
0.0
 30
0.0
 11
-1.0
 21
0.0
 31
0.0
  0
ENDBLK
  5
4383
  8
0
  0
BLOCK
  8
0
  2
GENAXEH
 70
     0
 10
0.0
 20
0.0
 30
0.0
  3
GENAXEH
  1

  0
LINE
  5
43BB
  8
0
 10
-1.0
 20
0.0
 30
0.0
 11
1.0
 21
0.0
 31
0.0
  0
ENDBLK
  5
43BC
  8
0
  0
BLOCK
  8
0
  2
_OPEN30
 70
     0
 10
0.0
 20
0.0
 30
0.0
  3
_OPEN30
  1

  0
LINE
  5
43F7
  8
0
  6
BYBLOCK
 62
     0
 10
-1.0
 20
0.26794919
 30
0.0
 11
0.0
 21
0.0
 31
0.0
  0
LINE
  5
43F8
  8
0
  6
BYBLOCK
 62
     0
 10
0.0
 20
0.0
 30
0.0
 11
-1.0
 21
-0.26794919
 31
0.0
  0
LINE
  5
43F9
  8
0
  6
BYBLOCK
 62
     0
 10
0.0
 20
0.0
 30
0.0
 11
-1.0
 21
0.0
 31
0.0
  0
ENDBLK
  5
43FA
  8
0
  0
ENDSEC
  0
SECTION
  2
ENTITIES
  0
LINE
  5
41DC
  8
245
  6
CENTER2
 10
-2.0
 20
0.0000005532365606
 30
0.0
 11
121.30668181755451
 21
0.000000553236589
 31
0.0
  0
LINE
  5
41DD
  8
240
  6
CONTINUOUS
 10
0.0
 20
-5.9999994467634536
 30
0.0
 11
87.740192378840234
 21
-5.999999446763411
 31
0.0
  0
LINE
  5
41DE
  8
240
  6
CONTINUOUS
 10
0.0
 20
6.0000005532365881
 30
0.0
 11
87.740192378825185
 21
6.0000005532365739
 31
0.0
  0
LINE
  5
41DF
  8
240
  6
CONTINUOUS
 10
0.0
 20
-5.9999994467634536
 30
0.0
 11
0.0
 21
6.0000005532365881
 31
0.0
  0
LINE
  5
41ED
  8
240
  6
CONTINUOUS
 10
119.9999999999996
 20
4.5000005532367222
 30
0.0
 11
119.9999999999996
 21
-4.4999994467635194
 31
0.0
  0
LINE
  5
41F1
  8
243
 10
93.999999999997556
 20
3.0000005532365601
 30
0.0
 11
119.9999999999996
 21
3.000000553236561
 31
0.0
  0
LINE
  5
41F3
  8
240
  6
CONTINUOUS
 10
94.240465471568427
 20
-5.849999446763575
 30
0.0
 11
119.9999999999996
 21
-4.4999994467635194
 31
0.0
  0
LINE
  5
41F4
  8
240
  6
CONTINUOUS
 10
94.240465471557386
 20
5.8500005532366961
 30
0.0
 11
119.9999999999996
 21
4.5000005532367222
 31
0.0
  0
LINE
  5
41F9
  8
240
  6
CONTINUOUS
 10
94.240465471568427
 20
-5.849999446763575
 30
0.0
 11
87.999999999999886
 21
-5.849999446763575
 31
0.0
  0
LINE
  5
41FA
  8
241
  6
CONTINUOUS
 10
94.240465471568427
 20
-5.8499994467636887
 30
0.0
 11
94.240465471568427
 21
5.8500005532368098
 31
0.0
  0
LINE
  5
41FB
  8
241
  6
CONTINUOUS
 10
87.999999999999886
 20
-5.8499994467634622
 30
0.0
 11
87.999999999995453
 21
5.8500005532368098
 31
0.0
  0
LINE
  5
41FC
  8
240
  6
CONTINUOUS
 10
87.999999999999886
 20
-5.8499994467634622
 30
0.0
 11
87.740192378831125
 21
-5.9999994467634394
 31
0.0
  0
LINE
  5
41FE
  8
240
  6
CONTINUOUS
 10
94.240465471568427
 20
5.8500005532368098
 30
0.0
 11
87.999999999999943
 21
5.8500005532368098
 31
0.0
  0
LINE
  5
41FF
  8
240
  6
CONTINUOUS
 10
87.999999999999886
 20
5.8500005532366961
 30
0.0
 11
87.740192378835346
 21
6.000000553236787
 31
0.0
  0
LINE
  5
421E
  8
243
 10
93.999999999997556
 20
-2.999999446763439
 30
0.0
 11
119.9999999999996
 21
-2.9999994467633821
 31
0.0
  0
LINE
  5
4255
  8
250
  6
CONTINUOUS
 10
94.0
 20
3.5000005532365659
 30
0.0
 11
94.0
 21
15.000000553236561
 31
0.0
  0
LINE
  5
4256
  8
250
  6
CONTINUOUS
 10
120.0
 20
5.0000005532365659
 30
0.0
 11
120.0
 21
15.000000553236561
 31
0.0
  0
LINE
  5
4257
  8
250
  6
CONTINUOUS
 10
96.230000000000004
 20
14.000000553236569
 30
0.0
 11
117.77
 21
14.000000553236569
 31
0.0
  0
LINE
  5
4258
  8
250
  6
CONTINUOUS
 10
96.230000000000004
 20
13.6283338865699
 30
0.0
 11
94.0
 21
14.000000553236569
 31
0.0
  0
LINE
  5
4259
  8
250
  6
CONTINUOUS
 10
96.230000000000004
 20
14.37166721990323
 30
0.0
 11
94.0
 21
14.000000553236569
 31
0.0
  0
LINE
  5
425A
  8
250
  6
CONTINUOUS
 10
94.0
 20
14.000000553236569
 30
0.0
 11
96.230000000000004
 21
14.000000553236569
 31
0.0
  0
LINE
  5
425B
  8
250
  6
CONTINUOUS
 10
117.77
 20
14.37166721990323
 30
0.0
 11
120.0
 21
14.000000553236569
 31
0.0
  0
LINE
  5
425C
  8
250
  6
CONTINUOUS
 10
117.77
 20
13.6283338865699
 30
0.0
 11
120.0
 21
14.000000553236569
 31
0.0
  0
LINE
  5
425D
  8
250
  6
CONTINUOUS
 10
120.0
 20
14.000000553236569
 30
0.0
 11
117.77
 21
14.000000553236569
 31
0.0
  0
TEXT
  5
425E
  8
250
  6
CONTINUOUS
 10
104.3333333333333
 20
15.000000553236561
 30
0.0
 40
2.7999999999999989
  1
26
1001
ACAD
1000
MTEXTBEGIN
1070
    73
1070
     1
1070
    44
1040
1.0
1070
    74
1070
     0
1000
MTEXTEND
  0
LINE
  5
425F
  8
250
  6
CONTINUOUS
 10
68.0
 20
3.8000005532365662
 30
0.0
 11
68.0
 21
22.000000553236571
 31
0.0
  0
LINE
  5
4260
  8
250
  6
CONTINUOUS
 10
120.0
 20
5.0000005532365659
 30
0.0
 11
120.0
 21
22.000000553236571
 31
0.0
  0
LINE
  5
4261
  8
250
  6
CONTINUOUS
 10
70.230000000000004
 20
21.000000553236571
 30
0.0
 11
117.77
 21
21.000000553236571
 31
0.0
  0
LINE
  5
4262
  8
250
  6
CONTINUOUS
 10
70.230000000000004
 20
20.628333886569902
 30
0.0
 11
68.0
 21
21.000000553236571
 31
0.0
  0
LINE
  5
4263
  8
250
  6
CONTINUOUS
 10
70.230000000000004
 20
21.371667219903241
 30
0.0
 11
68.0
 21
21.000000553236571
 31
0.0
  0
LINE
  5
4264
  8
250
  6
CONTINUOUS
 10
68.0
 20
21.000000553236571
 30
0.0
 11
70.230000000000004
 21
21.000000553236571
 31
0.0
  0
LINE
  5
4265
  8
250
  6
CONTINUOUS
 10
117.77
 20
21.371667219903241
 30
0.0
 11
120.0
 21
21.000000553236571
 31
0.0
  0
LINE
  5
4266
  8
250
  6
CONTINUOUS
 10
117.77
 20
20.628333886569902
 30
0.0
 11
120.0
 21
21.000000553236571
 31
0.0
  0
LINE
  5
4267
  8
250
  6
CONTINUOUS
 10
120.0
 20
21.000000553236571
 30
0.0
 11
117.77
 21
21.000000553236571
 31
0.0
  0
TEXT
  5
4268
  8
250
  6
CONTINUOUS
 10
83.373333333333335
 20
22.000000553236561
 30
0.0
 40
2.7999999999999989
  1
üimax.52üj
1001
ACAD
1000
MTEXTBEGIN
1070
    73
1070
     1
1070
    44
1040
1.0
1070
    74
1070
     0
1000
MTEXTEND
  0
LINE
  5
4269
  8
250
  6
CONTINUOUS
 10
0.0
 20
6.5000005532365659
 30
0.0
 11
0.0
 21
29.000000553236571
 31
0.0
  0
LINE
  5
426A
  8
250
  6
CONTINUOUS
 10
120.0
 20
5.0000005532365659
 30
0.0
 11
120.0
 21
29.000000553236571
 31
0.0
  0
LINE
  5
426B
  8
250
  6
CONTINUOUS
 10
2.2299999999999991
 20
28.000000553236571
 30
0.0
 11
117.77
 21
28.000000553236571
 31
0.0
  0
LINE
  5
426C
  8
250
  6
CONTINUOUS
 10
2.2299999999999991
 20
27.628333886569902
 30
0.0
 11
0.0
 21
28.000000553236571
 31
0.0
  0
LINE
  5
426D
  8
250
  6
CONTINUOUS
 10
2.2299999999999991
 20
28.37166721990323
 30
0.0
 11
0.0
 21
28.000000553236571
 31
0.0
  0
LINE
  5
426E
  8
250
  6
CONTINUOUS
 10
0.0
 20
28.000000553236571
 30
0.0
 11
2.2299999999999991
 21
28.000000553236571
 31
0.0
  0
LINE
  5
426F
  8
250
  6
CONTINUOUS
 10
117.77
 20
28.37166721990323
 30
0.0
 11
120.0
 21
28.000000553236571
 31
0.0
  0
LINE
  5
4270
  8
250
  6
CONTINUOUS
 10
117.77
 20
27.628333886569902
 30
0.0
 11
120.0
 21
28.000000553236571
 31
0.0
  0
LINE
  5
4271
  8
250
  6
CONTINUOUS
 10
120.0
 20
28.000000553236571
 30
0.0
 11
117.77
 21
28.000000553236571
 31
0.0
  0
TEXT
  5
4272
  8
250
  6
CONTINUOUS
 10
55.799999999999997
 20
29.000000553236571
 30
0.0
 40
2.7999999999999989
  1
120
1001
ACAD
1000
MTEXTBEGIN
1070
    73
1070
     1
1070
    44
1040
1.0
1070
    74
1070
     0
1000
MTEXTEND
  0
LINE
  5
4273
  8
250
  6
CONTINUOUS
 10
120.5
 20
-4.4999994467634332
 30
0.0
 11
137.5
 21
-4.4999994467634332
 31
0.0
  0
LINE
  5
4274
  8
250
  6
CONTINUOUS
 10
120.5
 20
4.5000005532365659
 30
0.0
 11
137.5
 21
4.5000005532365659
 31
0.0
  0
LINE
  5
4275
  8
250
  6
CONTINUOUS
 10
136.5
 20
-2.2699994467634328
 30
0.0
 11
136.5
 21
2.2700005532365659
 31
0.0
  0
LINE
  5
4276
  8
250
  6
CONTINUOUS
 10
136.8716666666667
 20
-2.2699994467634328
 30
0.0
 11
136.5
 21
-4.4999994467634332
 31
0.0
  0
LINE
  5
4277
  8
250
  6
CONTINUOUS
 10
136.1283333333333
 20
-2.2699994467634328
 30
0.0
 11
136.5
 21
-4.4999994467634332
 31
0.0
  0
LINE
  5
4278
  8
250
  6
CONTINUOUS
 10
136.5
 20
-4.4999994467634332
 30
0.0
 11
136.5
 21
-2.2699994467634328
 31
0.0
  0
LINE
  5
4279
  8
250
  6
CONTINUOUS
 10
136.1283333333333
 20
2.2700005532365659
 30
0.0
 11
136.5
 21
4.5000005532365659
 31
0.0
  0
LINE
  5
427A
  8
250
  6
CONTINUOUS
 10
136.8716666666667
 20
2.2700005532365659
 30
0.0
 11
136.5
 21
4.5000005532365659
 31
0.0
  0
LINE
  5
427B
  8
250
  6
CONTINUOUS
 10
136.5
 20
4.5000005532365659
 30
0.0
 11
136.5
 21
2.2700005532365659
 31
0.0
  0
TEXT
  5
427C
  8
250
  6
CONTINUOUS
 10
135.5
 20
-2.5333327800967651
 30
0.0
 40
2.7999999999999989
  1
\U+22059
 50
90.0
1001
ACAD
1000
MTEXTBEGIN
1070
    73
1070
     1
1070
    44
1040
1.0
1070
    74
1070
     0
1000
MTEXTEND
  0
LINE
  5
427D
  8
250
  6
CONTINUOUS
 10
120.5
 20
3.0000005532365659
 30
0.0
 11
130.5
 21
3.0000005532365659
 31
0.0
  0
LINE
  5
427E
  8
250
  6
CONTINUOUS
 10
129.5
 20
-2.9999994467634332
 30
0.0
 11
129.5
 21
3.0000005532365659
 31
0.0
  0
TEXT
  5
4282
  8
250
  6
CONTINUOUS
 10
128.5
 20
-2.599999446763432
 30
0.0
 40
2.7999999999999989
  1
\U+22056
 50
90.0
1001
ACAD
1000
MTEXTBEGIN
1070
    73
1070
     1
1070
    44
1040
1.0
1070
    74
1070
     0
1000
MTEXTEND
  0
TEXT
  5
4283
  8
241
  6
CONTINUOUS
 10
0.0
 20
42.000000553236561
 30
0.0
 40
5.0
  1
ST12-SRC6SS-120
  7
YOKO
 11
0.0
 21
42.000000553236561
 31
0.0
 73
     1
  0
LINE
  5
4284
  8
250
  6
CONTINUOUS
 10
129.1283333333333
 20
5.2300005532365663
 30
0.0
 11
129.5
 21
3.0000005532365659
 31
0.0
  0
LINE
  5
4285
  8
250
  6
CONTINUOUS
 10
129.87166666666661
 20
5.2300005532365663
 30
0.0
 11
129.5
 21
3.0000005532365659
 31
0.0
  0
LINE
  5
4286
  8
250
  6
CONTINUOUS
 10
129.5
 20
3.0000005532365659
 30
0.0
 11
129.5
 21
6.07130187645049
 31
0.0
  0
LINE
  5
428E
  8
250
  6
CONTINUOUS
 10
120.5
 20
-2.9999994467633879
 30
0.0
 11
130.5
 21
-2.9999994467633879
 31
0.0
  0
LINE
  5
428F
  8
250
  6
CONTINUOUS
 10
129.1283333333333
 20
-5.2299994467633883
 30
0.0
 11
129.5
 21
-2.9999994467633879
 31
0.0
  0
LINE
  5
4290
  8
250
  6
CONTINUOUS
 10
129.87166666666661
 20
-5.2299994467633883
 30
0.0
 11
129.5
 21
-2.9999994467633879
 31
0.0
  0
LINE
  5
4291
  8
250
  6
CONTINUOUS
 10
129.5
 20
-2.9999994467633879
 30
0.0
 11
129.5
 21
-6.0713007699773121
 31
0.0
  0
LINE
  5
42C1
  8
250
  6
CONTINUOUS
 10
-0.3773458089009409
 20
-16.64097608393714
 30
0.0
 11
11.755987524432379
 21
-16.64097608393714
 31
0.0
  0
LINE
  5
42C2
  8
250
  6
CONTINUOUS
 10
11.755987524432379
 20
-16.64097608393714
 30
0.0
 11
17.303341021177118
 21
-7.8838329057757273
 31
0.0
  0
LINE
  5
42C3
  8
250
  6
CONTINUOUS
 10
17.303341021177118
 20
-7.8838329057757273
 30
0.0
 11
18.49668569004098
 21
-5.9999994467634332
 31
0.0
  0
LINE
  5
42C4
  8
250
  6
CONTINUOUS
 10
17.551352399988211
 20
-8.0409397112133192
 30
0.0
 11
18.49668569004098
 21
-5.9999994467634332
 31
0.0
  0
LINE
  5
42C5
  8
250
  6
CONTINUOUS
 10
18.49668569004098
 20
-5.9999994467634332
 30
0.0
 11
17.055329642366019
 21
-7.7267261003381336
 31
0.0
  0
TEXT
  5
42C6
  8
250
  6
CONTINUOUS
 10
-0.7773458089009182
 20
-15.240976083937159
 30
0.0
 40
2.7999999999999989
  1
ST12
  7
ACJISTS
  0
LINE
  5
42C7
  8
247
  6
CONTINUOUS
 10
4.25
 20
-3.9999994467634332
 30
0.0
 11
8.8846153843300044
 21
-3.9999994467634332
 31
0.0
  0
LINE
  5
42C8
  8
247
  6
CONTINUOUS
 10
5.0451065000120252
 20
-1.499999446763433
 30
0.0
 11
4.4429411899426441
 21
-3.5999994466794409
 31
0.0
  0
LINE
  5
42C9
  8
247
  6
CONTINUOUS
 10
5.6748485964809561
 20
-2.4961532928773171
 30
0.0
 11
4.7594639811329671
 21
-2.4961532928773171
 31
0.0
  0
ARC
  5
42CA
  8
247
  6
CONTINUOUS
 10
5.9127365980531863
 20
-1.884718514057532
 30
0.0
 40
0.3876715809326743
 50
342.99788967529531
 51
82.924166218513619
  0
ARC
  5
42CB
  8
247
  6
CONTINUOUS
 10
5.6175224431958659
 20
-1.8052225777914479
 30
0.0
 40
0.6933047965358766
 50
274.74293685219902
 51
343.84922627326682
1001
GENIUS_GENOBJ-N-FIL_13
1002
{
1000
OWNER
1000
GEN
1002
}
1001
GENIUS_GENODEF_13
1002
{
1000
HIER
1070
     0
1002
}
1002
{
1000
MANEDIT
1070
     0
1002
}
1002
{
1000
NOSEL
1070
     0
1002
}
1002
{
1000
BEHIND
1070
     0
1002
}
1002
{
1000
OTHER
1070
     0
1002
}
1002
{
1000
REACTOR
1002
}
  0
LINE
  5
42CC
  8
247
  6
CONTINUOUS
 10
5.3583258052906331
 20
-3.5999994466794409
 30
0.0
 11
4.4429411899426441
 21
-3.5999994466794409
 31
0.0
  0
LINE
  5
42CD
  8
247
  6
CONTINUOUS
 10
5.0451065000120252
 20
-1.499999446763433
 30
0.0
 11
5.960491115360071
 21
-1.499999446763433
 31
0.0
  0
ARC
  5
42CE
  8
247
  6
CONTINUOUS
 10
5.6216935237331418
 20
-2.8874164095313621
 30
0.0
 40
0.394857301075386
 50
335.9909416525216
 51
82.263443459069109
  0
ARC
  5
42CF
  8
247
  6
CONTINUOUS
 10
5.287553389573076
 20
-2.8911997740960591
 30
0.0
 40
0.7123241612361686
 50
275.70198516425643
 51
347.27733843682199
1001
GENIUS_GENOBJ-N-FIL_13
1002
{
1000
OWNER
1000
GEN
1002
}
1001
GENIUS_GENODEF_13
1002
{
1000
HIER
1070
     0
1002
}
1002
{
1000
MANEDIT
1070
     0
1002
}
1002
{
1000
NOSEL
1070
     0
1002
}
1002
{
1000
BEHIND
1070
     0
1002
}
1002
{
1000
OTHER
1070
     0
1002
}
1002
{
1000
REACTOR
1002
}
  0
LINE
  5
42D0
  8
247
  6
CONTINUOUS
 10
6.3160181129366029
 20
-3.5999994466794409
 30
0.0
 11
6.9181834230060408
 21
-1.499999446763433
 31
0.0
  0
LINE
  5
42D1
  8
247
  6
CONTINUOUS
 10
8.4143372690920142
 20
-1.499999446763433
 30
0.0
 11
8.0183216356964522
 21
-1.499999446763433
 31
0.0
  0
LINE
  5
42D2
  8
247
  6
CONTINUOUS
 10
7.391260346056014
 20
-3.5999994466794409
 30
0.0
 11
7.8220295768080632
 21
-3.5999994466794409
 31
0.0
  0
ARC
  5
42D3
  8
247
  6
CONTINUOUS
 10
8.6181834229300307
 20
-2.9582990418468502
 30
0.0
 40
1.5768550576395479
 50
112.3594881415292
 51
164.99324854284649
  0
ARC
  5
42D4
  8
247
  6
CONTINUOUS
 10
8.152488633866767
 20
-2.0658183053014558
 30
0.0
 40
0.6234706797009447
 50
4.9945893190753123
 51
65.166328957307599
1001
GENIUS_GENOBJ-N-FIL_13
1002
{
1000
OWNER
1000
GEN
1002
}
1001
GENIUS_GENODEF_13
1002
{
1000
HIER
1070
     0
1002
}
1002
{
1000
MANEDIT
1070
     0
1002
}
1002
{
1000
NOSEL
1070
     0
1002
}
1002
{
1000
BEHIND
1070
     0
1002
}
1002
{
1000
OTHER
1070
     0
1002
}
1002
{
1000
REACTOR
1002
}
  0
ARC
  5
42D5
  8
247
  6
CONTINUOUS
 10
7.5558160489672437
 20
-2.6621015687328158
 30
0.0
 40
0.9749472149106983
 50
285.8460965557839
 51
352.3251370041624
  0
ARC
  5
42D6
  8
247
  6
CONTINUOUS
 10
7.964788361227761
 20
-2.8714698487344421
 30
0.0
 40
0.9271945638692009
 50
159.71360167048971
 51
231.7887456564151
1001
GENIUS_GENOBJ-N-FIL_13
1002
{
1000
OWNER
1000
GEN
1002
}
1001
GENIUS_GENODEF_13
1002
{
1000
HIER
1070
     0
1002
}
1002
{
1000
MANEDIT
1070
     0
1002
}
1002
{
1000
NOSEL
1070
     0
1002
}
1002
{
1000
BEHIND
1070
     0
1002
}
1002
{
1000
OTHER
1070
     0
1002
}
1002
{
1000
REACTOR
1002
}
  0
LINE
  5
42D7
  8
247
  6
CONTINUOUS
 10
8.0374141921840305
 20
-2.7923071390193499
 30
0.0
 11
8.522029576780028
 21
-2.7923071390193499
 31
0.0
  0
ARC
  5
42D8
  8
247
  6
CONTINUOUS
 10
4.25
 20
-2.7499994467634332
 30
0.0
 40
1.25
 50
90.0
 51
270.0
  0
LINE
  5
42D9
  8
247
  6
CONTINUOUS
 10
4.25
 20
-1.499999446763433
 30
0.0
 11
4.6961538460860188
 21
-1.499999446763433
 31
0.0
  0
ARC
  5
42DA
  8
247
  6
CONTINUOUS
 10
8.8846153843300044
 20
-2.7499994467634332
 30
0.0
 40
1.25
 50
270.0
 51
90.0
  0
VIEWPORT
  5
22
 67
     1
  8
0
 10
261.51769911504419
 20
148.5
 30
0.0
 40
523.0353982300885
 41
297.0
 68
     1
 69
     1
1001
ACAD
1000
MVIEW
1002
{
1070
    16
1010
0.0
1020
0.0
1030
0.0
1010
0.0
1020
0.0
1030
1.0
1040
0.0
1040
297.0
1040
261.51769911504419
1040
148.5
1040
50.0
1040
0.0
1040
0.0
1070
     0
1070
   100
1070
     1
1070
     1
1070
     0
1070
     0
1070
     0
1070
     0
1040
0.0
1040
0.0
1040
0.0
1040
1.0
1040
1.0
1040
10.0
1040
10.0
1070
     0
1002
{
1002
}
1002
}
1001
GENIUS_GENODEF_13
1002
{
1000
HIER
1070
     0
1002
}
1002
{
1000
MANEDIT
1070
     0
1002
}
1002
{
1000
NOSEL
1070
     0
1002
}
1002
{
1000
BEHIND
1070
     0
1002
}
1002
{
1000
OTHER
1070
     0
1002
}
1002
{
1000
REACTOR
1002
}
1001
GENIUS_GENOBJ-N-SDF_13
1002
{
1000
OWNER
1000
GEN
1002
}
1001
GENIUS_GENSCREG_15
1000
PF
1040
1.0
1000
DF
1040
1.0
1000
MIN
1011
0.0
1021
0.0
1031
0.0
1021
0.0
1031
0.0
1000
MAX
1011
523.0353982300885
1021
0.0
1031
0.0
1021
297.0
1031
0.0
1000
FLAGS
1070
     4
  0
ENDSEC
  0
EOF
