ISO-10303-21;
HEADER;
FILE_DESCRIPTION((''),'1');
FILE_NAME('//Big_tech03/bigt/Translate/21_\X2\8F2A90ED7DDA\X0\-DXF/01_\X2\30E130AC30C130E330C330AF30B730EA30FC30BA\X0\/01_\X2\30E130AC30DE30A430AF30ED30C130E330C330AF\X0\ MEGA-S/ST/ST10-MEGA4S-130.stp','2012-04-24T07:59:58',(''),(''),'Spatial Interop R18','Kubotek KeyCreator V8.5.1 (14335)',' ');
FILE_SCHEMA(('CONFIG_CONTROL_DESIGN'));
ENDSEC;
DATA;
#1=DESIGN_CONTEXT('',#27,'design');
#2=APPLICATION_PROTOCOL_DEFINITION('INTERNATIONAL STANDARD','config_control_design',1994,#27);
#3=PRODUCT_CATEGORY_RELATIONSHIP('NONE','NONE',#28,#29);
#4=DATE_AND_TIME(#30,#31);
#5=DATE_TIME_ROLE('creation_date');
#6=DATE_TIME_ROLE('classification_date');
#7=PERSON_AND_ORGANIZATION_ROLE('creator');
#8=PERSON_AND_ORGANIZATION_ROLE('design_supplier');
#9=PERSON_AND_ORGANIZATION_ROLE('classification_officer');
#10=PERSON_AND_ORGANIZATION_ROLE('design_owner');
#11=APPROVAL_PERSON_ORGANIZATION(#32,#33,#34);
#12=APPROVAL_DATE_TIME(#4,#33);
#13=CC_DESIGN_APPROVAL(#33,(#35,#36,#37));
#14=CC_DESIGN_DATE_AND_TIME_ASSIGNMENT(#4,#5,(#37));
#15=CC_DESIGN_DATE_AND_TIME_ASSIGNMENT(#4,#6,(#35));
#16=CC_DESIGN_PERSON_AND_ORGANIZATION_ASSIGNMENT(#32,#10,(#38));
#17=CC_DESIGN_PERSON_AND_ORGANIZATION_ASSIGNMENT(#32,#7,(#37));
#18=CC_DESIGN_PERSON_AND_ORGANIZATION_ASSIGNMENT(#32,#7,(#36));
#19=CC_DESIGN_PERSON_AND_ORGANIZATION_ASSIGNMENT(#32,#8,(#36));
#20=CC_DESIGN_SECURITY_CLASSIFICATION(#35,(#36));
#21=CC_DESIGN_PERSON_AND_ORGANIZATION_ASSIGNMENT(#32,#9,(#35));
#22=SHAPE_DEFINITION_REPRESENTATION(#39,#40);
#23= (GEOMETRIC_REPRESENTATION_CONTEXT(3)GLOBAL_UNCERTAINTY_ASSIGNED_CONTEXT((#43))GLOBAL_UNIT_ASSIGNED_CONTEXT((#45,#46,#47))REPRESENTATION_CONTEXT('NONE','WORKSPACE'));
#27=APPLICATION_CONTEXT('CONFIGURATION CONTROLLED 3D DESIGNS OF MECHANICAL PARTS AND ASSEMBLIES');
#28=PRODUCT_CATEGORY('part','NONE');
#29=PRODUCT_RELATED_PRODUCT_CATEGORY('detail',' ',(#38));
#30=CALENDAR_DATE(2012,24,3);
#31=LOCAL_TIME(16,59,58.0,#49);
#32=PERSON_AND_ORGANIZATION(#50,#51);
#33=APPROVAL(#52,'SOLID MODEL');
#34=APPROVAL_ROLE('APPROVED');
#35=SECURITY_CLASSIFICATION('','',#53);
#36=PRODUCT_DEFINITION_FORMATION_WITH_SPECIFIED_SOURCE(' ','NONE',#38,.NOT_KNOWN.);
#37=PRODUCT_DEFINITION('NONE','NONE',#36,#1);
#38=PRODUCT('1','1','PART-1-DESC',(#54));
#39=PRODUCT_DEFINITION_SHAPE('NONE','NONE',#37);
#40=ADVANCED_BREP_SHAPE_REPRESENTATION('1',(#55,#56),#23);
#43=UNCERTAINTY_MEASURE_WITH_UNIT(LENGTH_MEASURE(1.0E-006),#45,'','');
#45= (CONVERSION_BASED_UNIT('MILLIMETRE',#59)LENGTH_UNIT()NAMED_UNIT(#62));
#46= (NAMED_UNIT(#64)PLANE_ANGLE_UNIT()SI_UNIT($,.RADIAN.));
#47= (NAMED_UNIT(#64)SOLID_ANGLE_UNIT()SI_UNIT($,.STERADIAN.));
#49=COORDINATED_UNIVERSAL_TIME_OFFSET(9,0,.AHEAD.);
#50=PERSON('','UNSPECIFIED',$,$,$,$);
#51=ORGANIZATION('UNSPECIFIED','UNSPECIFIED','UNSPECIFIED');
#52=APPROVAL_STATUS('approved');
#53=SECURITY_CLASSIFICATION_LEVEL('unclassified');
#54=MECHANICAL_CONTEXT('',#27,'mechanical');
#55=MANIFOLD_SOLID_BREP('1',#70);
#56=AXIS2_PLACEMENT_3D('',#71,#72,#73);
#59=LENGTH_MEASURE_WITH_UNIT(LENGTH_MEASURE(1.0),#74);
#62=DIMENSIONAL_EXPONENTS(1.0,0.0,0.0,0.0,0.0,0.0,0.0);
#64=DIMENSIONAL_EXPONENTS(0.0,0.0,0.0,0.0,0.0,0.0,0.0);
#70=CLOSED_SHELL('',(#75,#76,#77,#78,#79,#80,#81,#82,#83));
#71=CARTESIAN_POINT('',(0.0,0.0,0.0));
#72=DIRECTION('',(0.0,0.0,1.0));
#73=DIRECTION('',(1.0,0.0,0.0));
#74= (NAMED_UNIT(#62)LENGTH_UNIT()SI_UNIT(.MILLI.,.METRE.));
#75=ADVANCED_FACE('',(#85),#86,.T.);
#76=ADVANCED_FACE('',(#87),#88,.T.);
#77=ADVANCED_FACE('',(#89,#90),#91,.T.);
#78=ADVANCED_FACE('',(#92,#93),#94,.T.);
#79=ADVANCED_FACE('',(#95,#96),#97,.T.);
#80=ADVANCED_FACE('',(#98,#99),#100,.T.);
#81=ADVANCED_FACE('',(#101,#102),#103,.T.);
#82=ADVANCED_FACE('',(#104,#105),#106,.T.);
#83=ADVANCED_FACE('',(#107,#108),#109,.T.);
#85=FACE_OUTER_BOUND('',#110,.T.);
#86=PLANE('',#111);
#87=FACE_OUTER_BOUND('',#112,.T.);
#88=PLANE('',#113);
#89=FACE_BOUND('',#114,.T.);
#90=FACE_BOUND('',#115,.T.);
#91=CYLINDRICAL_SURFACE('',#116,6.0);
#92=FACE_BOUND('',#117,.T.);
#93=FACE_BOUND('',#118,.T.);
#94=CONICAL_SURFACE('',#119,5.62500005,1.04719753148628);
#95=FACE_BOUND('',#120,.T.);
#96=FACE_BOUND('',#121,.T.);
#97=CYLINDRICAL_SURFACE('',#122,5.2500001);
#98=FACE_OUTER_BOUND('',#123,.T.);
#99=FACE_BOUND('',#124,.T.);
#100=PLANE('',#125);
#101=FACE_BOUND('',#126,.T.);
#102=FACE_BOUND('',#127,.T.);
#103=CYLINDRICAL_SURFACE('',#128,6.15000071);
#104=FACE_BOUND('',#129,.T.);
#105=FACE_BOUND('',#130,.T.);
#106=CONICAL_SURFACE('',#131,6.07500038,0.523598782746345);
#107=FACE_BOUND('',#132,.T.);
#108=FACE_BOUND('',#133,.T.);
#109=CYLINDRICAL_SURFACE('',#134,6.00000005);
#110=EDGE_LOOP('',(#135));
#111=AXIS2_PLACEMENT_3D('',#136,#137,#138);
#112=EDGE_LOOP('',(#139));
#113=AXIS2_PLACEMENT_3D('',#140,#141,#142);
#114=EDGE_LOOP('',(#143));
#115=EDGE_LOOP('',(#144));
#116=AXIS2_PLACEMENT_3D('',#145,#146,#147);
#117=EDGE_LOOP('',(#148));
#118=EDGE_LOOP('',(#149));
#119=AXIS2_PLACEMENT_3D('',#150,#151,#152);
#120=EDGE_LOOP('',(#153));
#121=EDGE_LOOP('',(#154));
#122=AXIS2_PLACEMENT_3D('',#155,#156,#157);
#123=EDGE_LOOP('',(#158));
#124=EDGE_LOOP('',(#159));
#125=AXIS2_PLACEMENT_3D('',#160,#161,#162);
#126=EDGE_LOOP('',(#163));
#127=EDGE_LOOP('',(#164));
#128=AXIS2_PLACEMENT_3D('',#165,#166,#167);
#129=EDGE_LOOP('',(#168));
#130=EDGE_LOOP('',(#169));
#131=AXIS2_PLACEMENT_3D('',#170,#171,#172);
#132=EDGE_LOOP('',(#173));
#133=EDGE_LOOP('',(#174));
#134=AXIS2_PLACEMENT_3D('',#175,#176,#177);
#135=ORIENTED_EDGE('',*,*,#178,.T.);
#136=CARTESIAN_POINT('',(-6.12323399573677E-017,3.000000025,1.0));
#137=DIRECTION('',(6.12323399573677E-017,1.22464679914735E-016,-1.0));
#138=DIRECTION('',(-1.23259516440783E-032,1.0,1.22464679914735E-016));
#139=ORIENTED_EDGE('',*,*,#179,.F.);
#140=CARTESIAN_POINT('',(-7.9602041944578E-015,2.99999999999998,130.0));
#141=DIRECTION('',(-6.12323399573677E-017,-1.22464679914735E-016,1.0));
#142=DIRECTION('',(1.23259516440783E-032,-1.0,-1.22464679914735E-016));
#143=ORIENTED_EDGE('',*,*,#180,.F.);
#144=ORIENTED_EDGE('',*,*,#179,.T.);
#145=CARTESIAN_POINT('',(-4.4581113216425E-015,-8.91622264328499E-015,72.8064830569338));
#146=DIRECTION('',(-6.12323399573677E-017,-1.22464679914735E-016,1.0));
#147=DIRECTION('',(-1.23259516440783E-032,1.0,1.22464679914735E-016));
#148=ORIENTED_EDGE('',*,*,#181,.F.);
#149=ORIENTED_EDGE('',*,*,#180,.T.);
#150=CARTESIAN_POINT('',(-9.42761259507306E-016,-1.88552251901461E-015,15.3964597819338));
#151=DIRECTION('',(-6.12323399573677E-017,-1.22464679914735E-016,1.0));
#152=DIRECTION('',(-1.23259516440783E-032,1.0,1.22464679914735E-016));
#153=ORIENTED_EDGE('',*,*,#182,.F.);
#154=ORIENTED_EDGE('',*,*,#181,.T.);
#155=CARTESIAN_POINT('',(-9.08686546627364E-016,-1.81737309325473E-015,14.83997749));
#156=DIRECTION('',(-6.12323399573677E-017,-1.22464679914735E-016,1.0));
#157=DIRECTION('',(-1.23259516440783E-032,1.0,1.22464679914735E-016));
#158=ORIENTED_EDGE('',*,*,#183,.F.);
#159=ORIENTED_EDGE('',*,*,#182,.T.);
#160=CARTESIAN_POINT('',(-8.87869023067312E-016,5.700000405,14.50000153));
#161=DIRECTION('',(-6.12323399573677E-017,-1.22464679914735E-016,1.0));
#162=DIRECTION('',(1.23259516440783E-032,-1.0,-1.22464679914735E-016));
#163=ORIENTED_EDGE('',*,*,#184,.F.);
#164=ORIENTED_EDGE('',*,*,#183,.T.);
#165=CARTESIAN_POINT('',(-8.26636683109944E-016,-1.65327336621989E-015,13.50000153));
#166=DIRECTION('',(-6.12323399573677E-017,-1.22464679914735E-016,1.0));
#167=DIRECTION('',(-1.23259516440783E-032,1.0,1.22464679914735E-016));
#168=ORIENTED_EDGE('',*,*,#185,.F.);
#169=ORIENTED_EDGE('',*,*,#184,.T.);
#170=CARTESIAN_POINT('',(-7.57449993994465E-016,-1.51489998798893E-015,12.37009715));
#171=DIRECTION('',(-6.12323399573677E-017,-1.22464679914735E-016,1.0));
#172=DIRECTION('',(-1.23259516440783E-032,1.0,1.22464679914735E-016));
#173=ORIENTED_EDGE('',*,*,#178,.F.);
#174=ORIENTED_EDGE('',*,*,#185,.T.);
#175=CARTESIAN_POINT('',(-4.0536399239686E-016,-8.10727984793721E-016,6.62009638499999));
#176=DIRECTION('',(-6.12323399573677E-017,-1.22464679914735E-016,1.0));
#177=DIRECTION('',(-1.23259516440783E-032,1.0,1.22464679914735E-016));
#178=EDGE_CURVE('',#186,#186,#187,.T.);
#179=EDGE_CURVE('',#188,#188,#189,.T.);
#180=EDGE_CURVE('',#190,#190,#191,.T.);
#181=EDGE_CURVE('',#192,#192,#193,.T.);
#182=EDGE_CURVE('',#194,#194,#195,.T.);
#183=EDGE_CURVE('',#196,#196,#197,.T.);
#184=EDGE_CURVE('',#198,#198,#199,.T.);
#185=EDGE_CURVE('',#200,#200,#201,.T.);
#186=VERTEX_POINT('',#202);
#187=CIRCLE('',#203,6.00000005);
#188=VERTEX_POINT('',#204);
#189=CIRCLE('',#205,6.0);
#190=VERTEX_POINT('',#206);
#191=CIRCLE('',#207,6.0);
#192=VERTEX_POINT('',#208);
#193=CIRCLE('',#209,5.2500001);
#194=VERTEX_POINT('',#210);
#195=CIRCLE('',#211,5.2500001);
#196=VERTEX_POINT('',#212);
#197=CIRCLE('',#213,6.15000071);
#198=VERTEX_POINT('',#214);
#199=CIRCLE('',#215,6.15000071);
#200=VERTEX_POINT('',#216);
#201=CIRCLE('',#217,6.00000005);
#202=CARTESIAN_POINT('',(-6.12323399573677E-017,6.00000005,1.0));
#203=AXIS2_PLACEMENT_3D('',#218,#219,#220);
#204=CARTESIAN_POINT('',(-7.9602041944578E-015,5.99999999999998,130.0));
#205=AXIS2_PLACEMENT_3D('',#221,#222,#223);
#206=CARTESIAN_POINT('',(-9.56018448827197E-016,6.0,15.6129661138675));
#207=AXIS2_PLACEMENT_3D('',#224,#225,#226);
#208=CARTESIAN_POINT('',(-9.29504070187416E-016,5.2500001,15.17995345));
#209=AXIS2_PLACEMENT_3D('',#227,#228,#229);
#210=CARTESIAN_POINT('',(-8.87869023067312E-016,5.2500001,14.50000153));
#211=AXIS2_PLACEMENT_3D('',#230,#231,#232);
#212=CARTESIAN_POINT('',(-8.87869023067312E-016,6.15000071,14.50000153));
#213=AXIS2_PLACEMENT_3D('',#233,#234,#235);
#214=CARTESIAN_POINT('',(-7.65404343152577E-016,6.15000071,12.50000153));
#215=AXIS2_PLACEMENT_3D('',#236,#237,#238);
#216=CARTESIAN_POINT('',(-7.49495644836353E-016,6.00000005,12.24019277));
#217=AXIS2_PLACEMENT_3D('',#239,#240,#241);
#218=CARTESIAN_POINT('',(-6.12323399573677E-017,-1.22464679914735E-016,1.0));
#219=DIRECTION('',(6.12323399573677E-017,1.22464679914735E-016,-1.0));
#220=DIRECTION('',(-1.23259516440783E-032,1.0,1.22464679914735E-016));
#221=CARTESIAN_POINT('',(-7.9602041944578E-015,-1.59204083889156E-014,130.0));
#222=DIRECTION('',(6.12323399573677E-017,1.22464679914735E-016,-1.0));
#223=DIRECTION('',(-1.23259516440783E-032,1.0,1.22464679914735E-016));
#224=CARTESIAN_POINT('',(-9.56018448827197E-016,-1.91203689765439E-015,15.6129661138675));
#225=DIRECTION('',(6.12323399573677E-017,1.22464679914735E-016,-1.0));
#226=DIRECTION('',(-1.23259516440783E-032,1.0,1.22464679914735E-016));
#227=CARTESIAN_POINT('',(-9.29504070187416E-016,-1.85900814037483E-015,15.17995345));
#228=DIRECTION('',(6.12323399573677E-017,1.22464679914735E-016,-1.0));
#229=DIRECTION('',(-1.23259516440783E-032,1.0,1.22464679914735E-016));
#230=CARTESIAN_POINT('',(-8.87869023067312E-016,-1.77573804613462E-015,14.50000153));
#231=DIRECTION('',(6.12323399573677E-017,1.22464679914735E-016,-1.0));
#232=DIRECTION('',(-1.23259516440783E-032,1.0,1.22464679914735E-016));
#233=CARTESIAN_POINT('',(-8.87869023067312E-016,-1.77573804613462E-015,14.50000153));
#234=DIRECTION('',(6.12323399573677E-017,1.22464679914735E-016,-1.0));
#235=DIRECTION('',(-1.23259516440783E-032,1.0,1.22464679914735E-016));
#236=CARTESIAN_POINT('',(-7.65404343152576E-016,-1.53080868630515E-015,12.50000153));
#237=DIRECTION('',(6.12323399573677E-017,1.22464679914735E-016,-1.0));
#238=DIRECTION('',(-1.23259516440783E-032,1.0,1.22464679914735E-016));
#239=CARTESIAN_POINT('',(-7.49495644836353E-016,-1.49899128967271E-015,12.24019277));
#240=DIRECTION('',(6.12323399573677E-017,1.22464679914735E-016,-1.0));
#241=DIRECTION('',(-1.23259516440783E-032,1.0,1.22464679914735E-016));
ENDSEC;
END-ISO-10303-21;
