  0
SECTION
  2
HEADER
  9
$ACADVER
  1
AC1009
  9
$INSBASE
 10
0.0
 20
0.0
 30
0.0
  9
$EXTMIN
 10
-117.07496811780391
 20
-30.84679614914489
 30
0.0
  9
$EXTMAX
 10
15.50712530083751
 20
24.117109340280681
 30
0.0
  9
$LIMMIN
 10
0.0
 20
0.0
  9
$LIMMAX
 10
297.0
 20
210.0
  9
$ORTHOMODE
 70
     1
  9
$REGENMODE
 70
     1
  9
$FILLMODE
 70
     1
  9
$QTEXTMODE
 70
     0
  9
$MIRRTEXT
 70
     1
  9
$DRAGMODE
 70
     2
  9
$LTSCALE
 40
10.0
  9
$OSMODE
 70
  2799
  9
$ATTMODE
 70
     1
  9
$TEXTSIZE
 40
3.0
  9
$TRACEWID
 40
1.0
  9
$TEXTSTYLE
  7
YOKO
  9
$CLAYER
  8
240
  9
$CELTYPE
  6
BYLAYER
  9
$CECOLOR
 62
   256
  9
$DIMSCALE
 40
1.0
  9
$DIMASZ
 40
2.2299999999999991
  9
$DIMEXO
 40
0.5
  9
$DIMDLI
 40
7.0
  9
$DIMRND
 40
0.0
  9
$DIMDLE
 40
0.0
  9
$DIMEXE
 40
1.0
  9
$DIMTP
 40
0.0
  9
$DIMTM
 40
0.01
  9
$DIMTXT
 40
2.799999999999998
  9
$DIMCEN
 40
0.0
  9
$DIMTSZ
 40
0.0
  9
$DIMTOL
 70
     0
  9
$DIMLIM
 70
     0
  9
$DIMTIH
 70
     0
  9
$DIMTOH
 70
     0
  9
$DIMSE1
 70
     0
  9
$DIMSE2
 70
     0
  9
$DIMTAD
 70
     3
  9
$DIMZIN
 70
     9
  9
$DIMBLK
  1
OPEN
  9
$DIMASO
 70
     1
  9
$DIMSHO
 70
     1
  9
$DIMPOST
  1

  9
$DIMAPOST
  1

  9
$DIMALT
 70
     0
  9
$DIMALTD
 70
     2
  9
$DIMALTF
 40
25.399999999999999
  9
$DIMLFAC
 40
1.0
  9
$DIMTOFL
 70
     1
  9
$DIMTVP
 40
0.0
  9
$DIMTIX
 70
     1
  9
$DIMSOXD
 70
     0
  9
$DIMSAH
 70
     0
  9
$DIMBLK1
  1

  9
$DIMBLK2
  1

  9
$DIMSTYLE
  2
BIGT
  9
$DIMCLRD
 70
   256
  9
$DIMCLRE
 70
   256
  9
$DIMCLRT
 70
    40
  9
$DIMTFAC
 40
1.0
  9
$DIMGAP
 40
1.0
  9
$LUNITS
 70
     2
  9
$LUPREC
 70
     3
  9
$SKETCHINC
 40
1.0
  9
$FILLETRAD
 40
0.2
  9
$AUNITS
 70
     0
  9
$AUPREC
 70
     3
  9
$MENU
  1
.
  9
$ELEVATION
 40
0.0
  9
$PELEVATION
 40
0.0
  9
$THICKNESS
 40
0.0
  9
$LIMCHECK
 70
     0
  9
$BLIPMODE
 70
     0
  9
$CHAMFERA
 40
0.25
  9
$CHAMFERB
 40
0.25
  9
$SKPOLY
 70
     0
  9
$TDCREATE
 40
2454678.6627864582
  9
$TDUPDATE
 40
2454679.5764997462
  9
$TDINDWG
 40
0.0286297454
  9
$TDUSRTIMER
 40
0.0286295602
  9
$USRTIMER
 70
     1
  9
$ANGBASE
 50
0.0
  9
$ANGDIR
 70
     0
  9
$PDMODE
 70
     1
  9
$PDSIZE
 40
0.0
  9
$PLINEWID
 40
0.0
  9
$COORDS
 70
     1
  9
$SPLFRAME
 70
     0
  9
$SPLINETYPE
 70
     6
  9
$SPLINESEGS
 70
     4
  9
$ATTDIA
 70
     1
  9
$ATTREQ
 70
     1
  9
$HANDLING
 70
     1
  9
$HANDSEED
  5
320B
  9
$SURFTAB1
 70
     6
  9
$SURFTAB2
 70
     6
  9
$SURFTYPE
 70
     6
  9
$SURFU
 70
     6
  9
$SURFV
 70
     6
  9
$UCSNAME
  2

  9
$UCSORG
 10
0.0
 20
0.0
 30
0.0
  9
$UCSXDIR
 10
1.0
 20
0.0
 30
0.0
  9
$UCSYDIR
 10
0.0
 20
1.0
 30
0.0
  9
$PUCSNAME
  2

  9
$PUCSORG
 10
0.0
 20
0.0
 30
0.0
  9
$PUCSXDIR
 10
1.0
 20
0.0
 30
0.0
  9
$PUCSYDIR
 10
0.0
 20
1.0
 30
0.0
  9
$USERI1
 70
     1
  9
$USERI2
 70
     0
  9
$USERI3
 70
     0
  9
$USERI4
 70
     0
  9
$USERI5
 70
     0
  9
$USERR1
 40
0.0
  9
$USERR2
 40
0.0
  9
$USERR3
 40
0.0
  9
$USERR4
 40
0.0
  9
$USERR5
 40
0.0
  9
$WORLDVIEW
 70
     1
  9
$SHADEDGE
 70
     3
  9
$SHADEDIF
 70
    70
  9
$TILEMODE
 70
     1
  9
$MAXACTVP
 70
    16
  9
$PLIMCHECK
 70
     0
  9
$PEXTMIN
 10
1.0000000000000000E+020
 20
1.0000000000000000E+020
 30
1.0000000000000000E+020
  9
$PEXTMAX
 10
-1.0000000000000000E+020
 20
-1.0000000000000000E+020
 30
-1.0000000000000000E+020
  9
$PLIMMIN
 10
0.0
 20
0.0
  9
$PLIMMAX
 10
420.0
 20
297.0
  9
$UNITMODE
 70
     0
  9
$VISRETAIN
 70
     1
  9
$PLINEGEN
 70
     0
  9
$PSLTSCALE
 70
     1
  0
ENDSEC
  0
SECTION
  2
TABLES
  0
TABLE
  2
VPORT
 70
     3
  0
VPORT
  2
*ACTIVE
 70
     0
 10
0.0
 20
0.0
 11
1.0
 21
1.0
 12
-50.787840561727307
 22
-3.3714288093119928
 13
0.0
 23
0.0
 14
7.0
 24
7.0
 15
7.0
 25
7.0
 16
0.0
 26
0.0
 36
1.0
 17
0.0
 27
0.0
 37
0.0
 40
83.434914121962933
 41
1.5958115183246071
 42
50.0
 43
0.0
 44
0.0
 50
0.0
 51
0.0
 71
     0
 72
  2000
 73
     1
 74
     0
 75
     0
 76
     1
 77
     0
 78
     0
  0
ENDTAB
  0
TABLE
  2
LTYPE
 70
    16
  0
LTYPE
  2
CONTINUOUS
 70
     0
  3
Solid line
 72
    65
 73
     0
 40
0.0
  0
LTYPE
  2
CENTER2
 70
     0
  3
___ _ ___ _ ___ _ ___ _ ___ _ ___ _ ___ _ ___ _
 72
    65
 73
     4
 40
1.125
 49
0.75
 49
-0.125
 49
0.125
 49
-0.125
  0
LTYPE
  2
HIDDEN2
 70
     0
  3
_ _ _ _ _ _ _ _ _ _ _ _ _ _ _ _ _ _ _ _ _ _ _ _
 72
    65
 73
     2
 40
0.1875
 49
0.125
 49
-0.0625
  0
LTYPE
  2
PHANTOM2
 70
     0
  3
___ _ _ ___ _ _ ___ _ _ ___ _ _ ___ _ _ ___ _ _
 72
    65
 73
     6
 40
1.25
 49
0.625
 49
-0.125
 49
0.125
 49
-0.125
 49
0.125
 49
-0.125
  0
LTYPE
  2
CENTER
 70
     0
  3
____ _ ____ _ ____ _ ____ _ ____ _ ____ _ ____ 
 72
    65
 73
     4
 40
2.0
 49
1.25
 49
-0.25
 49
0.25
 49
-0.25
  0
LTYPE
  2
AMCONSTR
 70
     0
  3
_______________________
 72
    65
 73
     2
 40
9999.0
 49
9999.0
 49
0.0
  0
LTYPE
  2
HIDDEN
 70
     0
  3
Hidden __ __ __ __ __ __ __ __ __ __ __ __ __ _
 72
    65
 73
     2
 40
9.5249999999999986
 49
6.3499999999999979
 49
-3.174999999999998
  0
LTYPE
  2
AMZIGZAG2
 70
     0
  3
/\/-/\/-/\/-/\/-/\/-/\/
 72
    65
 73
     2
 40
0.4401
 49
0.0001
 49
-0.4400000000000001
  0
LTYPE
  2
ACANSTGB
 70
     0
  3
__ . . __ . .
 72
    65
 73
     6
 40
0.35433070866
 49
0.15748031496
 49
-0.03937007874
 49
0.03937007874
 49
-0.03937007874
 49
0.03937007874
 49
-0.03937007874
  0
LTYPE
  2
ACANSTGL
 70
     0
  3
_ _ _ _ _
 72
    65
 73
     2
 40
0.11811023622
 49
0.07874015748
 49
-0.03937007874
  0
ENDTAB
  0
TABLE
  2
LAYER
 70
     8
  0
LAYER
  2
0
 70
     0
 62
     7
  6
CONTINUOUS
  0
LAYER
  2
240
 70
     0
 62
     4
  6
CONTINUOUS
  0
LAYER
  2
DEFPOINTS
 70
     0
 62
     7
  6
CONTINUOUS
  0
LAYER
  2
245
 70
     0
 62
     2
  6
CENTER2
  0
LAYER
  2
241
 70
     0
 62
   211
  6
CONTINUOUS
  0
LAYER
  2
246
 70
     0
 62
     3
  6
PHANTOM2
  0
LAYER
  2
247
 70
     0
 62
    60
  6
CONTINUOUS
  0
LAYER
  2
250
 70
     0
 62
     3
  6
CONTINUOUS
  0
ENDTAB
  0
TABLE
  2
STYLE
 70
     5
  0
STYLE
  2
STANDARD
 70
     0
 40
0.0
 41
1.0
 50
0.0
 71
     0
 42
3.0
  3
romans.shx
  4
extfont.shx
  0
STYLE
  2
YOKO
 70
     0
 40
0.0
 41
1.0
 50
0.0
 71
     0
 42
3.0
  3
romans.shx
  4
extfont.shx
  0
STYLE
  2

 70
     1
 40
0.0
 41
1.0
 50
0.0
 71
     0
 42
3.0
  3
ltypeshp.shx
  4

  0
STYLE
  2
ACANSTS
 70
     0
 40
1.0
 41
1.0
 50
0.0
 71
     0
 42
3.0
  3
romans.shx
  4
extfont.shx
  0
STYLE
  2
ACANSGDT
 70
     0
 40
0.0
 41
1.0
 50
0.0
 71
     0
 42
3.0
  3
amgdtans.shx
  4

  0
ENDTAB
  0
TABLE
  2
VIEW
 70
     0
  0
ENDTAB
  0
TABLE
  2
UCS
 70
     0
  0
ENDTAB
  0
TABLE
  2
APPID
 70
    31
  0
APPID
  2
ACAD
 70
     0
  0
APPID
  2
GLOBAL
 70
     0
  0
APPID
  2
DETAIL
 70
     0
  0
APPID
  2
GRPNAME
 70
     0
  0
APPID
  2
GPARA
 70
     0
  0
APPID
  2
MCAD_NO_VIS
 70
     0
  0
APPID
  2
ACAD_TEMP_GRAPHIC
 70
     0
  0
APPID
  2
ACATTRIBSERVICES
 70
     0
  0
APPID
  2
GENIUS_GENSCREG_15
 70
     0
  0
APPID
  2
GENIUS_GENODEF_13
 70
     0
  0
APPID
  2
GENIUS_GENOBJ-N-SDF_13
 70
     0
  0
APPID
  2
GENIUS_GENREC_14
 70
     0
  0
APPID
  2
GENIUS_GENOBJ-N-REC_13
 70
     0
  0
APPID
  2
GENIUS_GENDIMSH_14
 70
     0
  0
APPID
  2
GENIUS_GENOBJ-N-DIM_13
 70
     0
  0
APPID
  2
GENIUS_GENDIM_13
 70
     0
  0
APPID
  2
GENIUS_GENDTOL_13
 70
     0
  0
APPID
  2
GENIUS_GENOLIS_13
 70
     0
  0
APPID
  2
GENIUS_GENOENT_13
 70
     0
  0
APPID
  2
GENIUS_GENOBJ-F-FEM_13
 70
     0
  0
APPID
  2
GENIUS_GENOREF_13
 70
     0
  0
APPID
  2
GENIUS_GEFFEM_13
 70
     0
  0
APPID
  2
GENIUS_GEFFEMP_13
 70
     0
  0
APPID
  2
AD_DRAW
 70
     0
  0
APPID
  2
DESIGNERASSEMBLIES
 70
     0
  0
APPID
  2
ACADM_DIM_EDIT
 70
     0
  0
APPID
  2
AMDT_DM_ADJ
 70
     0
  0
APPID
  2
HATCH_TYPE
 70
     0
  0
APPID
  2
HATCH_DISPLAY
 70
     0
  0
APPID
  2
HATCH_DISTANCE
 70
     0
  0
APPID
  2
GENIUS_GENOBJ-N-FIL_13
 70
     0
  0
ENDTAB
  0
TABLE
  2
DIMSTYLE
 70
     7
  0
DIMSTYLE
  2
BIGT
 70
     0
  3

  4

  5

  6

  7

 40
1.0
 41
2.2299999999999991
 42
0.5
 43
7.0
 44
1.0
 45
0.0
 46
0.0
 47
0.0
 48
0.01
140
2.799999999999998
141
0.0
142
0.0
143
25.399999999999999
144
1.0
145
0.0
146
1.0
147
1.0
 71
     0
 72
     0
 73
     0
 74
     0
 75
     0
 76
     0
 77
     3
 78
     9
170
     0
171
     2
172
     1
173
     0
174
     1
175
     0
176
   256
177
   256
178
    40
  0
DIMSTYLE
  2
AM_ANSI
 70
     0
  3

  4
mm
  5

  6

  7

 40
1.0
 41
0.1
 42
0.05
 43
0.5
 44
0.1
 45
0.0
 46
0.0
 47
0.1
 48
0.1
140
0.12
141
0.0
142
0.0
143
25.399999999999999
144
1.0
145
0.0
146
0.71
147
0.06
 71
     0
 72
     0
 73
     1
 74
     1
 75
     0
 76
     0
 77
     0
 78
     7
170
     0
171
     2
172
     0
173
     0
174
     0
175
     0
176
   256
177
   256
178
     2
  0
DIMSTYLE
  2
AM_ANSI$3
 70
     0
  3

  4
mm
  5

  6

  7

 40
1.0
 41
0.1
 42
0.05
 43
0.5
 44
0.1
 45
0.0
 46
0.0
 47
0.1
 48
0.1
140
0.12
141
0.0
142
0.0
143
25.399999999999999
144
1.0
145
0.0
146
0.71
147
0.06
 71
     0
 72
     0
 73
     1
 74
     1
 75
     0
 76
     0
 77
     0
 78
     7
170
     0
171
     2
172
     0
173
     0
174
     0
175
     0
176
   256
177
   256
178
     2
  0
DIMSTYLE
  2
AM_ANSI$4
 70
     0
  3

  4
mm
  5

  6

  7

 40
1.0
 41
0.1
 42
0.05
 43
0.5
 44
0.1
 45
0.0
 46
0.0
 47
0.1
 48
0.1
140
0.12
141
0.0
142
0.0
143
25.399999999999999
144
1.0
145
0.0
146
0.71
147
0.06
 71
     0
 72
     0
 73
     1
 74
     1
 75
     0
 76
     0
 77
     0
 78
     7
170
     0
171
     2
172
     0
173
     0
174
     0
175
     0
176
   256
177
   256
178
     2
  0
DIMSTYLE
  2
AM_ANSI$7
 70
     0
  3

  4
mm
  5

  6

  7

 40
1.0
 41
0.1
 42
0.05
 43
0.5
 44
0.1
 45
0.0
 46
0.0
 47
0.1
 48
0.1
140
0.24
141
0.0
142
0.0
143
25.399999999999999
144
1.0
145
0.0
146
0.71
147
0.06
 71
     0
 72
     0
 73
     1
 74
     1
 75
     0
 76
     0
 77
     0
 78
     7
170
     0
171
     2
172
     0
173
     0
174
     0
175
     0
176
   256
177
   256
178
     2
  0
DIMSTYLE
  2
AM_ANSI$SF
 70
     0
  3

  4
mm
  5

  6

  7

 40
1.0
 41
0.1
 42
0.05
 43
0.5
 44
0.1
 45
0.0
 46
0.0
 47
0.1
 48
0.1
140
0.12
141
0.0
142
0.0
143
25.399999999999999
144
1.0
145
0.0
146
0.71
147
0.06
 71
     0
 72
     0
 73
     1
 74
     1
 75
     1
 76
     1
 77
     0
 78
     7
170
     0
171
     2
172
     0
173
     0
174
     0
175
     0
176
   256
177
   256
178
     2
  0
DIMSTYLE
  2
AM_ANSI$SH
 70
     0
  3

  4
mm
  5

  6
GENAXEH
  7

 40
1.0
 41
0.1
 42
0.05
 43
0.5
 44
0.1
 45
0.0
 46
0.0
 47
0.1
 48
0.1
140
0.12
141
0.0
142
0.0
143
25.399999999999999
144
1.0
145
0.0
146
0.71
147
0.06
 71
     0
 72
     0
 73
     1
 74
     1
 75
     1
 76
     1
 77
     0
 78
     7
170
     0
171
     2
172
     0
173
     1
174
     0
175
     0
176
   256
177
   256
178
     2
  0
ENDTAB
  0
ENDSEC
  0
SECTION
  2
BLOCKS
  0
BLOCK
  8
0
  2
$MODEL_SPACE
 70
     0
 10
0.0
 20
0.0
 30
0.0
  3
$MODEL_SPACE
  1

  0
ENDBLK
  5
2030
  8
0
  0
BLOCK
 67
     1
  8
0
  2
$PAPER_SPACE
 70
     0
 10
0.0
 20
0.0
 30
0.0
  3
$PAPER_SPACE
  1

  0
ENDBLK
  5
202C
 67
     1
  8
0
  0
BLOCK
  8
0
  2
_OPEN
 70
     0
 10
0.0
 20
0.0
 30
0.0
  3
_OPEN
  1

  0
LINE
  5
595
  8
0
  6
BYBLOCK
 62
     0
 10
-1.0
 20
0.1666666666666666
 30
0.0
 11
0.0
 21
0.0
 31
0.0
  0
LINE
  5
596
  8
0
  6
BYBLOCK
 62
     0
 10
-1.0
 20
-0.1666666666666666
 30
0.0
 11
0.0
 21
0.0
 31
0.0
  0
LINE
  5
597
  8
0
  6
BYBLOCK
 62
     0
 10
0.0
 20
0.0
 30
0.0
 11
-1.0
 21
0.0
 31
0.0
  0
ENDBLK
  5
599
  8
0
  0
BLOCK
  8
0
  2
GENAXEH
 70
     0
 10
0.0
 20
0.0
 30
0.0
  3
GENAXEH
  1

  0
LINE
  5
6E8
  8
0
 10
-1.0
 20
0.0
 30
0.0
 11
1.0
 21
0.0
 31
0.0
  0
ENDBLK
  5
6EA
  8
0
  0
BLOCK
  8
0
  2
A$C33CD72F1
 70
     0
 10
0.0
 20
0.0
 30
0.0
  3
A$C33CD72F1
  1

  0
ARC
  5
302B
  8
241
 10
-0.200444625678046
 20
3.1795955187063369
 30
0.0
 40
0.2
 50
315.00000000000023
 51
45.000000000000512
1001
GENIUS_GENODEF_13
1002
{
1000
HIER
1070
     0
1002
}
1002
{
1000
MANEDIT
1070
     0
1002
}
1002
{
1000
NOSEL
1070
     0
1002
}
1002
{
1000
BEHIND
1070
     0
1002
}
1002
{
1000
OTHER
1070
     0
1002
}
1002
{
1000
REACTOR
1002
}
1001
GENIUS_GENOBJ-N-FIL_13
1002
{
1000
OWNER
1000
GEN
1002
}
  0
ARC
  5
302C
  8
241
 10
-3.4531358191361772
 20
-0.0730956747518253
 30
0.0
 40
0.2
 50
225.0000000000002
 51
315.00000000000023
1001
GENIUS_GENOBJ-N-FIL_13
1002
{
1000
OWNER
1000
GEN
1002
}
1001
GENIUS_GENODEF_13
1002
{
1000
HIER
1070
     0
1002
}
1002
{
1000
MANEDIT
1070
     0
1002
}
1002
{
1000
NOSEL
1070
     0
1002
}
1002
{
1000
BEHIND
1070
     0
1002
}
1002
{
1000
OTHER
1070
     0
1002
}
1002
{
1000
REACTOR
1002
}
  0
ARC
  5
302D
  8
241
 10
-6.705827012594324
 20
3.1795955187062912
 30
0.0
 40
0.2
 50
135.0000000000002
 51
225.0000000000002
1001
GENIUS_GENODEF_13
1002
{
1000
HIER
1070
     0
1002
}
1002
{
1000
MANEDIT
1070
     0
1002
}
1002
{
1000
NOSEL
1070
     0
1002
}
1002
{
1000
BEHIND
1070
     0
1002
}
1002
{
1000
OTHER
1070
     0
1002
}
1002
{
1000
REACTOR
1002
}
1001
GENIUS_GENOBJ-N-FIL_13
1002
{
1000
OWNER
1000
GEN
1002
}
  0
ARC
  5
302E
  8
241
 10
-3.4531358191362069
 20
6.432286712164438
 30
0.0
 40
0.2
 50
45.000000000000512
 51
135.0000000000002
1001
GENIUS_GENOBJ-N-FIL_13
1002
{
1000
OWNER
1000
GEN
1002
}
1001
GENIUS_GENODEF_13
1002
{
1000
HIER
1070
     0
1002
}
1002
{
1000
MANEDIT
1070
     0
1002
}
1002
{
1000
NOSEL
1070
     0
1002
}
1002
{
1000
BEHIND
1070
     0
1002
}
1002
{
1000
OTHER
1070
     0
1002
}
1002
{
1000
REACTOR
1002
}
  0
LINE
  5
302F
  8
247
 10
-98.770575948920495
 20
-2.9703070535422511
 30
0.0
 11
-97.881203940637832
 21
-2.0809350452595901
 31
0.0
  0
LINE
  5
3030
  8
247
 10
-98.807051734433912
 20
-3.2654142153424561
 30
0.0
 11
-98.536050603461845
 21
-2.9944130843703731
 31
0.0
  0
LINE
  5
3031
  8
247
 10
-97.857097909809724
 20
-2.3154603907182452
 30
0.0
 11
-97.586096778837629
 21
-2.044459259746163
 31
0.0
  0
LINE
  5
3032
  8
247
 10
-98.784318374309436
 20
-3.5013122315047571
 30
0.0
 11
-98.573949997543622
 21
-3.290943854738928
 31
0.0
  0
LINE
  5
3033
  8
247
 10
-97.560269440352855
 20
-2.2772632975481701
 30
0.0
 11
-97.327464752852876
 21
-2.0444586100481761
 31
0.0
  0
LINE
  5
3034
  8
247
 10
-98.726753177529503
 20
-3.70237841101161
 30
0.0
 11
-98.541915664581481
 21
-3.517540898063618
 31
0.0
  0
LINE
  5
3035
  8
247
 10
-97.301638064066054
 20
-2.277263297548171
 30
0.0
 11
-97.118229619250044
 21
-2.0938548527321741
 31
0.0
  0
LINE
  5
3036
  8
247
 10
-98.643386744626284
 20
-3.877643354395198
 30
0.0
 11
-98.471488376401183
 21
-3.7057449861700911
 31
0.0
  0
LINE
  5
3037
  8
247
 10
-98.538369267764494
 20
-4.0312572538201943
 30
0.0
 11
-98.372522641114074
 21
-3.8654106271697901
 31
0.0
  0
LINE
  5
3038
  8
247
 10
-98.413530342152015
 20
-4.1650497044944963
 30
0.0
 11
-98.248747071482896
 21
-4.0002664338253746
 31
0.0
  0
LINE
  5
3039
  8
247
 10
-98.269183763723063
 20
-4.2793345023523521
 30
0.0
 11
-98.100768253956105
 21
-4.1109189925853906
 31
0.0
  0
LINE
  5
303A
  8
247
 10
-98.104248113988945
 20
-4.373030228905006
 30
0.0
 11
-97.926456013494857
 21
-4.1952381284109288
 31
0.0
  0
LINE
  5
303B
  8
247
 10
-97.915810133794452
 20
-4.4432236249973256
 30
0.0
 11
-97.719469293459554
 21
-4.2468827846624331
 31
0.0
  0
LINE
  5
303C
  8
247
 10
-97.697629657166544
 20
-4.4836745246562133
 30
0.0
 11
-97.470040970341714
 21
-4.2560858378313791
 31
0.0
  0
LINE
  5
303D
  8
247
 10
-97.444214275563425
 20
-4.488890519339872
 30
0.0
 11
-97.211409594054928
 21
-4.2560858378313791
 31
0.0
  0
LINE
  5
303E
  8
247
 10
-97.185582899276625
 20
-4.488890519339872
 30
0.0
 11
-96.952778217768142
 21
-4.2560858378313791
 31
0.0
  0
LINE
  5
303F
  8
247
 10
-96.926951522989853
 20
-4.488890519339872
 30
0.0
 11
-96.694146841481356
 21
-4.2560858378313791
 31
0.0
  0
LINE
  5
3040
  8
247
 10
-96.668320146703053
 20
-4.48889051933988
 30
0.0
 11
-96.435515465194555
 21
-4.2560858378313871
 31
0.0
  0
LINE
  5
3041
  8
247
 10
-96.409688770416253
 20
-4.48889051933988
 30
0.0
 11
-96.176884088907755
 21
-4.2560858378313791
 31
0.0
  0
LINE
  5
3042
  8
247
 10
-96.151057394129467
 20
-4.488890519339872
 30
0.0
 11
-95.918252712620969
 21
-4.2560858378313791
 31
0.0
  0
LINE
  5
3043
  8
247
 10
-95.892426017842666
 20
-4.488890519339872
 30
0.0
 11
-95.659621336334169
 21
-4.2560858378313791
 31
0.0
  0
LINE
  5
3044
  8
247
 10
-95.633794641555895
 20
-4.488890519339872
 30
0.0
 11
-95.284587616297344
 21
-4.1396834940813516
 31
0.0
  0
LINE
  5
3045
  8
247
 10
-95.375163265269094
 20
-4.488890519339872
 30
0.0
 11
-94.689938535762494
 21
-3.8036657898332789
 31
0.0
  0
LINE
  5
3046
  8
247
 10
-93.122730026327616
 20
-2.236457280398394
 30
0.0
 11
-92.932976339715793
 21
-2.046703593786579
 31
0.0
  0
LINE
  5
3047
  8
247
 10
-95.116531888982308
 20
-4.48889051933988
 30
0.0
 11
-94.883727207473811
 21
-4.2560858378313791
 31
0.0
  0
LINE
  5
3048
  8
247
 10
-92.906026133198154
 20
-2.2783847635557319
 30
0.0
 11
-92.684597183685796
 21
-2.0569558140433868
 31
0.0
  0
LINE
  5
3049
  8
247
 10
-94.857900512695494
 20
-4.488890519339872
 30
0.0
 11
-94.625095831186997
 21
-4.2560858378313791
 31
0.0
  0
LINE
  5
304A
  8
247
 10
-92.66538789921087
 20
-2.296377905855246
 30
0.0
 11
-92.475252549331543
 21
-2.1062425559759141
 31
0.0
  0
LINE
  5
304B
  8
247
 10
-94.599269136408722
 20
-4.488890519339872
 30
0.0
 11
-94.366464454900225
 21
-4.2560858378313791
 31
0.0
  0
LINE
  5
304C
  8
247
 10
-92.468103981534142
 20
-2.357725364465292
 30
0.0
 11
-92.293496433968556
 21
-2.1831178168997258
 31
0.0
  0
LINE
  5
304D
  8
247
 10
-94.340637760121936
 20
-4.48889051933988
 30
0.0
 11
-94.107833078613425
 21
-4.256085837831372
 31
0.0
  0
LINE
  5
304E
  8
247
 10
-92.301193113370942
 20
-2.449445872588885
 30
0.0
 11
-92.134234006815589
 21
-2.282486766033534
 31
0.0
  0
LINE
  5
304F
  8
247
 10
-94.082006383835136
 20
-4.48889051933988
 30
0.0
 11
-93.849201702326638
 21
-4.2560858378313879
 31
0.0
  0
LINE
  5
3050
  8
247
 10
-92.159741603063296
 20
-2.566625738568046
 30
0.0
 11
-91.995123804727939
 21
-2.4020079402326879
 31
0.0
  0
LINE
  5
3051
  8
247
 10
-93.823375007548336
 20
-4.48889051933988
 30
0.0
 11
-93.590570326039824
 21
-4.2560858378313799
 31
0.0
  0
LINE
  5
3052
  8
247
 10
-92.042400177242627
 20
-2.70791568903417
 30
0.0
 11
-91.875472634293175
 21
-2.540988146084719
 31
0.0
  0
LINE
  5
3053
  8
247
 10
-93.56474363126155
 20
-4.4888905193398729
 30
0.0
 11
-93.331938949753052
 21
-4.2560858378313799
 31
0.0
  0
LINE
  5
3054
  8
247
 10
-91.950499466926686
 20
-2.874646355005015
 30
0.0
 11
-91.775964269185238
 21
-2.7001111572635752
 31
0.0
  0
LINE
  5
3055
  8
247
 10
-93.306112254974764
 20
-4.4888905193398729
 30
0.0
 11
-93.073307573466266
 21
-4.2560858378313799
 31
0.0
  0
LINE
  5
3056
  8
247
 10
-91.888921381579365
 20
-3.071699645944487
 30
0.0
 11
-91.698926903250666
 21
-2.881705167615781
 31
0.0
  0
LINE
  5
3057
  8
247
 10
-93.047480878687978
 20
-4.48889051933988
 30
0.0
 11
-92.813638691753326
 21
-4.2550483324052282
 31
0.0
  0
LINE
  5
3058
  8
247
 10
-91.870557388337389
 20
-3.311967028989296
 30
0.0
 11
-91.649429903736504
 21
-3.0908395443883969
 31
0.0
  0
LINE
  5
3059
  8
247
 10
-92.786713798167327
 20
-4.4867548151060408
 30
0.0
 11
-92.481033622482059
 21
-4.181074639420773
 31
0.0
  0
LINE
  5
305A
  8
247
 10
-91.944531081321855
 20
-3.6445720982605581
 30
0.0
 11
-91.638850905636573
 21
-3.3388919225752951
 31
0.0
  0
LINE
  5
305B
  8
247
 10
-92.464990409503088
 20
-4.4236628027285914
 30
0.0
 11
-91.701942918014026
 21
-3.6606153112395292
 31
0.0
  0
LINE
  5
305C
  8
247
 10
-95.282470357898632
 20
-2.0685152253883001
 30
0.0
 11
-95.258413742558503
 21
-2.0444586100481761
 31
0.0
  0
LINE
  5
305D
  8
247
 10
-95.267600414426099
 20
-2.3122766582025531
 30
0.0
 11
-94.999782366271731
 21
-2.0444586100481841
 31
0.0
  0
LINE
  5
305E
  8
247
 10
-95.371577307191046
 20
-2.6748849272542841
 30
0.0
 11
-94.741150989984945
 21
-2.0444586100481761
 31
0.0
  0
LINE
  5
305F
  8
247
 10
-95.47555419995598
 20
-3.037493196306011
 30
0.0
 11
-94.74552681201277
 21
-2.307465808362795
 31
0.0
  0
LINE
  5
3060
  8
247
 10
-95.579531092720913
 20
-3.400101465357745
 30
0.0
 11
-94.849502285830226
 21
-2.670072658467046
 31
0.0
  0
LINE
  5
3061
  8
247
 10
-95.683507985485846
 20
-3.7627097344094631
 30
0.0
 11
-94.953477759647654
 21
-3.032679508571289
 31
0.0
  0
LINE
  5
3062
  8
247
 10
-95.787484878250794
 20
-4.125318003461186
 30
0.0
 11
-95.057453233465111
 21
-3.3952863586755311
 31
0.0
  0
LINE
  5
3063
  8
247
 10
-95.543218992584144
 20
-4.1396834940813489
 30
0.0
 11
-95.161428707282568
 21
-3.7578932087797781
 31
0.0
  0
LINE
  5
3064
  8
247
 10
-95.284587616297344
 20
-4.1396834940813489
 30
0.0
 11
-95.265404181100024
 21
-4.1205000588840131
 31
0.0
  0
LINE
  5
3065
  8
247
 10
-94.694488120314446
 20
-2.7736898692380709
 30
0.0
 11
-93.968968387514565
 21
-2.0481701364381988
 31
0.0
  0
LINE
  5
3066
  8
247
 10
-94.780351880725718
 20
-3.1181850059361311
 30
0.0
 11
-93.725622360262676
 21
-2.063455485473066
 31
0.0
  0
LINE
  5
3067
  8
247
 10
-94.816998607522109
 20
-3.4134631090193079
 30
0.0
 11
-94.057899824584766
 21
-2.6543643260819629
 31
0.0
  0
LINE
  5
3068
  8
247
 10
-93.711694016035807
 20
-2.308158517533005
 30
0.0
 11
-93.537371452553117
 21
-2.1338359540503138
 31
0.0
  0
LINE
  5
3069
  8
247
 10
-94.775854217125755
 20
-3.6309500949097511
 30
0.0
 11
-94.16187665740965
 21
-3.0169725351936418
 31
0.0
  0
LINE
  5
306A
  8
247
 10
-93.563191387083364
 20
-2.418287264867363
 30
0.0
 11
-93.27752625102066
 21
-2.132622128804659
 31
0.0
  0
LINE
  5
306B
  8
247
 10
-94.689938535762494
 20
-3.80366578983327
 30
0.0
 11
-94.265853490234534
 21
-3.3795807443053261
 31
0.0
  0
LINE
  5
306C
  8
247
 10
-93.239761409083528
 20
-2.3534886631543039
 30
0.0
 11
-93.215522810236905
 21
-2.329250064307669
 31
0.0
  0
LINE
  5
306D
  8
247
 10
-94.570272842066032
 20
-3.9426314724236029
 30
0.0
 11
-94.323715349842004
 21
-3.696073980199583
 31
0.0
  0
LINE
  5
306E
  8
247
 10
-93.812832401565586
 20
-3.1851910319231709
 30
0.0
 11
-93.580027714065594
 21
-2.952386344423171
 31
0.0
  0
LINE
  5
306F
  8
247
 10
-94.418768176683031
 20
-4.0497581833274001
 30
0.0
 11
-94.215488810380904
 21
-3.846478817025246
 31
0.0
  0
LINE
  5
3070
  8
247
 10
-93.760747940681128
 20
-3.391737947325498
 30
0.0
 11
-93.321396337778808
 21
-2.952386344423179
 31
0.0
  0
LINE
  5
3071
  8
247
 10
-94.230775412411404
 20
-4.120396795342546
 30
0.0
 11
-93.957458898238286
 21
-3.84708028116945
 31
0.0
  0
LINE
  5
3072
  8
247
 10
-93.878064502073173
 20
-3.7676858850043229
 30
0.0
 11
-93.185623385862229
 21
-3.0752447687933779
 31
0.0
  0
LINE
  5
3073
  8
247
 10
-93.987900346590251
 20
-4.1361531058081953
 30
0.0
 11
-93.289599865256335
 21
-3.437852624474278
 31
0.0
  0
LINE
  5
3074
  8
247
 10
-93.611827225325627
 20
-4.0187113608303671
 30
0.0
 11
-93.393576344650427
 21
-3.8004604801551829
 31
0.0
  0
LINE
  5
3075
  8
247
 10
-94.670110977881933
 20
-2.0444586100481801
 30
0.0
 11
-95.275571915381903
 21
-2.0444586100481801
 31
0.0
1001
HATCH_DISTANCE
1040
1.0
1001
HATCH_DISPLAY
1070
     0
1001
HATCH_TYPE
1070
     7
  0
LINE
  5
3076
  8
247
 10
-95.27090492319445
 20
-4.1396834940813507
 30
0.0
 11
-94.670110977881933
 21
-2.0444586100481801
 31
0.0
1001
HATCH_DISTANCE
1040
1.0
1001
HATCH_DISPLAY
1070
     0
1001
HATCH_TYPE
1070
     7
  0
LINE
  5
3077
  8
247
 10
-95.791604141944447
 20
-4.1396834940813507
 30
0.0
 11
-95.27090492319445
 21
-4.1396834940813507
 31
0.0
1001
HATCH_DISTANCE
1040
1.0
1001
HATCH_DISPLAY
1070
     0
1001
HATCH_TYPE
1070
     7
  0
LINE
  5
3078
  8
247
 10
-95.264234024756931
 20
-2.3005367350481669
 30
0.0
 11
-95.791604141944447
 21
-4.1396834940813507
 31
0.0
1001
HATCH_DISTANCE
1040
1.0
1001
HATCH_DISPLAY
1070
     0
1001
HATCH_TYPE
1070
     7
  0
LINE
  5
3079
  8
247
 10
-95.34900453256941
 20
-2.3005367350481669
 30
0.0
 11
-95.264234024756931
 21
-2.3005367350481669
 31
0.0
1001
HATCH_DISTANCE
1040
1.0
1001
HATCH_DISPLAY
1070
     0
1001
HATCH_TYPE
1070
     7
  0
LINE
  5
307A
  8
247
 10
-95.275571915381903
 20
-2.0444586100481801
 30
0.0
 11
-95.34900453256941
 21
-2.3005367350481669
 31
0.0
1001
HATCH_DISTANCE
1040
1.0
1001
HATCH_DISPLAY
1070
     0
1001
HATCH_TYPE
1070
     7
  0
LINE
  5
307B
  8
247
 10
-94.670110977881933
 20
-2.0444586100481801
 30
0.0
 11
-95.275571915381903
 21
-2.0444586100481801
 31
0.0
  0
LINE
  5
307C
  8
247
 10
-95.27090492319445
 20
-4.1396834940813507
 30
0.0
 11
-94.670110977881933
 21
-2.0444586100481801
 31
0.0
  0
LINE
  5
307D
  8
247
 10
-95.791604141944447
 20
-4.1396834940813507
 30
0.0
 11
-95.27090492319445
 21
-4.1396834940813507
 31
0.0
  0
LINE
  5
307E
  8
247
 10
-95.264234024756931
 20
-2.3005367350481669
 30
0.0
 11
-95.791604141944447
 21
-4.1396834940813507
 31
0.0
  0
LINE
  5
307F
  8
247
 10
-95.34900453256941
 20
-2.3005367350481669
 30
0.0
 11
-95.264234024756931
 21
-2.3005367350481669
 31
0.0
  0
LINE
  5
3080
  8
247
 10
-95.275571915381903
 20
-2.0444586100481801
 30
0.0
 11
-95.34900453256941
 21
-2.3005367350481669
 31
0.0
  0
LINE
  5
3081
  8
247
 10
-93.100428360694423
 20
-2.3071812662981701
 30
0.0
 11
-93.100428360694423
 21
-2.3071812662981701
 31
0.0
1001
HATCH_DISTANCE
1040
1.0
1001
HATCH_DISPLAY
1070
     0
1001
HATCH_TYPE
1070
     7
  0
LINE
  5
3082
  8
247
 10
-93.170538712256928
 20
-2.084844352235689
 30
0.0
 11
-93.100428360694423
 21
-2.3071812662981701
 31
0.0
1001
HATCH_DISTANCE
1040
1.0
1001
HATCH_DISPLAY
1070
     0
1001
HATCH_TYPE
1070
     7
  0
LINE
  5
3083
  8
247
 10
-93.170538712256928
 20
-2.084844352235689
 30
0.0
 11
-93.170538712256928
 21
-2.084844352235689
 31
0.0
1001
HATCH_DISTANCE
1040
1.0
1001
HATCH_DISPLAY
1070
     0
1001
HATCH_TYPE
1070
     7
  0
LINE
  5
3084
  8
247
 10
-93.100428360694423
 20
-2.3071812662981701
 30
0.0
 11
-93.170538712256928
 21
-2.084844352235689
 31
0.0
1001
HATCH_DISTANCE
1040
1.0
1001
HATCH_DISPLAY
1070
     0
1001
HATCH_TYPE
1070
     7
  0
LINE
  5
3085
  8
247
 10
-93.100428360694423
 20
-2.3071812662981701
 30
0.0
 11
-93.100428360694423
 21
-2.3071812662981701
 31
0.0
  0
LINE
  5
3086
  8
247
 10
-93.170538712256928
 20
-2.084844352235689
 30
0.0
 11
-93.100428360694423
 21
-2.3071812662981701
 31
0.0
  0
LINE
  5
3087
  8
247
 10
-93.170538712256928
 20
-2.084844352235689
 30
0.0
 11
-93.170538712256928
 21
-2.084844352235689
 31
0.0
  0
LINE
  5
3088
  8
247
 10
-93.100428360694423
 20
-2.3071812662981701
 30
0.0
 11
-93.170538712256928
 21
-2.084844352235689
 31
0.0
  0
LINE
  5
3089
  8
247
 10
-93.100428360694423
 20
-2.3071812662981701
 30
0.0
 11
-93.100428360694423
 21
-2.3071812662981701
 31
0.0
1001
HATCH_DISTANCE
1040
1.0
1001
HATCH_DISPLAY
1070
     0
1001
HATCH_TYPE
1070
     7
  0
LINE
  5
308A
  8
247
 10
-93.170538712256928
 20
-2.084844352235689
 30
0.0
 11
-93.100428360694423
 21
-2.3071812662981701
 31
0.0
1001
HATCH_DISTANCE
1040
1.0
1001
HATCH_DISPLAY
1070
     0
1001
HATCH_TYPE
1070
     7
  0
LINE
  5
308B
  8
247
 10
-93.170538712256928
 20
-2.084844352235689
 30
0.0
 11
-93.170538712256928
 21
-2.084844352235689
 31
0.0
1001
HATCH_DISTANCE
1040
1.0
1001
HATCH_DISPLAY
1070
     0
1001
HATCH_TYPE
1070
     7
  0
LINE
  5
308C
  8
247
 10
-93.100428360694423
 20
-2.3071812662981701
 30
0.0
 11
-93.170538712256928
 21
-2.084844352235689
 31
0.0
1001
HATCH_DISTANCE
1040
1.0
1001
HATCH_DISPLAY
1070
     0
1001
HATCH_TYPE
1070
     7
  0
LINE
  5
308D
  8
247
 10
-93.100428360694423
 20
-2.3071812662981701
 30
0.0
 11
-93.100428360694423
 21
-2.3071812662981701
 31
0.0
  0
LINE
  5
308E
  8
247
 10
-93.170538712256928
 20
-2.084844352235689
 30
0.0
 11
-93.100428360694423
 21
-2.3071812662981701
 31
0.0
  0
LINE
  5
308F
  8
247
 10
-93.170538712256928
 20
-2.084844352235689
 30
0.0
 11
-93.170538712256928
 21
-2.084844352235689
 31
0.0
  0
LINE
  5
3090
  8
247
 10
-93.100428360694423
 20
-2.3071812662981701
 30
0.0
 11
-93.170538712256928
 21
-2.084844352235689
 31
0.0
  0
ARC
  5
3091
  8
247
 10
-93.894107071631908
 20
-2.801065055360664
 30
0.0
 40
0.7566075439453125
 50
53.444012197057511
 51
164.00018438768521
  0
LINE
  5
3092
  8
247
 10
-94.320965470069396
 20
-3.5717779459856862
 30
0.0
 11
-94.007213516944404
 21
-2.4776011881731801
 31
0.0
  0
ARC
  5
3093
  8
247
 10
-94.085989884131934
 20
-3.6391548991106921
 30
0.0
 40
0.2444446334838867
 50
164.0002730571824
 51
344.00027305718208
  0
ARC
  5
3094
  8
247
 10
-92.823968399756922
 20
-3.422856070985671
 30
0.0
 40
1.9799648437499999
 50
155.20517736984041
 51
172.79482596205219
  0
ARC
  5
3095
  8
247
 10
-92.858931290381946
 20
-3.2666744303606792
 30
0.0
 40
0.9894138793945311
 50
110.8721834020737
 51
132.54194893738779
  0
ARC
  5
3096
  8
247
 10
-93.772237931006927
 20
-2.544986930360678
 30
0.0
 40
0.2444448051452637
 50
1.710121382062737
 51
163.9983983544472
  0
ARC
  5
3097
  8
247
 10
-92.858931290381946
 20
-3.2666744303606792
 30
0.0
 40
1.222216369628905
 50
110.22964506332001
 51
118.57168892371681
  0
LINE
  5
3098
  8
247
 10
-93.211443009131884
 20
-2.3421881022356801
 30
0.0
 11
-93.281553360694403
 21
-2.1198511881731421
 31
0.0
  0
LINE
  5
3099
  8
247
 10
-93.100428360694423
 20
-2.3071812662981701
 30
0.0
 11
-93.170538712256928
 21
-2.084844352235689
 31
0.0
  0
LINE
  5
309A
  8
247
 10
-93.490847306006941
 20
-4.1396834940813507
 30
0.0
 11
-93.150394181006945
 21
-2.9523863444231742
 31
0.0
  0
LINE
  5
309B
  8
247
 10
-93.82851429819442
 20
-2.9523863444231742
 30
0.0
 11
-93.150394181006945
 21
-2.9523863444231742
 31
0.0
  0
LINE
  5
309C
  8
247
 10
-93.895267227881931
 20
-3.1851910319231651
 30
0.0
 11
-93.82851429819442
 21
-2.9523863444231742
 31
0.0
  0
LINE
  5
309D
  8
247
 10
-93.627411759131931
 20
-4.0031278300188964
 30
0.0
 11
-93.490847306006941
 21
-4.1396834940813507
 31
0.0
  0
LINE
  5
309E
  8
247
 10
-93.895267227881931
 20
-3.1851910319231651
 30
0.0
 11
-93.701521134131923
 21
-3.1851910319231651
 31
0.0
  0
LINE
  5
309F
  8
247
 10
-93.851014298194414
 20
-3.7065318522356678
 30
0.0
 11
-93.701521134131923
 21
-3.1851910319231651
 31
0.0
  0
ARC
  5
30A0
  8
247
 10
-92.858931290381946
 20
-3.2666744303606792
 30
0.0
 40
0.9894111328124999
 50
270.0
 51
104.1274364964101
  0
ARC
  5
30A1
  8
247
 10
-92.858931290381946
 20
-3.2666744303606792
 30
0.0
 40
1.2222158203124971
 50
270.0
 51
104.7707939660941
  0
LINE
  5
30A2
  8
247
 10
-97.462677384131865
 20
-4.1396834940813507
 30
0.0
 11
-96.928636368507171
 21
-2.2772632975489122
 31
0.0
  0
LINE
  5
30A3
  8
247
 10
-97.194585167020151
 20
-3.2047359056494842
 30
0.0
 11
-96.379672090115591
 21
-2.3898228287450101
 31
0.0
  0
ARC
  5
30A4
  8
247
 10
-96.489288712256922
 20
-2.6031881022357042
 30
0.0
 40
0.349197280883789
 50
261.6626016879294
 51
66.338155095189762
  0
LINE
  5
30A5
  8
247
 10
-96.349141671820675
 20
-2.2833482234938871
 30
0.0
 11
-96.539922496024104
 21
-2.9486949197054302
 31
0.0
  0
LINE
  5
30A6
  8
247
 10
-95.791604141944433
 20
-4.1396834940813507
 30
0.0
 11
-95.264234024756931
 21
-2.3005367350481669
 31
0.0
  0
LINE
  5
30A7
  8
247
 10
-96.505436423241889
 20
-3.291481290731622
 30
0.0
 11
-95.672349799805303
 21
-2.458394667294995
 31
0.0
  0
LINE
  5
30A8
  8
247
 10
-97.090609009572205
 20
-2.8421283719147952
 30
0.0
 11
-96.292939247705704
 21
-2.044458610048264
 31
0.0
  0
ARC
  5
30A9
  8
247
 10
-96.229563126319405
 20
-2.6264615397356712
 30
0.0
 40
0.5820078735351563
 50
287.66957754739968
 51
90.236159842671569
  0
LINE
  5
30AA
  8
247
 10
-96.147546875426144
 20
-2.674960366629064
 30
0.0
 11
-95.757970705775477
 21
-2.2853841969783391
 31
0.0
  0
LINE
  5
30AB
  8
247
 10
-96.98663285212433
 20
-2.479520838180048
 30
0.0
 11
-96.551570623992475
 21
-2.044458610048236
 31
0.0
  0
LINE
  5
30AC
  8
247
 10
-97.584836563819394
 20
-2.2772632975481719
 30
0.0
 11
-97.170818985694353
 21
-2.2772632975481719
 31
0.0
  0
LINE
  5
30AD
  8
247
 10
-97.04973207163215
 20
-2.2772632975481719
 30
0.0
 11
-96.928636368507171
 21
-2.2772632975489122
 31
0.0
  0
LINE
  5
30AE
  8
247
 10
-96.177385826575318
 20
-2.446167941491507
 30
0.0
 11
-95.887095586414262
 21
-2.155877701330366
 31
0.0
  0
LINE
  5
30AF
  8
247
 10
-97.584836563819394
 20
-2.0444586100481801
 30
0.0
 11
-97.104066056006914
 21
-2.0444586100481801
 31
0.0
  0
LINE
  5
30B0
  8
247
 10
-96.982979141944256
 20
-2.0444586100481801
 30
0.0
 11
-96.231962020266565
 21
-2.044458610048264
 31
0.0
  0
LINE
  5
30B1
  8
247
 10
-96.982979141944256
 20
-2.0444586100481801
 30
0.0
 11
-97.04973207163215
 21
-2.2772632975481719
 31
0.0
  0
LINE
  5
30B2
  8
247
 10
-97.104066056006914
 20
-2.0444586100481801
 30
0.0
 11
-97.170818985694353
 21
-2.2772632975481719
 31
0.0
  0
LINE
  5
30B3
  8
247
 10
-97.043006687779254
 20
-2.2772632975482301
 30
0.0
 11
-96.810202000279233
 21
-2.044458610048236
 31
0.0
  0
LINE
  5
30B4
  8
247
 10
-96.299753790337164
 20
-2.3099045289665541
 30
0.0
 11
-96.059655885978046
 21
-2.0698066246073781
 31
0.0
  0
LINE
  5
30B5
  8
247
 10
-95.34900453256941
 20
-2.3005367350481669
 30
0.0
 11
-95.264234024756931
 21
-2.3005367350481669
 31
0.0
  0
LINE
  5
30B6
  8
247
 10
-95.34900453256941
 20
-2.3005367350481669
 30
0.0
 11
-95.275571915381903
 21
-2.0444586100481801
 31
0.0
  0
LINE
  5
30B7
  8
247
 10
-96.415155834581284
 20
-3.4598320783577901
 30
0.0
 11
-95.651779443465927
 21
-2.6964556872424472
 31
0.0
  0
ARC
  5
30B8
  8
247
 10
-96.496583634131881
 20
-3.5576802897356981
 30
0.0
 40
0.5820029296875
 50
270.0
 51
40.329840654167107
  0
LINE
  5
30B9
  8
247
 10
-97.298561324467997
 20
-3.5673434393842292
 30
0.0
 11
-96.483644815596506
 21
-2.7524269305126099
 31
0.0
  0
LINE
  5
30BA
  8
247
 10
-97.402537481915985
 20
-3.9299509731189182
 30
0.0
 11
-96.417516447863562
 21
-2.9449299390664812
 31
0.0
  0
LINE
  5
30BB
  8
247
 10
-97.462677384131865
 20
-4.1396834940813507
 30
0.0
 11
-96.496583634131881
 21
-4.1396834940813507
 31
0.0
  0
LINE
  5
30BC
  8
247
 10
-96.836375874018117
 20
-4.1396834940813507
 30
0.0
 11
-95.982162544207384
 21
-3.2854701642707029
 31
0.0
  0
ARC
  5
30BD
  8
247
 10
-96.756309220069426
 20
-3.5343980631731551
 30
0.0
 40
0.3492072715759277
 50
261.66285421114719
 51
66.338192159113618
  0
LINE
  5
30BE
  8
247
 10
-96.616159401066582
 20
-3.2145484942271429
 30
0.0
 11
-96.806943363855765
 21
-3.8799149252863421
 31
0.0
  0
LINE
  5
30BF
  8
247
 10
-96.577744497731274
 20
-4.13968349408138
 30
0.0
 11
-95.919584842799594
 21
-3.481523839149657
 31
0.0
  0
LINE
  5
30C0
  8
247
 10
-97.095007250304946
 20
-4.1396834940813507
 30
0.0
 11
-96.795568538211427
 21
-3.8402447819879462
 31
0.0
  0
LINE
  5
30C1
  8
247
 10
-97.353638626591646
 20
-4.1396834940813507
 30
0.0
 11
-96.691597738258622
 21
-3.4776426057483838
 31
0.0
  0
LINE
  5
30C2
  8
247
 10
-96.275477237275155
 20
-4.0960476099120191
 30
0.0
 11
-95.958216313955575
 21
-3.778786686592452
 31
0.0
  0
LINE
  5
30C3
  8
247
 10
-95.791604141944433
 20
-4.1396834940813507
 30
0.0
 11
-95.27090492319445
 21
-4.1396834940813507
 31
0.0
  0
ARC
  5
30C4
  8
247
 10
-97.584836563819394
 20
-3.2666744303606792
 30
0.0
 40
1.2222158203124971
 50
90.0
 51
270.0
  0
ARC
  5
30C5
  8
247
 10
-97.584836563819394
 20
-3.2666744303606792
 30
0.0
 40
0.9894111328124999
 50
90.0
 51
270.0
  0
ARC
  5
30C6
  8
247
 10
-94.060993790381914
 20
-3.3830767741106751
 30
0.0
 40
0.756615234375
 50
163.99975070172931
 51
304.96387329163082
  0
LINE
  5
30C7
  8
247
 10
-97.584836563819394
 20
-4.2560858378313764
 30
0.0
 11
-92.858931290381946
 21
-4.2560858378313764
 31
0.0
  0
LINE
  5
30C8
  8
247
 10
-97.584836563819394
 20
-4.4888905193398729
 30
0.0
 11
-92.858931290381946
 21
-4.4888905193398729
 31
0.0
  0
LINE
  5
30C9
  8
247
 10
-95.27090492319445
 20
-4.1396834940813507
 30
0.0
 11
-94.670110977881933
 21
-2.0444586100481801
 31
0.0
  0
LINE
  5
30CA
  8
247
 10
-95.275571915381903
 20
-2.0444586100481801
 30
0.0
 11
-94.670110977881933
 21
-2.0444586100481801
 31
0.0
  0
TEXT
  5
30CB
  8
247
 10
-90.607823388356124
 20
-4.1921017954156357
 30
0.0
 40
2.0
  1
ST12-CM12-45B-29
 41
0.7
  7
YOKO
 11
-90.607823388356124
 21
-4.1921017954156357
 31
0.0
 73
     1
  0
LINE
  5
30CC
  8
241
 10
-31.53181547557654
 20
-5.0000000000000817
 30
0.0
 11
-31.53181547557654
 21
-2.8870890253511421
 31
0.0
  0
ARC
  5
30CD
  8
241
 10
32.424045140778588
 20
14.10738493375387
 30
0.0
 40
36.727818692845553
 50
200.65230562572819
 51
207.16292100076529
  0
CIRCLE
  5
30CE
  8
246
 10
-3.4531358191362198
 20
3.179595518706309
 30
0.0
 40
2.4999999999999969
  0
LINE
  5
30CF
  8
245
 10
-105.8868792532415
 20
-0.000000000000056
 30
0.0
 11
1.8346042923699311
 21
0.0000000000000009
 31
0.0
  0
LINE
  5
30D0
  8
241
 10
-29.41049513201688
 20
0.9249999999998984
 30
0.0
 11
-4.7340742063625312
 21
0.9249999999998984
 31
0.0
  0
LINE
  5
30D1
  8
240
 10
-5.3182652437753433
 20
4.8499999999999091
 30
0.0
 11
-29.41049513201688
 21
4.8499999999999091
 31
0.0
  0
LINE
  5
30D2
  8
240
 10
-29.53181547557654
 20
-3.000000000000111
 30
0.0
 11
-0.2531358191361619
 21
-3.000000000000111
 31
0.0
  0
LINE
  5
30D3
  8
240
 10
-0.2531358191361619
 20
2.8440616127735949
 30
0.0
 11
-0.2531358191361619
 21
-3.000000000000111
 31
0.0
  0
LINE
  5
30D4
  8
241
 10
-3.594557175373517
 20
6.5737080684017473
 30
0.0
 11
-6.847248368831635
 21
3.3210168749436
 31
0.0
  0
LINE
  5
30D5
  8
241
 10
-0.0590232694407378
 20
3.3210168749436479
 30
0.0
 11
-3.311714462898899
 21
6.573708068401749
 31
0.0
  0
LINE
  5
30D6
  8
241
 10
-3.3117144628988671
 20
-0.2145170309891342
 30
0.0
 11
-0.0590232694407358
 21
3.038174162469029
 31
0.0
  0
LINE
  5
30D7
  8
241
 10
-6.8477865197883698
 20
3.038712313425719
 30
0.0
 11
-3.594557175373486
 21
-0.2145170309891355
 31
0.0
  0
LINE
  5
30D8
  8
240
 10
-31.80313581913618
 20
5.9999999999998872
 30
0.0
 11
-100.8531358191361
 21
5.9999999999998872
 31
0.0
  0
LINE
  5
30D9
  8
240
 10
-100.8531358191361
 20
-6.000000000000111
 30
0.0
 11
-31.80313581913618
 21
-6.000000000000111
 31
0.0
  0
LINE
  5
30DA
  8
241
 10
-31.80313581913618
 20
-6.000000000000111
 30
0.0
 11
-31.80313581913618
 21
-0.0000000000001128
 31
0.0
  0
ARC
  5
30DB
  8
240
 10
-29.53181547557654
 20
-5.0000000000000844
 30
0.0
 40
2.0
 50
90.0
 51
180.0
  0
LINE
  5
30DC
  8
240
 10
-31.53181547557654
 20
-5.7286796564404741
 30
0.0
 11
-31.53181547557654
 21
-5.0000000000000817
 31
0.0
  0
LINE
  5
30DD
  8
240
 10
-31.80313581913618
 20
-6.000000000000111
 30
0.0
 11
-31.53181547557654
 21
-5.7286796564404741
 31
0.0
  0
ARC
  5
30DE
  8
240
 10
-29.41049513201688
 20
7.8499999999999091
 30
0.0
 40
3.0000000000000231
 50
225.00000000000031
 51
270.0
  0
LINE
  5
30DF
  8
241
 10
-31.80313581913618
 20
-0.0000000000001128
 30
0.0
 11
-31.80313581913618
 21
5.9999999999998872
 31
0.0
  0
LINE
  5
30E0
  8
240
 10
-31.53181547557654
 20
5.7286796564402493
 30
0.0
 11
-31.80313581913618
 21
5.9999999999998872
 31
0.0
  0
LINE
  5
30E1
  8
240
 10
-101.8531358191361
 20
-5.000000000000111
 30
0.0
 11
-101.8531358191361
 21
-0.0000000000001128
 31
0.0
  0
ARC
  5
30E2
  8
240
 10
-100.8531358191361
 20
-5.000000000000111
 30
0.0
 40
1.0
 50
180.0
 51
270.0
  0
LINE
  5
30E3
  8
240
 10
-101.8531358191361
 20
-0.0000000000001128
 30
0.0
 11
-101.8531358191361
 21
4.9999999999998872
 31
0.0
  0
ARC
  5
30E4
  8
240
 10
-100.8531358191361
 20
4.9999999999998872
 30
0.0
 40
1.0
 50
90.0
 51
180.0
  0
LINE
  5
30E5
  8
245
 10
1.8346042923699311
 20
1.8499999999998229
 30
0.0
 11
-33.771778258352697
 21
1.8500000000000509
 31
0.0
  0
LINE
  5
30E6
  8
241
 10
-30.6531358191362
 20
5.1194608366267849
 30
0.0
 11
-30.6531358191362
 21
0.7174371029393009
 31
0.0
  0
ARC
  5
30E7
  8
241
 10
-29.7807039207146
 20
-0.5561401279910971
 30
0.0
 40
1.5267058085873051
 50
75.966532436380945
 51
161.22731076631129
  0
ARC
  5
30E8
  8
241
 10
-26.04201446123442
 20
-1.756385775242278
 30
0.0
 40
5.4531724579684813
 50
161.928854272275
 51
178.23637996813821
  0
ARC
  5
30E9
  8
241
 10
-11.42989355510753
 20
-2.8459085393090762
 30
0.0
 40
20.102071304098612
 50
176.41390593301301
 51
180.22088641076411
  0
ENDBLK
  5
30EC
  8
0
  0
ENDSEC
  0
SECTION
  2
ENTITIES
  0
TEXT
  5
1457
  8
241
 10
-101.99387032992649
 20
21.117109340280649
 30
0.0
 40
3.0
  1
ST12-CM12-45B-29
  7
YOKO
 11
-101.99387032992649
 21
21.117109340280649
 31
0.0
 73
     1
  0
LINE
  5
155F
  8
250
 10
-101.8531358191361
 20
-5.5000000000000551
 30
0.0
 11
-101.8531358191361
 21
-30.84679614914489
 31
0.0
  0
LINE
  5
1560
  8
250
 10
0.0
 20
2.679595518706321
 30
0.0
 11
0.0
 21
-30.84679614914489
 31
0.0
  0
LINE
  5
1561
  8
250
 10
-99.623135819136195
 20
-29.84679614914489
 30
0.0
 11
-2.2300000000000031
 21
-29.84679614914489
 31
0.0
  0
LINE
  5
1565
  8
250
 10
-30.6531358191362
 20
0.217437102939301
 30
0.0
 11
-30.6531358191362
 21
-23.84679614914489
 31
0.0
  0
LINE
  5
1566
  8
250
 10
0.0
 20
2.679595518706321
 30
0.0
 11
0.0
 21
-23.84679614914489
 31
0.0
  0
LINE
  5
1567
  8
250
 10
-28.423135819136188
 20
-22.84679614914489
 30
0.0
 11
-2.2300000000000031
 21
-22.84679614914489
 31
0.0
  0
LINE
  5
156B
  8
250
 10
0.0
 20
3.7619936055028971
 30
0.0
 11
0.0
 21
16.151838362947942
 31
0.0
  0
LINE
  5
156C
  8
250
 10
-3.6658060044489522
 20
6.9277996099517871
 30
0.0
 11
-9.1144966364313404
 21
12.37649024193408
 31
0.0
  0
ARC
  5
156D
  8
250
 10
0.0000000000000142
 20
3.261993605502894
 30
0.0
 40
11.88984475744504
 50
100.7619240004982
 51
124.2380759995022
  0
LINE
  5
1571
  8
250
 10
-101.3531358191362
 20
-6.0000000000000551
 30
0.0
 11
-114.1749681178039
 21
-6.0000000000000524
 31
0.0
  0
LINE
  5
1572
  8
250
 10
-101.3531358191362
 20
5.9999999999999707
 30
0.0
 11
-114.1749681178039
 21
5.999999999999976
 31
0.0
  0
LINE
  5
1573
  8
250
 10
-113.1749681178039
 20
-3.7700000000000511
 30
0.0
 11
-113.1749681178039
 21
3.769999999999976
 31
0.0
  0
LINE
  5
1577
  8
250
 10
2.3346042923699311
 20
0.0000000000000007
 30
0.0
 11
8.5071224911295644
 21
-0.000000000000001
 31
0.0
  0
LINE
  5
1578
  8
250
 10
2.3346042923699311
 20
1.8499999999998229
 30
0.0
 11
8.5071224911295644
 21
1.8499999999998209
 31
0.0
  0
LINE
  5
1579
  8
250
 10
7.5071224911295644
 20
4.0799999999998233
 30
0.0
 11
7.5071224911295644
 21
6.3099999999998211
 31
0.0
  0
LINE
  5
157A
  8
250
 10
7.5071224911295644
 20
-2.2299999999999991
 30
0.0
 11
7.5071224911295644
 21
-14.88380952380952
 31
0.0
  0
LINE
  5
157B
  8
250
 10
7.5071224911295644
 20
1.849999999999822
 30
0.0
 11
7.5071224911295644
 21
-0.0000000000000007
 31
0.0
  0
LINE
  5
157F
  8
250
 10
-2.9531358191362069
 20
6.6999999999999877
 30
0.0
 11
15.50712530083751
 21
6.6999999999999851
 31
0.0
  0
LINE
  5
1580
  8
250
 10
14.50712530083751
 20
4.4699999999999829
 30
0.0
 11
14.50712530083751
 21
-6.6761904761904498
 31
0.0
  0
TEXT
  5
1583
  8
250
 10
13.50712530083751
 20
-5.9619047619047167
 30
0.0
 40
3.0
  1
\U+2205
 50
90.0
  0
TEXT
  5
1584
  8
250
 10
13.407125300837521
 20
-3.2476190476190041
 30
0.0
 40
2.799999999999998
  1
13.4
 50
90.0
  0
LINE
  5
1585
  8
250
 10
14.13545863417084
 20
4.4699999999999838
 30
0.0
 11
14.50712530083751
 21
6.6999999999999851
 31
0.0
  0
LINE
  5
1586
  8
250
 10
14.87879196750418
 20
4.4699999999999838
 30
0.0
 11
14.50712530083751
 21
6.6999999999999851
 31
0.0
  0
LINE
  5
1587
  8
250
 10
14.50712530083751
 20
6.6999999999999851
 30
0.0
 11
14.50712530083751
 21
4.4699999999999838
 31
0.0
  0
TEXT
  5
1588
  8
250
 10
6.5071224911295644
 20
-14.683809523809501
 30
0.0
 40
2.799999999999998
  1
1.85
 50
90.0
  0
LINE
  5
1589
  8
250
 10
7.1354558244628929
 20
-2.2299999999999991
 30
0.0
 11
7.5071224911295644
 21
-0.0000000000000007
 31
0.0
  0
LINE
  5
158A
  8
250
 10
7.8787891577962332
 20
-2.2299999999999991
 30
0.0
 11
7.5071224911295644
 21
-0.0000000000000007
 31
0.0
  0
LINE
  5
158B
  8
250
 10
7.5071224911295644
 20
-0.0000000000000007
 30
0.0
 11
7.5071224911295644
 21
-2.2299999999999991
 31
0.0
  0
LINE
  5
158C
  8
250
 10
7.8787891577962332
 20
4.0799999999998233
 30
0.0
 11
7.5071224911295644
 21
1.849999999999822
 31
0.0
  0
LINE
  5
158D
  8
250
 10
7.1354558244628929
 20
4.0799999999998233
 30
0.0
 11
7.5071224911295644
 21
1.849999999999822
 31
0.0
  0
LINE
  5
158E
  8
250
 10
7.5071224911295644
 20
1.849999999999822
 30
0.0
 11
7.5071224911295644
 21
4.0799999999998233
 31
0.0
  0
TEXT
  5
158F
  8
250
 10
-8.810043589229906
 20
13.712037031473921
 30
0.0
 40
2.799999999999998
  1
45üï
 50
20.70359408304698
  0
LINE
  5
1590
  8
250
 10
-6.4526133423149474
 20
12.80511445689452
 30
0.0
 11
-8.407389855244773
 21
11.669383460747531
 31
0.0
  0
LINE
  5
1591
  8
250
 10
-6.92662212554802
 20
13.377705163998961
 30
0.0
 11
-8.407389855244773
 21
11.669383460747531
 31
0.0
  0
LINE
  5
1592
  8
250
 10
-8.407389855244773
 20
11.669383460747531
 30
0.0
 11
-6.6896177339314828
 21
13.09140981044674
 31
0.0
  0
LINE
  5
1593
  8
250
 10
-2.2550267638480221
 20
15.31274332073437
 30
0.0
 11
0.0
 21
15.151838362947929
 31
0.0
  0
LINE
  5
1594
  8
250
 10
-2.185318816976149
 20
14.57268572393034
 30
0.0
 11
0.0
 21
15.151838362947929
 31
0.0
  0
LINE
  5
1595
  8
250
 10
0.0
 20
15.151838362947929
 30
0.0
 11
-2.220172790412092
 21
14.94271452233235
 31
0.0
  0
TEXT
  5
1596
  8
250
 10
-19.993234576234759
 20
-21.8467961491449
 30
0.0
 40
2.799999999999998
  1
30.7
  0
LINE
  5
1597
  8
250
 10
-2.2300000000000031
 20
-22.475129482478231
 30
0.0
 11
0.0
 21
-22.84679614914489
 31
0.0
  0
LINE
  5
1598
  8
250
 10
-2.2300000000000031
 20
-23.218462815811559
 30
0.0
 11
0.0
 21
-22.84679614914489
 31
0.0
  0
LINE
  5
1599
  8
250
 10
0.0
 20
-22.84679614914489
 30
0.0
 11
-2.2300000000000031
 21
-22.84679614914489
 31
0.0
  0
LINE
  5
159A
  8
250
 10
-28.423135819136188
 20
-23.218462815811559
 30
0.0
 11
-30.6531358191362
 21
-22.84679614914489
 31
0.0
  0
LINE
  5
159B
  8
250
 10
-28.423135819136188
 20
-22.475129482478231
 30
0.0
 11
-30.6531358191362
 21
-22.84679614914489
 31
0.0
  0
LINE
  5
159C
  8
250
 10
-30.6531358191362
 20
-22.84679614914489
 30
0.0
 11
-28.423135819136188
 21
-22.84679614914489
 31
0.0
  0
TEXT
  5
159D
  8
250
 10
-57.059901242901418
 20
-28.84679614914489
 30
0.0
 40
2.799999999999998
  1
101.9
  0
LINE
  5
159E
  8
250
 10
-2.2300000000000031
 20
-29.475129482478231
 30
0.0
 11
0.0
 21
-29.84679614914489
 31
0.0
  0
LINE
  5
159F
  8
250
 10
-2.2300000000000031
 20
-30.218462815811559
 30
0.0
 11
0.0
 21
-29.84679614914489
 31
0.0
  0
LINE
  5
15A0
  8
250
 10
0.0
 20
-29.84679614914489
 30
0.0
 11
-2.2300000000000031
 21
-29.84679614914489
 31
0.0
  0
LINE
  5
15A1
  8
250
 10
-99.623135819136195
 20
-30.218462815811559
 30
0.0
 11
-101.8531358191361
 21
-29.84679614914489
 31
0.0
  0
LINE
  5
15A2
  8
250
 10
-99.623135819136195
 20
-29.475129482478231
 30
0.0
 11
-101.8531358191361
 21
-29.84679614914489
 31
0.0
  0
LINE
  5
15A3
  8
250
 10
-101.8531358191361
 20
-29.84679614914489
 30
0.0
 11
-99.623135819136195
 21
-29.84679614914489
 31
0.0
  0
TEXT
  5
15A4
  8
250
 10
-114.1749681178039
 20
-3.8952380952381329
 30
0.0
 40
3.0
  1
\U+2205
 50
90.0
  0
TEXT
  5
15A5
  8
250
 10
-114.27496811780389
 20
-1.1809523809524201
 30
0.0
 40
2.799999999999998
  1
12
 50
90.0
  0
LINE
  5
15A6
  8
250
 10
-113.5466347844706
 20
3.769999999999976
 30
0.0
 11
-113.1749681178039
 21
5.999999999999976
 31
0.0
  0
LINE
  5
15A7
  8
250
 10
-112.8033014511372
 20
3.769999999999976
 30
0.0
 11
-113.1749681178039
 21
5.999999999999976
 31
0.0
  0
LINE
  5
15A8
  8
250
 10
-113.1749681178039
 20
5.999999999999976
 30
0.0
 11
-113.1749681178039
 21
3.769999999999976
 31
0.0
  0
LINE
  5
15A9
  8
250
 10
-112.8033014511372
 20
-3.7700000000000511
 30
0.0
 11
-113.1749681178039
 21
-6.0000000000000524
 31
0.0
  0
LINE
  5
15AA
  8
250
 10
-113.5466347844706
 20
-3.7700000000000511
 30
0.0
 11
-113.1749681178039
 21
-6.0000000000000524
 31
0.0
  0
LINE
  5
15AB
  8
250
 10
-113.1749681178039
 20
-6.0000000000000524
 30
0.0
 11
-113.1749681178039
 21
-3.7700000000000511
 31
0.0
  0
INSERT
  5
30ED
  8
240
  2
A$C33CD72F1
 10
0.0
 20
0.0
 30
0.0
  0
VIEWPORT
  5
22
 67
     1
  8
0
 10
261.51769911504419
 20
148.5
 30
0.0
 40
523.0353982300885
 41
297.0
 68
     1
 69
     1
1001
ACAD
1000
MVIEW
1002
{
1070
    16
1010
0.0
1020
0.0
1030
0.0
1010
0.0
1020
0.0
1030
1.0
1040
0.0
1040
297.0
1040
261.51769911504419
1040
148.5
1040
50.0
1040
0.0
1040
0.0
1070
     0
1070
   100
1070
     1
1070
     1
1070
     0
1070
     0
1070
     0
1070
     0
1040
0.0
1040
0.0
1040
0.0
1040
1.0
1040
1.0
1040
10.0
1040
10.0
1070
     0
1002
{
1002
}
1002
}
1001
GENIUS_GENODEF_13
1002
{
1000
HIER
1070
     0
1002
}
1002
{
1000
MANEDIT
1070
     0
1002
}
1002
{
1000
NOSEL
1070
     0
1002
}
1002
{
1000
BEHIND
1070
     0
1002
}
1002
{
1000
OTHER
1070
     0
1002
}
1002
{
1000
REACTOR
1002
}
1001
GENIUS_GENOBJ-N-SDF_13
1002
{
1000
OWNER
1000
GEN
1002
}
1001
GENIUS_GENSCREG_15
1000
PF
1040
1.0
1000
DF
1040
1.0
1000
MIN
1011
0.0
1021
0.0
1031
0.0
1021
0.0
1031
0.0
1000
MAX
1011
523.0353982300885
1021
0.0
1031
0.0
1021
297.0
1031
0.0
1000
FLAGS
1070
     2
  0
ENDSEC
  0
EOF
