  0
SECTION
  2
HEADER
  9
$ACADVER
  1
AC1009
  9
$INSBASE
 10
0.0
 20
0.0
 30
0.0
  9
$EXTMIN
 10
-133.67496811780401
 20
-30.849082673880869
 30
0.0
  9
$EXTMAX
 10
17.22503501444341
 20
24.000000000000021
 30
0.0
  9
$LIMMIN
 10
0.0
 20
0.0
  9
$LIMMAX
 10
297.0
 20
210.0
  9
$ORTHOMODE
 70
     0
  9
$REGENMODE
 70
     1
  9
$FILLMODE
 70
     1
  9
$QTEXTMODE
 70
     0
  9
$MIRRTEXT
 70
     1
  9
$DRAGMODE
 70
     2
  9
$LTSCALE
 40
10.0
  9
$OSMODE
 70
    39
  9
$ATTMODE
 70
     1
  9
$TEXTSIZE
 40
3.0
  9
$TRACEWID
 40
1.0
  9
$TEXTSTYLE
  7
YOKO
  9
$CLAYER
  8
240
  9
$CELTYPE
  6
BYLAYER
  9
$CECOLOR
 62
   256
  9
$DIMSCALE
 40
1.0
  9
$DIMASZ
 40
2.2299999999999991
  9
$DIMEXO
 40
0.5
  9
$DIMDLI
 40
7.0
  9
$DIMRND
 40
0.0
  9
$DIMDLE
 40
0.0
  9
$DIMEXE
 40
1.0
  9
$DIMTP
 40
0.0
  9
$DIMTM
 40
0.01
  9
$DIMTXT
 40
2.799999999999998
  9
$DIMCEN
 40
0.0
  9
$DIMTSZ
 40
0.0
  9
$DIMTOL
 70
     0
  9
$DIMLIM
 70
     0
  9
$DIMTIH
 70
     0
  9
$DIMTOH
 70
     0
  9
$DIMSE1
 70
     0
  9
$DIMSE2
 70
     0
  9
$DIMTAD
 70
     3
  9
$DIMZIN
 70
     9
  9
$DIMBLK
  1
OPEN
  9
$DIMASO
 70
     1
  9
$DIMSHO
 70
     1
  9
$DIMPOST
  1

  9
$DIMAPOST
  1

  9
$DIMALT
 70
     0
  9
$DIMALTD
 70
     2
  9
$DIMALTF
 40
25.399999999999999
  9
$DIMLFAC
 40
1.0
  9
$DIMTOFL
 70
     1
  9
$DIMTVP
 40
0.0
  9
$DIMTIX
 70
     1
  9
$DIMSOXD
 70
     0
  9
$DIMSAH
 70
     0
  9
$DIMBLK1
  1

  9
$DIMBLK2
  1

  9
$DIMSTYLE
  2
BIGT
  9
$DIMCLRD
 70
   256
  9
$DIMCLRE
 70
   256
  9
$DIMCLRT
 70
    40
  9
$DIMTFAC
 40
1.0
  9
$DIMGAP
 40
1.0
  9
$LUNITS
 70
     2
  9
$LUPREC
 70
     3
  9
$SKETCHINC
 40
1.0
  9
$FILLETRAD
 40
0.2
  9
$AUNITS
 70
     0
  9
$AUPREC
 70
     3
  9
$MENU
  1
.
  9
$ELEVATION
 40
0.0
  9
$PELEVATION
 40
0.0
  9
$THICKNESS
 40
0.0
  9
$LIMCHECK
 70
     0
  9
$BLIPMODE
 70
     0
  9
$CHAMFERA
 40
0.25
  9
$CHAMFERB
 40
0.25
  9
$SKPOLY
 70
     0
  9
$TDCREATE
 40
2454678.6469375701
  9
$TDUPDATE
 40
2456365.6547834142
  9
$TDINDWG
 40
0.0370098843
  9
$TDUSRTIMER
 40
0.0370098843
  9
$USRTIMER
 70
     1
  9
$ANGBASE
 50
0.0
  9
$ANGDIR
 70
     0
  9
$PDMODE
 70
     1
  9
$PDSIZE
 40
0.0
  9
$PLINEWID
 40
0.0
  9
$COORDS
 70
     0
  9
$SPLFRAME
 70
     0
  9
$SPLINETYPE
 70
     6
  9
$SPLINESEGS
 70
     4
  9
$ATTDIA
 70
     1
  9
$ATTREQ
 70
     1
  9
$HANDLING
 70
     1
  9
$HANDSEED
  5
206E
  9
$SURFTAB1
 70
     6
  9
$SURFTAB2
 70
     6
  9
$SURFTYPE
 70
     6
  9
$SURFU
 70
     6
  9
$SURFV
 70
     6
  9
$UCSNAME
  2

  9
$UCSORG
 10
0.0
 20
0.0
 30
0.0
  9
$UCSXDIR
 10
1.0
 20
0.0
 30
0.0
  9
$UCSYDIR
 10
0.0
 20
1.0
 30
0.0
  9
$PUCSNAME
  2

  9
$PUCSORG
 10
0.0
 20
0.0
 30
0.0
  9
$PUCSXDIR
 10
1.0
 20
0.0
 30
0.0
  9
$PUCSYDIR
 10
0.0
 20
1.0
 30
0.0
  9
$USERI1
 70
     1
  9
$USERI2
 70
     0
  9
$USERI3
 70
     0
  9
$USERI4
 70
     0
  9
$USERI5
 70
     0
  9
$USERR1
 40
0.0
  9
$USERR2
 40
0.0
  9
$USERR3
 40
0.0
  9
$USERR4
 40
0.0
  9
$USERR5
 40
0.0
  9
$WORLDVIEW
 70
     1
  9
$SHADEDGE
 70
     3
  9
$SHADEDIF
 70
    70
  9
$TILEMODE
 70
     1
  9
$MAXACTVP
 70
    16
  9
$PLIMCHECK
 70
     0
  9
$PEXTMIN
 10
1.0000000000000000E+020
 20
1.0000000000000000E+020
 30
1.0000000000000000E+020
  9
$PEXTMAX
 10
-1.0000000000000000E+020
 20
-1.0000000000000000E+020
 30
-1.0000000000000000E+020
  9
$PLIMMIN
 10
0.0
 20
0.0
  9
$PLIMMAX
 10
420.0
 20
297.0
  9
$UNITMODE
 70
     0
  9
$VISRETAIN
 70
     1
  9
$PLINEGEN
 70
     0
  9
$PSLTSCALE
 70
     1
  0
ENDSEC
  0
SECTION
  2
TABLES
  0
TABLE
  2
VPORT
 70
     3
  0
VPORT
  2
*ACTIVE
 70
     0
 10
0.0
 20
0.0
 11
1.0
 21
1.0
 12
-58.23137914425547
 22
-2.150338836316485
 13
0.0
 23
0.0
 14
7.0
 24
7.0
 15
7.0
 25
7.0
 16
0.0
 26
0.0
 36
1.0
 17
0.0
 27
0.0
 37
0.0
 40
104.58919300606151
 41
1.4501133786848071
 42
50.0
 43
0.0
 44
0.0
 50
0.0
 51
0.0
 71
     0
 72
  2000
 73
     1
 74
     0
 75
     0
 76
     1
 77
     0
 78
     0
  0
ENDTAB
  0
TABLE
  2
LTYPE
 70
    16
  0
LTYPE
  2
CONTINUOUS
 70
     0
  3
Solid line
 72
    65
 73
     0
 40
0.0
  0
LTYPE
  2
CENTER2
 70
     0
  3
___ _ ___ _ ___ _ ___ _ ___ _ ___ _ ___ _ ___ _
 72
    65
 73
     4
 40
1.125
 49
0.75
 49
-0.125
 49
0.125
 49
-0.125
  0
LTYPE
  2
HIDDEN2
 70
     0
  3
_ _ _ _ _ _ _ _ _ _ _ _ _ _ _ _ _ _ _ _ _ _ _ _
 72
    65
 73
     2
 40
0.1875
 49
0.125
 49
-0.0625
  0
LTYPE
  2
PHANTOM2
 70
     0
  3
___ _ _ ___ _ _ ___ _ _ ___ _ _ ___ _ _ ___ _ _
 72
    65
 73
     6
 40
1.25
 49
0.625
 49
-0.125
 49
0.125
 49
-0.125
 49
0.125
 49
-0.125
  0
LTYPE
  2
CENTER
 70
     0
  3
____ _ ____ _ ____ _ ____ _ ____ _ ____ _ ____ 
 72
    65
 73
     4
 40
2.0
 49
1.25
 49
-0.25
 49
0.25
 49
-0.25
  0
LTYPE
  2
AMCONSTR
 70
     0
  3
_______________________
 72
    65
 73
     2
 40
9999.0
 49
9999.0
 49
0.0
  0
LTYPE
  2
HIDDEN
 70
     0
  3
Hidden __ __ __ __ __ __ __ __ __ __ __ __ __ _
 72
    65
 73
     2
 40
9.5249999999999986
 49
6.349999999999997
 49
-3.174999999999998
  0
LTYPE
  2
AMZIGZAG2
 70
     0
  3
/\/-/\/-/\/-/\/-/\/-/\/
 72
    65
 73
     2
 40
0.4401
 49
0.0001
 49
-0.4400000000000002
  0
LTYPE
  2
ACANSTGB
 70
     0
  3
__ . . __ . .
 72
    65
 73
     6
 40
0.35433070866
 49
0.15748031496
 49
-0.03937007874
 49
0.03937007874
 49
-0.03937007874
 49
0.03937007874
 49
-0.03937007874
  0
LTYPE
  2
ACANSTGL
 70
     0
  3
_ _ _ _ _
 72
    65
 73
     2
 40
0.11811023622
 49
0.07874015748
 49
-0.03937007874
  0
LTYPE
  2
AM_ISO02W050
 70
     0
  3
__ __ __ __ __ __ __ __ __ __ __ __ __ __ __
 72
    65
 73
     2
 40
7.5
 49
6.0
 49
-1.5
  0
LTYPE
  2
AM_ISO08W050
 70
     0
  3
____ . ____ . ____ . ____ . ____ . ____ . ____
 72
    65
 73
     4
 40
18.0
 49
12.0
 49
-1.5
 49
3.0
 49
-1.5
  0
LTYPE
  2
AM_ISO09W050
 70
     0
  3
_____ . . _____ . . _____ . . ____ .. ____
 72
    65
 73
     6
 40
22.5
 49
12.0
 49
-1.5
 49
3.0
 49
-1.5
 49
3.0
 49
-1.5
  0
LTYPE
  2
AM_ISO08W050X2
 70
     0
  3
__ . __ . __ . __ . __ . __
 72
    65
 73
     4
 40
9.0
 49
6.0
 49
-0.75
 49
1.5
 49
-0.75
  0
LTYPE
  2
AM_ISO02W050X2
 70
     0
  3
 _ _ _ _ _ _ _ _ _ _ _ _
 72
    65
 73
     2
 40
3.75
 49
3.0
 49
-0.75
  0
LTYPE
  2
AMZIGZAG
 70
     0
  3
/\/-/\/-/\/-/\/-/\/-/\/
 72
    65
 73
     2
 40
11.0001
 49
0.0001
 49
-11.0
  0
ENDTAB
  0
TABLE
  2
LAYER
 70
     8
  0
LAYER
  2
0
 70
     0
 62
     7
  6
CONTINUOUS
  0
LAYER
  2
240
 70
     0
 62
     4
  6
CONTINUOUS
  0
LAYER
  2
DEFPOINTS
 70
     0
 62
     7
  6
CONTINUOUS
  0
LAYER
  2
245
 70
     0
 62
     2
  6
CENTER2
  0
LAYER
  2
241
 70
     0
 62
   211
  6
CONTINUOUS
  0
LAYER
  2
246
 70
     0
 62
     3
  6
PHANTOM2
  0
LAYER
  2
247
 70
     0
 62
    60
  6
CONTINUOUS
  0
LAYER
  2
250
 70
     0
 62
     3
  6
CONTINUOUS
  0
ENDTAB
  0
TABLE
  2
STYLE
 70
     5
  0
STYLE
  2
STANDARD
 70
     0
 40
0.0
 41
1.0
 50
0.0
 71
     0
 42
3.0
  3
romans.shx
  4
extfont.shx
  0
STYLE
  2
YOKO
 70
     0
 40
0.0
 41
1.0
 50
0.0
 71
     0
 42
3.0
  3
romans.shx
  4
extfont.shx
  0
STYLE
  2

 70
     1
 40
0.0
 41
1.0
 50
0.0
 71
     0
 42
3.0
  3
ltypeshp.shx
  4

  0
STYLE
  2
ACANSTS
 70
     0
 40
1.0
 41
1.0
 50
0.0
 71
     0
 42
3.0
  3
romans.shx
  4
extfont.shx
  0
STYLE
  2
ACANSGDT
 70
     0
 40
0.0
 41
1.0
 50
0.0
 71
     0
 42
3.0
  3
amgdtans.shx
  4

  0
ENDTAB
  0
TABLE
  2
VIEW
 70
     0
  0
ENDTAB
  0
TABLE
  2
UCS
 70
     0
  0
ENDTAB
  0
TABLE
  2
APPID
 70
    32
  0
APPID
  2
ACAD
 70
     0
  0
APPID
  2
GLOBAL
 70
     0
  0
APPID
  2
DETAIL
 70
     0
  0
APPID
  2
GRPNAME
 70
     0
  0
APPID
  2
GPARA
 70
     0
  0
APPID
  2
MCAD_NO_VIS
 70
     0
  0
APPID
  2
ACAD_TEMP_GRAPHIC
 70
     0
  0
APPID
  2
ACATTRIBSERVICES
 70
     0
  0
APPID
  2
GENIUS_GENSCREG_15
 70
     0
  0
APPID
  2
GENIUS_GENODEF_13
 70
     0
  0
APPID
  2
GENIUS_GENOBJ-N-SDF_13
 70
     0
  0
APPID
  2
GENIUS_GENREC_14
 70
     0
  0
APPID
  2
GENIUS_GENOBJ-N-REC_13
 70
     0
  0
APPID
  2
GENIUS_GENDIMSH_14
 70
     0
  0
APPID
  2
GENIUS_GENOBJ-N-DIM_13
 70
     0
  0
APPID
  2
GENIUS_GENDIM_13
 70
     0
  0
APPID
  2
GENIUS_GENDTOL_13
 70
     0
  0
APPID
  2
GENIUS_GENOLIS_13
 70
     0
  0
APPID
  2
GENIUS_GENOENT_13
 70
     0
  0
APPID
  2
GENIUS_GENOBJ-F-FEM_13
 70
     0
  0
APPID
  2
GENIUS_GENOREF_13
 70
     0
  0
APPID
  2
GENIUS_GEFFEM_13
 70
     0
  0
APPID
  2
GENIUS_GEFFEMP_13
 70
     0
  0
APPID
  2
AD_DRAW
 70
     0
  0
APPID
  2
DESIGNERASSEMBLIES
 70
     0
  0
APPID
  2
ACADM_DIM_EDIT
 70
     0
  0
APPID
  2
AMDT_DM_ADJ
 70
     0
  0
APPID
  2
ITEMNAME
 70
     0
  0
APPID
  2
GENIUS_GENOBJ-N-FIL_13
 70
     0
  0
APPID
  2
HATCH_TYPE
 70
     0
  0
APPID
  2
HATCH_DISPLAY
 70
     0
  0
APPID
  2
HATCH_DISTANCE
 70
     0
  0
ENDTAB
  0
TABLE
  2
DIMSTYLE
 70
     7
  0
DIMSTYLE
  2
BIGT
 70
     0
  3

  4

  5

  6

  7

 40
1.0
 41
2.2299999999999991
 42
0.5
 43
7.0
 44
1.0
 45
0.0
 46
0.0
 47
0.0
 48
0.01
140
2.799999999999998
141
0.0
142
0.0
143
25.399999999999999
144
1.0
145
0.0
146
1.0
147
1.0
 71
     0
 72
     0
 73
     0
 74
     0
 75
     0
 76
     0
 77
     3
 78
     9
170
     0
171
     2
172
     1
173
     0
174
     1
175
     0
176
   256
177
   256
178
    40
  0
DIMSTYLE
  2
AM_ANSI
 70
     0
  3

  4
mm
  5

  6

  7

 40
1.0
 41
0.1
 42
0.05
 43
0.5
 44
0.1
 45
0.0
 46
0.0
 47
0.1
 48
0.1
140
0.12
141
0.0
142
0.0
143
25.399999999999999
144
1.0
145
0.0
146
0.71
147
0.06
 71
     0
 72
     0
 73
     1
 74
     1
 75
     0
 76
     0
 77
     0
 78
     7
170
     0
171
     2
172
     0
173
     0
174
     0
175
     0
176
   256
177
   256
178
     2
  0
DIMSTYLE
  2
AM_ANSI$3
 70
     0
  3

  4
mm
  5

  6

  7

 40
1.0
 41
0.1
 42
0.05
 43
0.5
 44
0.1
 45
0.0
 46
0.0
 47
0.1
 48
0.1
140
0.12
141
0.0
142
0.0
143
25.399999999999999
144
1.0
145
0.0
146
0.71
147
0.06
 71
     0
 72
     0
 73
     1
 74
     1
 75
     0
 76
     0
 77
     0
 78
     7
170
     0
171
     2
172
     0
173
     0
174
     0
175
     0
176
   256
177
   256
178
     2
  0
DIMSTYLE
  2
AM_ANSI$4
 70
     0
  3

  4
mm
  5

  6

  7

 40
1.0
 41
0.1
 42
0.05
 43
0.5
 44
0.1
 45
0.0
 46
0.0
 47
0.1
 48
0.1
140
0.12
141
0.0
142
0.0
143
25.399999999999999
144
1.0
145
0.0
146
0.71
147
0.06
 71
     0
 72
     0
 73
     1
 74
     1
 75
     0
 76
     0
 77
     0
 78
     7
170
     0
171
     2
172
     0
173
     0
174
     0
175
     0
176
   256
177
   256
178
     2
  0
DIMSTYLE
  2
AM_ANSI$7
 70
     0
  3

  4
mm
  5

  6

  7

 40
1.0
 41
0.1
 42
0.05
 43
0.5
 44
0.1
 45
0.0
 46
0.0
 47
0.1
 48
0.1
140
0.24
141
0.0
142
0.0
143
25.399999999999999
144
1.0
145
0.0
146
0.71
147
0.06
 71
     0
 72
     0
 73
     1
 74
     1
 75
     0
 76
     0
 77
     0
 78
     7
170
     0
171
     2
172
     0
173
     0
174
     0
175
     0
176
   256
177
   256
178
     2
  0
DIMSTYLE
  2
AM_ANSI$SF
 70
     0
  3

  4
mm
  5

  6

  7

 40
1.0
 41
0.1
 42
0.05
 43
0.5
 44
0.1
 45
0.0
 46
0.0
 47
0.1
 48
0.1
140
0.12
141
0.0
142
0.0
143
25.399999999999999
144
1.0
145
0.0
146
0.71
147
0.06
 71
     0
 72
     0
 73
     1
 74
     1
 75
     1
 76
     1
 77
     0
 78
     7
170
     0
171
     2
172
     0
173
     0
174
     0
175
     0
176
   256
177
   256
178
     2
  0
DIMSTYLE
  2
AM_ANSI$SH
 70
     0
  3

  4
mm
  5

  6

  7

 40
1.0
 41
0.1
 42
0.05
 43
0.5
 44
0.1
 45
0.0
 46
0.0
 47
0.1
 48
0.1
140
0.12
141
0.0
142
0.0
143
25.399999999999999
144
1.0
145
0.0
146
0.71
147
0.06
 71
     0
 72
     0
 73
     1
 74
     1
 75
     1
 76
     1
 77
     0
 78
     7
170
     0
171
     2
172
     0
173
     1
174
     0
175
     0
176
   256
177
   256
178
     2
  0
ENDTAB
  0
ENDSEC
  0
SECTION
  2
BLOCKS
  0
BLOCK
  8
0
  2
$MODEL_SPACE
 70
     0
 10
0.0
 20
0.0
 30
0.0
  3
$MODEL_SPACE
  1

  0
ENDBLK
  5
1EFF
  8
0
  0
BLOCK
 67
     1
  8
0
  2
$PAPER_SPACE
 70
     0
 10
0.0
 20
0.0
 30
0.0
  3
$PAPER_SPACE
  1

  0
ENDBLK
  5
1EFB
 67
     1
  8
0
  0
BLOCK
  8
0
  2
_OPEN
 70
     0
 10
0.0
 20
0.0
 30
0.0
  3
_OPEN
  1

  0
LINE
  5
595
  8
0
  6
BYBLOCK
 62
     0
 10
-1.0
 20
0.1666666666666666
 30
0.0
 11
0.0
 21
0.0
 31
0.0
  0
LINE
  5
596
  8
0
  6
BYBLOCK
 62
     0
 10
-1.0
 20
-0.1666666666666666
 30
0.0
 11
0.0
 21
0.0
 31
0.0
  0
LINE
  5
597
  8
0
  6
BYBLOCK
 62
     0
 10
0.0
 20
0.0
 30
0.0
 11
-1.0
 21
0.0
 31
0.0
  0
ENDBLK
  5
599
  8
0
  0
BLOCK
  8
0
  2
GENAXEH
 70
     0
 10
0.0
 20
0.0
 30
0.0
  3
GENAXEH
  1

  0
LINE
  5
6E8
  8
0
 10
-1.0
 20
0.0
 30
0.0
 11
1.0
 21
0.0
 31
0.0
  0
ENDBLK
  5
6EA
  8
0
  0
BLOCK
  8
0
  2
*X4
 70
     1
 10
0.0
 20
0.0
 30
0.0
  3
*X4
  1

  0
LINE
  5
1DE7
  8
0
 62
     0
 10
4.2731626460786947
 20
-5.8571670211471272
 30
0.0
 11
3.510115154589633
 21
-5.094119529658065
 31
0.0
  0
LINE
  5
1DE8
  8
0
 62
     0
 10
3.4940719416106631
 20
-5.3367076929658781
 30
0.0
 11
3.1883917659254002
 21
-5.03102751728062
 31
0.0
  0
LINE
  5
1DE9
  8
0
 62
     0
 10
4.3362546584561441
 20
-6.1788904098113662
 30
0.0
 11
4.030574482770878
 21
-5.8732102341260974
 31
0.0
  0
LINE
  5
1DEA
  8
0
 62
     0
 10
3.161466872339401
 20
-5.2627339999814282
 30
0.0
 11
2.940339387738502
 21
-5.0416065153805292
 31
0.0
  0
LINE
  5
1DEB
  8
0
 62
     0
 10
4.3383903626899851
 20
-6.4396574903320092
 30
0.0
 11
4.1045481757553324
 21
-6.2058153033973582
 31
0.0
  0
LINE
  5
1DEC
  8
0
 62
     0
 10
2.9211994892945921
 20
-5.281097993223403
 30
0.0
 11
2.7312050109658861
 21
-5.091103514894697
 31
0.0
  0
LINE
  5
1DED
  8
0
 62
     0
 10
4.338390362689978
 20
-6.6982888666187881
 30
0.0
 11
4.105585681181485
 21
-6.4654841851102951
 31
0.0
  0
LINE
  5
1DEE
  8
0
 62
     0
 10
2.7241461983551201
 20
-5.342676078570725
 30
0.0
 11
2.549611000613679
 21
-5.1681408808292844
 31
0.0
  0
LINE
  5
1DEF
  8
0
 62
     0
 10
4.338390362689978
 20
-6.9569202429055821
 30
0.0
 11
4.105585681181485
 21
-6.7241155613970891
 31
0.0
  0
LINE
  5
1DF0
  8
0
 62
     0
 10
2.5574155323842751
 20
-5.4345767888866652
 30
0.0
 11
2.3904879894348241
 21
-5.2676492459372142
 31
0.0
  0
LINE
  5
1DF1
  8
0
 62
     0
 10
4.3383903626899851
 20
-7.2155516191923743
 30
0.0
 11
4.105585681181485
 21
-6.9827469376838751
 31
0.0
  0
LINE
  5
1DF2
  8
0
 62
     0
 10
2.4161255819181511
 20
-5.5519182147073352
 30
0.0
 11
2.251507783582793
 21
-5.3873004163719713
 31
0.0
  0
LINE
  5
1DF3
  8
0
 62
     0
 10
4.3383903626899851
 20
-7.4741829954791612
 30
0.0
 11
4.105585681181493
 21
-7.2413783139706691
 31
0.0
  0
LINE
  5
1DF4
  8
0
 62
     0
 10
2.2989457159389901
 20
-5.6933697250149731
 30
0.0
 11
2.1319866093836382
 21
-5.526410618459618
 31
0.0
  0
LINE
  5
1DF5
  8
0
 62
     0
 10
4.3383903626899851
 20
-7.7328143717659659
 30
0.0
 11
4.105585681181477
 21
-7.5000096902574622
 31
0.0
  0
LINE
  5
1DF6
  8
0
 62
     0
 10
2.2072252078153962
 20
-5.8602805931781683
 30
0.0
 11
2.03261766024983
 21
-5.6856730456126012
 31
0.0
  0
LINE
  5
1DF7
  8
0
 62
     0
 10
4.338390362689978
 20
-7.9914457480527474
 30
0.0
 11
4.105585681181485
 21
-7.7586410665442571
 31
0.0
  0
LINE
  5
1DF8
  8
0
 62
     0
 10
2.1458777492053511
 20
-6.0575645108549052
 30
0.0
 11
1.955742399326019
 21
-5.8674291609755747
 31
0.0
  0
LINE
  5
1DF9
  8
0
 62
     0
 10
4.338390362689978
 20
-8.2500771243395334
 30
0.0
 11
4.105585681181485
 21
-8.0172724428310431
 31
0.0
  0
LINE
  5
1DFA
  8
0
 62
     0
 10
2.127884606905837
 20
-6.298202744842186
 30
0.0
 11
1.9064556573934921
 21
-6.0767737953298484
 31
0.0
  0
LINE
  5
1DFB
  8
0
 62
     0
 10
4.3383903626899851
 20
-8.5087085006263337
 30
0.0
 11
4.105585681181485
 21
-8.2759038191178362
 31
0.0
  0
LINE
  5
1DFC
  8
0
 62
     0
 10
2.0859571237484991
 20
-6.514906637971646
 30
0.0
 11
1.896203437136684
 21
-6.325152951359831
 31
0.0
  0
LINE
  5
1DFD
  8
0
 62
     0
 10
4.338390362689978
 20
-8.7673398769131268
 30
0.0
 11
4.105585681181485
 21
-8.5345351954046365
 31
0.0
  0
LINE
  5
1DFE
  8
0
 62
     0
 10
4.338390362689978
 20
-9.0259712531999199
 30
0.0
 11
4.105585681181485
 21
-8.7931665716914225
 31
0.0
  0
LINE
  5
1DFF
  8
0
 62
     0
 10
4.338390362689978
 20
-9.2846026294867041
 30
0.0
 11
4.105585681181485
 21
-9.0517979479782156
 31
0.0
  0
LINE
  5
1E00
  8
0
 62
     0
 10
4.338390362689978
 20
-9.5432340057735008
 30
0.0
 11
4.105585681181485
 21
-9.3104293242650016
 31
0.0
  0
LINE
  5
1E01
  8
0
 62
     0
 10
4.3383903626899851
 20
-9.8018653820602903
 30
0.0
 11
4.105585681181485
 21
-9.5690607005517911
 31
0.0
  0
LINE
  5
1E02
  8
0
 62
     0
 10
4.3383903626899851
 20
-10.06049675834708
 30
0.0
 11
4.105585681181493
 21
-9.8276920768385896
 31
0.0
  0
LINE
  5
1E03
  8
0
 62
     0
 10
4.338390362689978
 20
-10.31912813463388
 30
0.0
 11
4.105585681181485
 21
-10.086323453125379
 31
0.0
  0
LINE
  5
1E04
  8
0
 62
     0
 10
4.338390362689978
 20
-10.577759510920661
 30
0.0
 11
4.105585681181485
 21
-10.34495482941217
 31
0.0
  0
LINE
  5
1E05
  8
0
 62
     0
 10
4.338390362689978
 20
-10.836390887207459
 30
0.0
 11
4.105585681181485
 21
-10.60358620569896
 31
0.0
  0
LINE
  5
1E06
  8
0
 62
     0
 10
4.3331743680063184
 20
-11.08980626881058
 30
0.0
 11
4.105585681181485
 21
-10.862217581985741
 31
0.0
  0
LINE
  5
1E07
  8
0
 62
     0
 10
4.2927234683474307
 20
-11.30798674543848
 30
0.0
 11
4.0963826280125391
 21
-11.11164590510359
 31
0.0
  0
LINE
  5
1E08
  8
0
 62
     0
 10
4.2225300722551111
 20
-11.496424725632959
 30
0.0
 11
4.044737971761033
 21
-11.31863262513888
 31
0.0
  0
LINE
  5
1E09
  8
0
 62
     0
 10
4.1288343457024572
 20
-11.661360375367099
 30
0.0
 11
3.960418835935497
 21
-11.492944865600141
 31
0.0
  0
LINE
  5
1E0A
  8
0
 62
     0
 10
4.0145495478446014
 20
-11.80570695379603
 30
0.0
 11
3.849766277175481
 21
-11.640923683126911
 31
0.0
  0
LINE
  5
1E0B
  8
0
 62
     0
 10
3.880757097170298
 20
-11.93054587940852
 30
0.0
 11
3.7149104705198961
 21
-11.76469925275811
 31
0.0
  0
LINE
  5
1E0C
  8
0
 62
     0
 10
3.7271431977453031
 20
-12.03556335627032
 30
0.0
 11
3.555244829520197
 21
-11.86366498804521
 31
0.0
  0
LINE
  5
1E0D
  8
0
 62
     0
 10
2.1267631408982761
 20
-10.69381467571009
 30
0.0
 11
1.9433546960822801
 21
-10.51040623089408
 31
0.0
  0
LINE
  5
1E0E
  8
0
 62
     0
 10
3.551878254361716
 20
-12.11892978917353
 30
0.0
 11
3.367040741413724
 21
-11.93409227622552
 31
0.0
  0
LINE
  5
1E0F
  8
0
 62
     0
 10
2.1267631408982761
 20
-10.95244605199688
 30
0.0
 11
1.8939584533982821
 21
-10.719641364496891
 31
0.0
  0
LINE
  5
1E10
  8
0
 62
     0
 10
3.3508120748548631
 20
-12.17649498595347
 30
0.0
 11
3.140443698089034
 21
-11.96612660918764
 31
0.0
  0
LINE
  5
1E11
  8
0
 62
     0
 10
2.1649602340683511
 20
-11.24927452145374
 30
0.0
 11
1.893959103096269
 21
-10.978273390481659
 31
0.0
  0
LINE
  5
1E12
  8
0
 62
     0
 10
3.1149140586925621
 20
-12.19922834607795
 30
0.0
 11
2.8439129277204791
 21
-11.928227215105871
 31
0.0
  0
LINE
  5
1E13
  8
0
 62
     0
 10
2.8198068968923562
 20
-12.162752560564529
 30
0.0
 11
1.930434888609696
 21
-11.27338055228187
 31
0.0
  0
ENDBLK
  5
1E14
  8
0
  0
BLOCK
  8
0
  2
*X5
 70
     1
 10
0.0
 20
0.0
 30
0.0
  3
*X5
  1

  0
LINE
  5
1E17
  8
0
 62
     0
 10
3.9891833374314549
 20
-8.6767642279413906
 30
0.0
 11
3.9699999022341181
 21
-8.6575807927440565
 31
0.0
  0
LINE
  5
1E18
  8
0
 62
     0
 10
3.9891833374314549
 20
-8.9353956042281784
 30
0.0
 11
3.6073930521298831
 21
-8.5536053189266141
 31
0.0
  0
LINE
  5
1E19
  8
0
 62
     0
 10
3.9748178468112911
 20
-9.179661489894805
 30
0.0
 11
3.2447862020256362
 21
-8.4496298451091505
 31
0.0
  0
LINE
  5
1E1A
  8
0
 62
     0
 10
3.6122095777595682
 20
-9.0756845971298841
 30
0.0
 11
2.8821793519213941
 21
-8.3456543712917011
 31
0.0
  0
LINE
  5
1E1B
  8
0
 62
     0
 10
3.249601308707851
 20
-8.9717077043649454
 30
0.0
 11
2.5195725018171511
 21
-8.2416788974742428
 31
0.0
  0
LINE
  5
1E1C
  8
0
 62
     0
 10
2.8869930396561161
 20
-8.8677308116000102
 30
0.0
 11
2.1569656517129001
 21
-8.1377034236567951
 31
0.0
  0
LINE
  5
1E1D
  8
0
 62
     0
 10
2.52438477060439
 20
-8.7637539188350786
 30
0.0
 11
1.8939584533982821
 21
-8.1333276016289702
 31
0.0
  0
LINE
  5
1E1E
  8
0
 62
     0
 10
2.1617765015526582
 20
-8.659777026070131
 30
0.0
 11
1.8939584533982901
 21
-8.3919589779157633
 31
0.0
  0
LINE
  5
1E1F
  8
0
 62
     0
 10
1.918015068738405
 20
-8.674646969542664
 30
0.0
 11
1.8939584533982821
 21
-8.6505903542025422
 31
0.0
  0
ENDBLK
  5
1E20
  8
0
  0
BLOCK
  8
0
  2
*X6
 70
     1
 10
0.0
 20
0.0
 30
0.0
  3
*X6
  1

  0
LINE
  5
1E23
  8
0
 62
     0
 10
3.868211204180473
 20
-7.0040038369696571
 30
0.0
 11
3.649960323505288
 21
-6.7857529562944654
 31
0.0
  0
LINE
  5
1E24
  8
0
 62
     0
 10
3.9856529491582999
 20
-7.380076958234282
 30
0.0
 11
3.2873524678243831
 21
-6.6817764769003682
 31
0.0
  0
LINE
  5
1E25
  8
0
 62
     0
 10
3.617185728354428
 20
-7.2702411137172032
 30
0.0
 11
2.924744612143483
 21
-6.5777999975062542
 31
0.0
  0
LINE
  5
1E26
  8
0
 62
     0
 10
3.9698966386926511
 20
-7.6229520240554223
 30
0.0
 11
3.6965801245195551
 21
-7.3496355098823232
 31
0.0
  0
LINE
  5
1E27
  8
0
 62
     0
 10
3.2412377906756031
 20
-7.1529245523251603
 30
0.0
 11
2.8018861877732841
 21
-6.7135729494228391
 31
0.0
  0
LINE
  5
1E28
  8
0
 62
     0
 10
3.899258026677503
 20
-7.8109447883270624
 30
0.0
 11
3.6959786603753511
 21
-7.6076654220249154
 31
0.0
  0
LINE
  5
1E29
  8
0
 62
     0
 10
3.034690875273276
 20
-7.2050090132096241
 30
0.0
 11
2.8018861877732761
 21
-6.9722043257096251
 31
0.0
  0
LINE
  5
1E2A
  8
0
 62
     0
 10
3.792131315773708
 20
-7.9624494537100619
 30
0.0
 11
3.5455738235496881
 21
-7.7158919614860331
 31
0.0
  0
LINE
  5
1E2B
  8
0
 62
     0
 10
2.202988506504409
 20
-6.6319380207275591
 30
0.0
 11
2.1787499076577741
 21
-6.6076994218809233
 31
0.0
  0
LINE
  5
1E2C
  8
0
 62
     0
 10
3.6531656331833751
 20
-8.082115147406526
 30
0.0
 11
3.2290805876554312
 21
-7.658030101878575
 31
0.0
  0
LINE
  5
1E2D
  8
0
 62
     0
 10
2.2677871082174681
 20
-6.9553679987274011
 30
0.0
 11
1.982121972154764
 21
-6.669702862664697
 31
0.0
  0
LINE
  5
1E2E
  8
0
 62
     0
 10
3.4804499382598562
 20
-8.168030828769794
 30
0.0
 11
2.8664723785437469
 21
-7.5540532690536812
 31
0.0
  0
LINE
  5
1E2F
  8
0
 62
     0
 10
2.1576583608831101
 20
-7.1038706276798393
 30
0.0
 11
1.9833357974004191
 21
-6.929548064197145
 31
0.0
  0
LINE
  5
1E30
  8
0
 62
     0
 10
3.262962952369413
 20
-8.2091752191661413
 30
0.0
 11
2.503864169432068
 21
-7.4500764362287981
 31
0.0
  0
LINE
  5
1E31
  8
0
 62
     0
 10
2.9676848492862362
 20
-8.1725284923697501
 30
0.0
 11
1.9129553288231711
 21
-7.1177989719066872
 31
0.0
  0
LINE
  5
1E32
  8
0
 62
     0
 10
2.623189712588176
 20
-8.0866647319584857
 30
0.0
 11
1.8976699797883041
 21
-7.3611449991586113
 31
0.0
  0
ENDBLK
  5
1E33
  8
0
  0
BLOCK
  8
0
  2
A$C43BF7910
 70
     0
 10
0.0
 20
0.0
 30
0.0
  3
A$C43BF7910
  1

  0
TEXT
  5
1E35
  8
247
 10
-107.2078233883562
 20
-4.1921017954155211
 30
0.0
 40
2.0
  1
ST12-CM10-45B-45
 41
0.7
  7
YOKO
 11
-107.2078233883562
 21
-4.1921017954155211
 31
0.0
 73
     1
  0
INSERT
  5
1E36
  8
247
  6
CONTINUOUS
  2
*X4
 10
-103.2078233883561
 20
-0.1505001566497839
 30
0.0
 50
270.0
1001
ACAD
1000
HATCH
1002
{
1070
    19
1000
ANSI31
1040
0.0576
1040
6.2831853071795827
1002
}
  0
INSERT
  5
1E37
  8
247
  6
CONTINUOUS
  2
*X5
 10
-103.2078233883561
 20
-0.1505001566497839
 30
0.0
 50
270.0
1001
ACAD
1000
HATCH
1002
{
1070
    19
1000
ANSI31
1040
0.0576
1040
6.2831853071795827
1002
}
  0
INSERT
  5
1E38
  8
247
  6
CONTINUOUS
  2
*X6
 10
-103.2078233883561
 20
-0.1505001566497839
 30
0.0
 50
270.0
1001
ACAD
1000
HATCH
1002
{
1070
    19
1000
ANSI31
1040
0.0576
1040
6.2831853071795827
1002
}
  0
LINE
  5
1E39
  8
247
 10
-111.875571915382
 20
-2.0444586100480651
 30
0.0
 11
-111.270110977882
 21
-2.0444586100480651
 31
0.0
  0
POLYLINE
  5
1E3A
  8
247
 66
     1
 10
0.0
 20
0.0
 30
0.0
 70
     1
1001
HATCH_DISTANCE
1040
1.0
1001
HATCH_DISPLAY
1070
     0
1001
HATCH_TYPE
1070
     7
  0
VERTEX
  5
1E3B
  8
247
 10
-111.875571915382
 20
-2.0444586100480651
 30
0.0
  0
VERTEX
  5
1E3C
  8
247
 10
-111.9490045325695
 20
-2.300536735048055
 30
0.0
  0
VERTEX
  5
1E3D
  8
247
 10
-111.864234024757
 20
-2.300536735048055
 30
0.0
  0
VERTEX
  5
1E3E
  8
247
 10
-112.3916041419445
 20
-4.139683494081237
 30
0.0
  0
VERTEX
  5
1E3F
  8
247
 10
-111.8709049231945
 20
-4.139683494081237
 30
0.0
  0
VERTEX
  5
1E40
  8
247
 10
-111.270110977882
 20
-2.0444586100480651
 30
0.0
  0
SEQEND
  5
1E41
  8
247
  0
POLYLINE
  5
1E42
  8
247
 66
     1
 10
0.0
 20
0.0
 30
0.0
 70
     1
  0
VERTEX
  5
1E43
  8
247
 10
-111.875571915382
 20
-2.0444586100480651
 30
0.0
  0
VERTEX
  5
1E44
  8
247
 10
-111.9490045325695
 20
-2.300536735048055
 30
0.0
  0
VERTEX
  5
1E45
  8
247
 10
-111.864234024757
 20
-2.300536735048055
 30
0.0
  0
VERTEX
  5
1E46
  8
247
 10
-112.3916041419445
 20
-4.139683494081237
 30
0.0
  0
VERTEX
  5
1E47
  8
247
 10
-111.8709049231945
 20
-4.139683494081237
 30
0.0
  0
VERTEX
  5
1E48
  8
247
 10
-111.270110977882
 20
-2.0444586100480651
 30
0.0
  0
SEQEND
  5
1E49
  8
247
  0
LINE
  5
1E4A
  8
247
 10
-111.8709049231945
 20
-4.139683494081237
 30
0.0
 11
-111.270110977882
 21
-2.0444586100480651
 31
0.0
  0
LINE
  5
1E4B
  8
247
 10
-114.1848365638195
 20
-4.488890519339761
 30
0.0
 11
-109.458931290382
 21
-4.488890519339761
 31
0.0
  0
LINE
  5
1E4C
  8
247
 10
-114.1848365638195
 20
-4.2560858378312627
 30
0.0
 11
-109.458931290382
 21
-4.2560858378312627
 31
0.0
  0
ARC
  5
1E4D
  8
247
 10
-110.66099379038199
 20
-3.3830767741105632
 30
0.0
 40
0.756615234375
 50
163.99975070172931
 51
304.96387329163082
  0
ARC
  5
1E4E
  8
247
 10
-114.1848365638195
 20
-3.266674430360565
 30
0.0
 40
0.9894111328124999
 50
90.0
 51
270.0
  0
ARC
  5
1E4F
  8
247
 10
-114.1848365638195
 20
-3.266674430360565
 30
0.0
 40
1.2222158203124971
 50
90.0
 51
270.0
  0
LINE
  5
1E50
  8
247
 10
-112.3916041419445
 20
-4.139683494081237
 30
0.0
 11
-111.8709049231945
 21
-4.139683494081237
 31
0.0
  0
LINE
  5
1E51
  8
247
 10
-112.87547723727531
 20
-4.0960476099119054
 30
0.0
 11
-112.5582163139557
 21
-3.7787866865923401
 31
0.0
  0
LINE
  5
1E52
  8
247
 10
-113.9536386265917
 20
-4.139683494081237
 30
0.0
 11
-113.2915977382587
 21
-3.477642605748271
 31
0.0
  0
LINE
  5
1E53
  8
247
 10
-113.695007250305
 20
-4.139683494081237
 30
0.0
 11
-113.39556853821151
 21
-3.840244781987832
 31
0.0
  0
LINE
  5
1E54
  8
247
 10
-113.1777444977314
 20
-4.1396834940812681
 30
0.0
 11
-112.5195848427997
 21
-3.4815238391495442
 31
0.0
  0
LINE
  5
1E55
  8
247
 10
-113.2161594010667
 20
-3.214548494227031
 30
0.0
 11
-113.4069433638559
 21
-3.8799149252862271
 31
0.0
  0
ARC
  5
1E56
  8
247
 10
-113.35630922006951
 20
-3.5343980631730432
 30
0.0
 40
0.3492072715759277
 50
261.66285421114719
 51
66.338192159113618
  0
LINE
  5
1E57
  8
247
 10
-113.4363758740182
 20
-4.139683494081237
 30
0.0
 11
-112.58216254420751
 21
-3.285470164270591
 31
0.0
  0
LINE
  5
1E58
  8
247
 10
-114.062677384132
 20
-4.139683494081237
 30
0.0
 11
-113.096583634132
 21
-4.139683494081237
 31
0.0
  0
LINE
  5
1E59
  8
247
 10
-114.00253748191609
 20
-3.929950973118804
 30
0.0
 11
-113.0175164478636
 21
-2.944929939066367
 31
0.0
  0
LINE
  5
1E5A
  8
247
 10
-113.8985613244681
 20
-3.567343439384115
 30
0.0
 11
-113.0836448155966
 21
-2.7524269305124962
 31
0.0
  0
ARC
  5
1E5B
  8
247
 10
-113.096583634132
 20
-3.5576802897355861
 30
0.0
 40
0.5820029296875
 50
270.0
 51
40.329840654167107
  0
LINE
  5
1E5C
  8
247
 10
-113.01515583458129
 20
-3.4598320783576781
 30
0.0
 11
-112.25177944346601
 21
-2.6964556872423322
 31
0.0
  0
LINE
  5
1E5D
  8
247
 10
-111.9490045325695
 20
-2.300536735048055
 30
0.0
 11
-111.875571915382
 21
-2.0444586100480651
 31
0.0
  0
LINE
  5
1E5E
  8
247
 10
-111.9490045325695
 20
-2.300536735048055
 30
0.0
 11
-111.864234024757
 21
-2.300536735048055
 31
0.0
  0
LINE
  5
1E5F
  8
247
 10
-112.8997537903373
 20
-2.3099045289664391
 30
0.0
 11
-112.6596558859781
 21
-2.0698066246072671
 31
0.0
  0
LINE
  5
1E60
  8
247
 10
-113.64300668777931
 20
-2.2772632975481151
 30
0.0
 11
-113.4102020002793
 21
-2.0444586100481241
 31
0.0
  0
LINE
  5
1E61
  8
247
 10
-113.70406605600699
 20
-2.0444586100480651
 30
0.0
 11
-113.7708189856944
 21
-2.27726329754806
 31
0.0
  0
LINE
  5
1E62
  8
247
 10
-113.58297914194431
 20
-2.0444586100480651
 30
0.0
 11
-113.6497320716323
 21
-2.27726329754806
 31
0.0
  0
LINE
  5
1E63
  8
247
 10
-113.58297914194431
 20
-2.0444586100480651
 30
0.0
 11
-112.8319620202666
 21
-2.0444586100481521
 31
0.0
  0
LINE
  5
1E64
  8
247
 10
-114.1848365638195
 20
-2.0444586100480651
 30
0.0
 11
-113.70406605600699
 21
-2.0444586100480651
 31
0.0
  0
LINE
  5
1E65
  8
247
 10
-112.7773858265754
 20
-2.446167941491395
 30
0.0
 11
-112.4870955864143
 21
-2.1558777013302541
 31
0.0
  0
LINE
  5
1E66
  8
247
 10
-113.6497320716323
 20
-2.27726329754806
 30
0.0
 11
-113.52863636850719
 21
-2.2772632975487981
 31
0.0
  0
LINE
  5
1E67
  8
247
 10
-114.1848365638195
 20
-2.27726329754806
 30
0.0
 11
-113.7708189856944
 21
-2.27726329754806
 31
0.0
  0
LINE
  5
1E68
  8
247
 10
-113.5866328521244
 20
-2.4795208381799361
 30
0.0
 11
-113.1515706239926
 21
-2.0444586100481241
 31
0.0
  0
LINE
  5
1E69
  8
247
 10
-112.7475468754262
 20
-2.6749603666289512
 30
0.0
 11
-112.3579707057756
 21
-2.285384196978228
 31
0.0
  0
ARC
  5
1E6A
  8
247
 10
-112.8295631263195
 20
-2.6264615397355562
 30
0.0
 40
0.5820078735351563
 50
287.66957754739968
 51
90.236159842671569
  0
LINE
  5
1E6B
  8
247
 10
-113.6906090095723
 20
-2.842128371914681
 30
0.0
 11
-112.8929392477058
 21
-2.0444586100481521
 31
0.0
  0
LINE
  5
1E6C
  8
247
 10
-113.105436423242
 20
-3.2914812907315101
 30
0.0
 11
-112.2723497998054
 21
-2.4583946672948822
 31
0.0
  0
LINE
  5
1E6D
  8
247
 10
-112.3916041419445
 20
-4.139683494081237
 30
0.0
 11
-111.864234024757
 21
-2.300536735048055
 31
0.0
  0
LINE
  5
1E6E
  8
247
 10
-112.9491416718207
 20
-2.2833482234937721
 30
0.0
 11
-113.1399224960242
 21
-2.9486949197053161
 31
0.0
  0
ARC
  5
1E6F
  8
247
 10
-113.089288712257
 20
-2.6031881022355901
 30
0.0
 40
0.349197280883789
 50
261.6626016879294
 51
66.338155095189762
  0
LINE
  5
1E70
  8
247
 10
-113.7945851670203
 20
-3.2047359056493701
 30
0.0
 11
-112.9796720901157
 21
-2.389822828744895
 31
0.0
  0
LINE
  5
1E71
  8
247
 10
-114.062677384132
 20
-4.139683494081237
 30
0.0
 11
-113.52863636850719
 21
-2.2772632975487981
 31
0.0
  0
ARC
  5
1E72
  8
247
 10
-109.458931290382
 20
-3.266674430360565
 30
0.0
 40
1.2222158203124971
 50
270.0
 51
104.7707939660941
  0
ARC
  5
1E73
  8
247
 10
-109.458931290382
 20
-3.266674430360565
 30
0.0
 40
0.9894111328124999
 50
270.0
 51
104.1274364964101
  0
LINE
  5
1E74
  8
247
 10
-110.45101429819449
 20
-3.706531852235555
 30
0.0
 11
-110.301521134132
 21
-3.1851910319230541
 31
0.0
  0
LINE
  5
1E75
  8
247
 10
-110.495267227882
 20
-3.1851910319230541
 30
0.0
 11
-110.301521134132
 21
-3.1851910319230541
 31
0.0
  0
LINE
  5
1E76
  8
247
 10
-110.227411759132
 20
-4.0031278300187827
 30
0.0
 11
-110.09084730600701
 21
-4.139683494081237
 31
0.0
  0
LINE
  5
1E77
  8
247
 10
-110.495267227882
 20
-3.1851910319230541
 30
0.0
 11
-110.4285142981945
 21
-2.9523863444230609
 31
0.0
  0
LINE
  5
1E78
  8
247
 10
-110.4285142981945
 20
-2.9523863444230609
 30
0.0
 11
-109.750394181007
 21
-2.9523863444230609
 31
0.0
  0
LINE
  5
1E79
  8
247
 10
-110.09084730600701
 20
-4.139683494081237
 30
0.0
 11
-109.750394181007
 21
-2.9523863444230609
 31
0.0
  0
POLYLINE
  5
1E7A
  8
247
 66
     1
 10
0.0
 20
0.0
 30
0.0
 70
     1
1001
HATCH_DISTANCE
1040
1.0
1001
HATCH_DISPLAY
1070
     0
1001
HATCH_TYPE
1070
     7
  0
VERTEX
  5
1E7B
  8
247
 10
-109.7004283606945
 20
-2.3071812662980591
 30
0.0
  0
VERTEX
  5
1E7C
  8
247
 10
-109.77053871225699
 20
-2.0848443522355762
 30
0.0
  0
VERTEX
  5
1E7D
  8
247
 10
-109.77053871225699
 20
-2.0848443522355762
 30
0.0
  0
VERTEX
  5
1E7E
  8
247
 10
-109.7004283606945
 20
-2.3071812662980591
 30
0.0
  0
SEQEND
  5
1E7F
  8
247
  0
POLYLINE
  5
1E80
  8
247
 66
     1
 10
0.0
 20
0.0
 30
0.0
 70
     1
  0
VERTEX
  5
1E81
  8
247
 10
-109.7004283606945
 20
-2.3071812662980591
 30
0.0
  0
VERTEX
  5
1E82
  8
247
 10
-109.77053871225699
 20
-2.0848443522355762
 30
0.0
  0
VERTEX
  5
1E83
  8
247
 10
-109.77053871225699
 20
-2.0848443522355762
 30
0.0
  0
VERTEX
  5
1E84
  8
247
 10
-109.7004283606945
 20
-2.3071812662980591
 30
0.0
  0
SEQEND
  5
1E85
  8
247
  0
LINE
  5
1E86
  8
247
 10
-109.7004283606945
 20
-2.3071812662980591
 30
0.0
 11
-109.77053871225699
 21
-2.0848443522355762
 31
0.0
  0
POLYLINE
  5
1E87
  8
247
 66
     1
 10
0.0
 20
0.0
 30
0.0
 70
     1
1001
HATCH_DISTANCE
1040
1.0
1001
HATCH_DISPLAY
1070
     0
1001
HATCH_TYPE
1070
     7
  0
VERTEX
  5
1E88
  8
247
 10
-109.7004283606945
 20
-2.3071812662980591
 30
0.0
  0
VERTEX
  5
1E89
  8
247
 10
-109.77053871225699
 20
-2.0848443522355762
 30
0.0
  0
VERTEX
  5
1E8A
  8
247
 10
-109.77053871225699
 20
-2.0848443522355762
 30
0.0
  0
VERTEX
  5
1E8B
  8
247
 10
-109.7004283606945
 20
-2.3071812662980591
 30
0.0
  0
SEQEND
  5
1E8C
  8
247
  0
POLYLINE
  5
1E8D
  8
247
 66
     1
 10
0.0
 20
0.0
 30
0.0
 70
     1
  0
VERTEX
  5
1E8E
  8
247
 10
-109.7004283606945
 20
-2.3071812662980591
 30
0.0
  0
VERTEX
  5
1E8F
  8
247
 10
-109.77053871225699
 20
-2.0848443522355762
 30
0.0
  0
VERTEX
  5
1E90
  8
247
 10
-109.77053871225699
 20
-2.0848443522355762
 30
0.0
  0
VERTEX
  5
1E91
  8
247
 10
-109.7004283606945
 20
-2.3071812662980591
 30
0.0
  0
SEQEND
  5
1E92
  8
247
  0
LINE
  5
1E93
  8
247
 10
-109.81144300913201
 20
-2.3421881022355651
 30
0.0
 11
-109.8815533606945
 21
-2.1198511881730271
 31
0.0
  0
ARC
  5
1E94
  8
247
 10
-109.458931290382
 20
-3.266674430360565
 30
0.0
 40
1.222216369628905
 50
110.22964506332001
 51
118.57168892371681
  0
ARC
  5
1E95
  8
247
 10
-110.37223793100701
 20
-2.544986930360563
 30
0.0
 40
0.2444448051452637
 50
1.710121382062733
 51
163.9983983544472
  0
ARC
  5
1E96
  8
247
 10
-109.458931290382
 20
-3.266674430360565
 30
0.0
 40
0.9894138793945311
 50
110.8721834020737
 51
132.54194893738779
  0
ARC
  5
1E97
  8
247
 10
-109.423968399757
 20
-3.4228560709855591
 30
0.0
 40
1.9799648437499999
 50
155.20517736984041
 51
172.7948259620523
  0
ARC
  5
1E98
  8
247
 10
-110.685989884132
 20
-3.639154899110578
 30
0.0
 40
0.2444446334838867
 50
164.0002730571824
 51
344.00027305718208
  0
LINE
  5
1E99
  8
247
 10
-110.9209654700695
 20
-3.571777945985573
 30
0.0
 11
-110.6072135169445
 21
-2.4776011881730682
 31
0.0
  0
ARC
  5
1E9A
  8
247
 10
-110.494107071632
 20
-2.8010650553605521
 30
0.0
 40
0.7566075439453125
 50
53.444012197057511
 51
164.0001843876851
  0
LINE
  5
1E9B
  8
241
 10
-47.331815475576597
 20
-4.3499997153135981
 30
0.0
 11
-47.331815475576597
 21
-2.8715102637484029
 31
0.0
  0
LINE
  5
1E9C
  8
241
 10
-5.1103096862034203
 20
4.0000002846863909
 30
0.0
 11
-6.8472483688318793
 21
2.2630616020880061
 31
0.0
  0
LINE
  5
1E9D
  8
240
 10
-0.2532358191362505
 20
1.7860063399639949
 30
0.0
 11
-0.0590232694973105
 21
1.9802188894448951
 31
0.0
  0
ARC
  5
1E9E
  8
241
 10
-6.70582701259457
 20
2.1216402458506982
 30
0.0
 40
0.2
 50
135.0
 51
224.99999997718299
1001
GENIUS_GENOBJ-N-FIL_13
1002
{
1000
OWNER
1000
GEN
1002
}
1001
GENIUS_GENODEF_13
1002
{
1000
HIER
1070
     0
1002
}
1002
{
1000
MANEDIT
1070
     0
1002
}
1002
{
1000
NOSEL
1070
     0
1002
}
1002
{
1000
BEHIND
1070
     0
1002
}
1002
{
1000
OTHER
1070
     0
1002
}
1002
{
1000
REACTOR
1002
}
  0
ARC
  5
1E9F
  8
240
 10
-0.200444625678303
 20
2.1216402457385222
 30
0.0
 40
0.2
 50
314.99999997718351
 51
45.00000000000076
1001
GENIUS_GENOBJ-N-FIL_13
1002
{
1000
OWNER
1000
GEN
1002
}
1001
GENIUS_GENODEF_13
1002
{
1000
HIER
1070
     0
1002
}
1002
{
1000
MANEDIT
1070
     0
1002
}
1002
{
1000
NOSEL
1070
     0
1002
}
1002
{
1000
BEHIND
1070
     0
1002
}
1002
{
1000
OTHER
1070
     0
1002
}
1002
{
1000
REACTOR
1002
}
  0
ARC
  5
1EA0
  8
240
 10
-3.45313581913625
 20
5.3743314392526971
 30
0.0
 40
0.2
 50
45.000000000000732
 51
135.0
1001
GENIUS_GENOBJ-N-FIL_13
1002
{
1000
OWNER
1000
GEN
1002
}
1001
GENIUS_GENODEF_13
1002
{
1000
HIER
1070
     0
1002
}
1002
{
1000
MANEDIT
1070
     0
1002
}
1002
{
1000
NOSEL
1070
     0
1002
}
1002
{
1000
BEHIND
1070
     0
1002
}
1002
{
1000
OTHER
1070
     0
1002
}
1002
{
1000
REACTOR
1002
}
  0
ARC
  5
1EA1
  8
241
 10
-3.453135821727281
 20
-1.1310509476635511
 30
0.0
 40
0.2
 50
225.0
 51
315.00000000000051
1001
GENIUS_GENOBJ-N-FIL_13
1002
{
1000
OWNER
1000
GEN
1002
}
1001
GENIUS_GENODEF_13
1002
{
1000
HIER
1070
     0
1002
}
1002
{
1000
MANEDIT
1070
     0
1002
}
1002
{
1000
NOSEL
1070
     0
1002
}
1002
{
1000
BEHIND
1070
     0
1002
}
1002
{
1000
OTHER
1070
     0
1002
}
1002
{
1000
REACTOR
1002
}
  0
ARC
  5
1EA2
  8
241
 10
13.97696406927294
 20
7.4157588563747501
 30
0.0
 40
17.307108055623999
 50
204.42803179909589
 51
214.3316606010801
  0
CIRCLE
  5
1EA3
  8
246
 10
-3.4531358191362269
 20
2.1216402457945911
 30
0.0
 40
2.5000000000000031
  0
LINE
  5
1EA4
  8
245
 10
-122.8773311476734
 20
0.0
 30
0.0
 11
4.0261902054426724
 21
0.0
 31
0.0
  0
LINE
  5
1EA5
  8
240
 10
-48.453135819136229
 20
6.0000002846863909
 30
0.0
 11
-117.45313581913619
 21
6.0000002846863909
 31
0.0
  0
LINE
  5
1EA6
  8
240
 10
-117.45313581913619
 20
-5.9999997153136064
 30
0.0
 11
-48.453135819136229
 21
-5.9999997153136064
 31
0.0
  0
LINE
  5
1EA7
  8
240
 10
-118.45313581913619
 20
-4.9999997153136064
 30
0.0
 11
-118.45313581913619
 21
4.9999997153136064
 31
0.0
  0
ARC
  5
1EA8
  8
240
 10
-117.45313581913619
 20
-4.9999997153136064
 30
0.0
 40
1.0
 50
180.0
 51
270.0
  0
ARC
  5
1EA9
  8
240
 10
-117.45313581913619
 20
5.0000002846863909
 30
0.0
 40
1.0
 50
90.0
 51
180.0
  0
LINE
  5
1EAA
  8
245
 10
4.0261902054426724
 20
1.650000000000118
 30
0.0
 11
-49.690986081216963
 21
1.6499999999998911
 31
0.0
  0
LINE
  5
1EAB
  8
241
 10
-45.210495132016952
 20
0.8250002846863822
 30
0.0
 11
-5.6920297639608188
 21
0.8250002846864404
 31
0.0
  0
LINE
  5
1EAC
  8
240
 10
-45.331815475576597
 20
-2.3499997153135701
 30
0.0
 11
-0.3181337849229422
 21
-2.3499997153135701
 31
0.0
  0
LINE
  5
1EAD
  8
240
 10
-5.110309686177172
 20
4.0000002846863909
 30
0.0
 11
-45.210495132016952
 21
4.0000002846863909
 31
0.0
  0
LINE
  5
1EAE
  8
241
 10
-46.453135819136179
 20
4.269461121313042
 30
0.0
 11
-46.453135819136179
 21
0.6306264017753165
 31
0.0
  0
LINE
  5
1EAF
  8
241
 10
-48.453135819136229
 20
-5.9999997153136064
 30
0.0
 11
-48.453135819136229
 21
6.0000002846863909
 31
0.0
  0
ARC
  5
1EB0
  8
240
 10
-45.210495132016952
 20
7.0000002846863909
 30
0.0
 40
3.0
 50
225.0
 51
270.0
  0
ARC
  5
1EB1
  8
240
 10
-45.331815475576597
 20
-4.3499997153135981
 30
0.0
 40
2.0
 50
90.0
 51
180.0
  0
LINE
  5
1EB2
  8
240
 10
-48.453135819136229
 20
-5.9999997153136064
 30
0.0
 11
-47.331815475576597
 21
-4.8786793717539441
 31
0.0
  0
LINE
  5
1EB3
  8
240
 10
-47.331815475576597
 20
-4.8786793717539441
 30
0.0
 11
-47.331815475576597
 21
-4.3499997153135981
 31
0.0
  0
LINE
  5
1EB4
  8
240
 10
-47.331815475576597
 20
4.878679941126788
 30
0.0
 11
-48.453135819136229
 21
6.0000002846863909
 31
0.0
  0
LINE
  5
1EB5
  8
240
 10
-0.0590232694409956
 20
2.2630616019758309
 30
0.0
 11
-3.311714462898943
 21
5.5157527954900081
 31
0.0
  0
LINE
  5
1EB6
  8
240
 10
-3.5945571753735601
 20
5.5157527954900081
 30
0.0
 11
-5.1103096862034203
 21
4.0000002846863909
 31
0.0
  0
LINE
  5
1EB7
  8
240
 10
-0.2531358191362187
 20
1.7861063399639481
 30
0.0
 11
-0.2531358191362187
 21
-2.131427903148845
 31
0.0
  0
ARC
  5
1EB8
  8
240
 10
-0.6531358191362529
 20
-2.1314279031488752
 30
0.0
 40
0.400000000000018
 50
326.87759303121288
 51
0.0
  0
LINE
  5
1EB9
  8
241
 10
-3.3117144654899691
 20
-1.2724723039008601
 30
0.0
 11
-0.2532358191362505
 21
1.7860063399639949
 31
0.0
  0
LINE
  5
1EBA
  8
241
 10
-6.847248368888196
 20
1.9802188896697051
 30
0.0
 11
-3.5945571779645911
 21
-1.2724723039008621
 31
0.0
  0
ARC
  5
1EBB
  8
241
 10
-45.526436128475197
 20
-1.0925810552370561
 30
0.0
 40
1.943434307730876
 50
80.643993379632619
 51
123.14682349849051
  0
ARC
  5
1EBC
  8
241
 10
-45.205818980075939
 20
-0.8835622797819658
 30
0.0
 40
1.981060509956974
 50
134.2861658272621
 51
172.96963598579089
  0
ARC
  5
1EBD
  8
241
 10
-36.411638383837627
 20
-2.5331073063129721
 30
0.0
 40
10.925419180815981
 50
170.02748496162519
 51
181.77495824283531
  0
ENDBLK
  5
1EBF
  8
0
  0
ENDSEC
  0
SECTION
  2
ENTITIES
  0
TEXT
  5
1532
  8
241
 10
-119.0
 20
21.0
 30
0.0
 40
3.0
  1
ST12-CM10-45B-45
  7
YOKO
1001
ITEMNAME
1000
DI010
  0
LINE
  5
155C
  8
250
 10
-117.95313581913619
 20
-6.0
 30
0.0
 11
-130.77496811780401
 21
-5.9999999999999929
 31
0.0
  0
LINE
  5
155D
  8
250
 10
-117.95313581913619
 20
6.0
 30
0.0
 11
-130.77496811780401
 21
6.0000000000000044
 31
0.0
  0
LINE
  5
155E
  8
250
 10
-129.77496811780401
 20
-3.769999999999996
 30
0.0
 11
-129.77496811780401
 21
3.770000000000004
 31
0.0
  0
LINE
  5
1562
  8
250
 10
-118.45313581913619
 20
-5.5000000000000284
 30
0.0
 11
-118.45313581913619
 21
-30.849082673880869
 31
0.0
  0
LINE
  5
1563
  8
250
 10
0.0
 20
1.621640245794649
 30
0.0
 11
-0.0000000000000018
 21
-30.849082673880869
 31
0.0
  0
LINE
  5
1564
  8
250
 10
-116.2231358191362
 20
-29.849082673880869
 30
0.0
 11
-2.2300000000000022
 21
-29.849082673880869
 31
0.0
  0
LINE
  5
1568
  8
250
 10
-0.0000000000000018
 20
2.7040383325911561
 30
0.0
 11
-0.0000000000000329
 21
14.68467743299137
 31
0.0
  0
LINE
  5
1569
  8
250
 10
-3.6658060044489669
 20
5.8698443370400284
 30
0.0
 11
-8.8251445414350744
 21
11.02918287402602
 31
0.0
  0
ARC
  5
156A
  8
250
 10
-0.0000000000000009
 20
2.2040383325911561
 30
0.0
 40
11.48063910040022
 50
101.14670574972941
 51
123.8532942502714
  0
LINE
  5
156E
  8
250
 10
-46.453135819136179
 20
0.1306264017753165
 30
0.0
 11
-46.453135819136179
 21
-23.849082673880869
 31
0.0
  0
LINE
  5
156F
  8
250
 10
0.0
 20
1.621640245794649
 30
0.0
 11
-0.0000000000000018
 21
-23.849082673880869
 31
0.0
  0
LINE
  5
1570
  8
250
 10
-44.223135819136147
 20
-22.849082673880869
 30
0.0
 11
-2.2300000000000022
 21
-22.849082673880869
 31
0.0
  0
LINE
  5
1574
  8
250
 10
4.5261902054426724
 20
-0.0000000000000002
 30
0.0
 11
10.225031882196101
 21
-0.0000000000000018
 31
0.0
  0
LINE
  5
1575
  8
250
 10
4.5261902054426724
 20
1.650000000000118
 30
0.0
 11
10.225031882196101
 21
1.6500000000001149
 31
0.0
  0
LINE
  5
1576
  8
250
 10
9.2250318821961095
 20
3.8800000000001149
 30
0.0
 11
9.2250318821961095
 21
6.1100000000001158
 31
0.0
  0
LINE
  5
1577
  8
250
 10
9.2250318821961041
 20
-2.2299999999999991
 30
0.0
 11
9.2250318821961024
 21
-14.883809523809511
 31
0.0
  0
LINE
  5
1578
  8
250
 10
9.2250318821961041
 20
1.6500000000001149
 30
0.0
 11
9.2250318821961041
 21
-0.0000000000000013
 31
0.0
  0
LINE
  5
157C
  8
250
 10
-2.9531358191362642
 20
5.6499999999999764
 30
0.0
 11
17.22503501444341
 21
5.649999999999971
 31
0.0
  0
LINE
  5
157D
  8
250
 10
16.225035014443421
 20
3.4199999999999711
 30
0.0
 11
16.225035014443421
 21
-6.6095238095238411
 31
0.0
  0
TEXT
  5
1580
  8
250
 10
15.225035014443421
 20
-6.7559856144191999
 30
0.0
 40
3.0
  1
\U+2205
 50
90.0
  0
TEXT
  5
1581
  8
250
 10
15.125035014443419
 20
-4.041699900133489
 30
0.0
 40
2.799999999999998
  1
11.3
 50
90.0
  0
LINE
  5
1582
  8
250
 10
15.853368347776749
 20
3.4199999999999711
 30
0.0
 11
16.225035014443421
 21
5.649999999999971
 31
0.0
  0
LINE
  5
1583
  8
250
 10
16.59670168111009
 20
3.4199999999999711
 30
0.0
 11
16.225035014443421
 21
5.649999999999971
 31
0.0
  0
LINE
  5
1584
  8
250
 10
16.225035014443421
 20
5.649999999999971
 30
0.0
 11
16.225035014443421
 21
3.4199999999999711
 31
0.0
  0
TEXT
  5
1585
  8
250
 10
8.2250318821961041
 20
-14.683809523809501
 30
0.0
 40
2.799999999999998
  1
1.65
 50
90.0
  0
LINE
  5
1586
  8
250
 10
8.8533652155294398
 20
-2.2299999999999991
 30
0.0
 11
9.2250318821961041
 21
-0.0000000000000013
 31
0.0
  0
LINE
  5
1587
  8
250
 10
9.5966985488627721
 20
-2.2299999999999991
 30
0.0
 11
9.2250318821961041
 21
-0.0000000000000013
 31
0.0
  0
LINE
  5
1588
  8
250
 10
9.2250318821961041
 20
-0.0000000000000013
 30
0.0
 11
9.2250318821961041
 21
-2.2299999999999991
 31
0.0
  0
LINE
  5
1589
  8
250
 10
9.5966985488627721
 20
3.880000000000118
 30
0.0
 11
9.2250318821961041
 21
1.6500000000001149
 31
0.0
  0
LINE
  5
158A
  8
250
 10
8.8533652155294398
 20
3.880000000000118
 30
0.0
 11
9.2250318821961041
 21
1.6500000000001149
 31
0.0
  0
LINE
  5
158B
  8
250
 10
9.2250318821961041
 20
1.6500000000001149
 30
0.0
 11
9.2250318821961041
 21
3.880000000000118
 31
0.0
  0
TEXT
  5
158C
  8
250
 10
-8.5619375898704941
 20
12.35941891824028
 30
0.0
 40
2.799999999999998
  1
45üï
 50
20.117467577078958
  0
LINE
  5
158D
  8
250
 10
-6.1594586555981534
 20
11.45123684398968
 30
0.0
 11
-8.1180377602485176
 21
10.32207609283947
 31
0.0
  0
LINE
  5
158E
  8
250
 10
-6.6315420940604
 20
12.02541597246276
 30
0.0
 11
-8.1180377602485176
 21
10.32207609283947
 31
0.0
  0
LINE
  5
158F
  8
250
 10
-8.1180377602485176
 20
10.32207609283947
 30
0.0
 11
-6.3955003748292771
 21
11.73832640822622
 31
0.0
  0
LINE
  5
1590
  8
250
 10
-2.255554345313163
 20
13.838009446772411
 30
0.0
 11
-0.0000000000000302
 21
13.68467743299137
 31
0.0
  0
LINE
  5
1591
  8
250
 10
-2.183361790576571
 20
13.098190090790791
 30
0.0
 11
-0.0000000000000302
 21
13.68467743299137
 31
0.0
  0
LINE
  5
1592
  8
250
 10
-0.0000000000000302
 20
13.68467743299137
 30
0.0
 11
-2.2194580679448661
 21
13.468099768781601
 31
0.0
  0
TEXT
  5
1593
  8
250
 10
-27.893234576234761
 20
-21.849082673880869
 30
0.0
 40
2.799999999999998
  1
46.5
  0
LINE
  5
1594
  8
250
 10
-2.2300000000000022
 20
-22.47741600721421
 30
0.0
 11
-0.0000000000000018
 21
-22.849082673880869
 31
0.0
  0
LINE
  5
1595
  8
250
 10
-2.2300000000000022
 20
-23.220749340547538
 30
0.0
 11
-0.0000000000000018
 21
-22.849082673880869
 31
0.0
  0
LINE
  5
1596
  8
250
 10
-0.0000000000000018
 20
-22.849082673880869
 30
0.0
 11
-2.2300000000000022
 21
-22.849082673880869
 31
0.0
  0
LINE
  5
1597
  8
250
 10
-44.223135819136147
 20
-23.220749340547538
 30
0.0
 11
-46.453135819136179
 21
-22.849082673880869
 31
0.0
  0
LINE
  5
1598
  8
250
 10
-44.223135819136147
 20
-22.47741600721421
 30
0.0
 11
-46.453135819136179
 21
-22.849082673880869
 31
0.0
  0
LINE
  5
1599
  8
250
 10
-46.453135819136179
 20
-22.849082673880869
 30
0.0
 11
-44.223135819136147
 21
-22.849082673880869
 31
0.0
  0
TEXT
  5
159A
  8
250
 10
-65.426567909568135
 20
-28.849082673880869
 30
0.0
 40
2.799999999999998
  1
118.5
  0
LINE
  5
159B
  8
250
 10
-2.2300000000000022
 20
-29.47741600721422
 30
0.0
 11
-0.0000000000000018
 21
-29.849082673880869
 31
0.0
  0
LINE
  5
159C
  8
250
 10
-2.2300000000000022
 20
-30.220749340547531
 30
0.0
 11
-0.0000000000000018
 21
-29.849082673880869
 31
0.0
  0
LINE
  5
159D
  8
250
 10
-0.0000000000000018
 20
-29.849082673880869
 30
0.0
 11
-2.2300000000000022
 21
-29.849082673880869
 31
0.0
  0
LINE
  5
159E
  8
250
 10
-116.2231358191362
 20
-30.220749340547531
 30
0.0
 11
-118.45313581913619
 21
-29.849082673880869
 31
0.0
  0
LINE
  5
159F
  8
250
 10
-116.2231358191362
 20
-29.47741600721422
 30
0.0
 11
-118.45313581913619
 21
-29.849082673880869
 31
0.0
  0
LINE
  5
15A0
  8
250
 10
-118.45313581913619
 20
-29.849082673880869
 30
0.0
 11
-116.2231358191362
 21
-29.849082673880869
 31
0.0
  0
TEXT
  5
15A1
  8
250
 10
-130.77496811780401
 20
-3.8952380952381112
 30
0.0
 40
3.0
  1
\U+2205
 50
90.0
  0
TEXT
  5
15A2
  8
250
 10
-130.874968117804
 20
-1.1809523809523981
 30
0.0
 40
2.799999999999998
  1
12
 50
90.0
  0
LINE
  5
15A3
  8
250
 10
-130.14663478447071
 20
3.7700000000000031
 30
0.0
 11
-129.77496811780401
 21
6.0000000000000009
 31
0.0
  0
LINE
  5
15A4
  8
250
 10
-129.40330145113731
 20
3.7700000000000031
 30
0.0
 11
-129.77496811780401
 21
6.0000000000000009
 31
0.0
  0
LINE
  5
15A5
  8
250
 10
-129.77496811780401
 20
6.0000000000000009
 30
0.0
 11
-129.77496811780401
 21
3.7700000000000031
 31
0.0
  0
LINE
  5
15A6
  8
250
 10
-129.40330145113731
 20
-3.769999999999996
 30
0.0
 11
-129.77496811780401
 21
-5.9999999999999938
 31
0.0
  0
LINE
  5
15A7
  8
250
 10
-130.14663478447071
 20
-3.769999999999996
 30
0.0
 11
-129.77496811780401
 21
-5.9999999999999938
 31
0.0
  0
LINE
  5
15A8
  8
250
 10
-129.77496811780401
 20
-5.9999999999999938
 30
0.0
 11
-129.77496811780401
 21
-3.769999999999996
 31
0.0
  0
TEXT
  5
1FD4
  8
247
 10
-107.2078233883562
 20
-4.1921017954155211
 30
0.0
 40
2.0
  1
ST12-CM10-45B-45
 41
0.7
  7
YOKO
 11
-107.2078233883562
 21
-4.1921017954155211
 31
0.0
 73
     1
  0
INSERT
  5
1FD5
  8
247
  6
CONTINUOUS
  2
*X4
 10
-103.2078233883561
 20
-0.1505001566497839
 30
0.0
 50
270.0
1001
ACAD
1000
HATCH
1002
{
1070
    19
1000
ANSI31
1040
0.0576
1040
6.2831853071795827
1002
}
  0
INSERT
  5
1FD6
  8
247
  6
CONTINUOUS
  2
*X5
 10
-103.2078233883561
 20
-0.1505001566497839
 30
0.0
 50
270.0
1001
ACAD
1000
HATCH
1002
{
1070
    19
1000
ANSI31
1040
0.0576
1040
6.2831853071795827
1002
}
  0
INSERT
  5
1FD7
  8
247
  6
CONTINUOUS
  2
*X6
 10
-103.2078233883561
 20
-0.1505001566497839
 30
0.0
 50
270.0
1001
ACAD
1000
HATCH
1002
{
1070
    19
1000
ANSI31
1040
0.0576
1040
6.2831853071795827
1002
}
  0
LINE
  5
1FD8
  8
247
 10
-111.875571915382
 20
-2.0444586100480651
 30
0.0
 11
-111.270110977882
 21
-2.0444586100480651
 31
0.0
  0
POLYLINE
  5
1FD9
  8
247
 66
     1
 10
0.0
 20
0.0
 30
0.0
 70
     1
1001
HATCH_DISTANCE
1040
1.0
1001
HATCH_DISPLAY
1070
     0
1001
HATCH_TYPE
1070
     7
  0
VERTEX
  5
1FDA
  8
247
 10
-111.875571915382
 20
-2.0444586100480651
 30
0.0
  0
VERTEX
  5
1FDB
  8
247
 10
-111.9490045325695
 20
-2.300536735048055
 30
0.0
  0
VERTEX
  5
1FDC
  8
247
 10
-111.864234024757
 20
-2.300536735048055
 30
0.0
  0
VERTEX
  5
1FDD
  8
247
 10
-112.3916041419445
 20
-4.139683494081237
 30
0.0
  0
VERTEX
  5
1FDE
  8
247
 10
-111.8709049231945
 20
-4.139683494081237
 30
0.0
  0
VERTEX
  5
1FDF
  8
247
 10
-111.270110977882
 20
-2.0444586100480651
 30
0.0
  0
SEQEND
  5
1FE0
  8
247
  0
POLYLINE
  5
1FE1
  8
247
 66
     1
 10
0.0
 20
0.0
 30
0.0
 70
     1
  0
VERTEX
  5
1FE2
  8
247
 10
-111.875571915382
 20
-2.0444586100480651
 30
0.0
  0
VERTEX
  5
1FE3
  8
247
 10
-111.9490045325695
 20
-2.300536735048055
 30
0.0
  0
VERTEX
  5
1FE4
  8
247
 10
-111.864234024757
 20
-2.300536735048055
 30
0.0
  0
VERTEX
  5
1FE5
  8
247
 10
-112.3916041419445
 20
-4.139683494081237
 30
0.0
  0
VERTEX
  5
1FE6
  8
247
 10
-111.8709049231945
 20
-4.139683494081237
 30
0.0
  0
VERTEX
  5
1FE7
  8
247
 10
-111.270110977882
 20
-2.0444586100480651
 30
0.0
  0
SEQEND
  5
1FE8
  8
247
  0
LINE
  5
1FE9
  8
247
 10
-111.8709049231945
 20
-4.139683494081237
 30
0.0
 11
-111.270110977882
 21
-2.0444586100480651
 31
0.0
  0
LINE
  5
1FEA
  8
247
 10
-114.1848365638195
 20
-4.488890519339761
 30
0.0
 11
-109.458931290382
 21
-4.488890519339761
 31
0.0
  0
LINE
  5
1FEB
  8
247
 10
-114.1848365638195
 20
-4.2560858378312627
 30
0.0
 11
-109.458931290382
 21
-4.2560858378312627
 31
0.0
  0
ARC
  5
1FEC
  8
247
 10
-110.66099379038199
 20
-3.3830767741105632
 30
0.0
 40
0.756615234375
 50
163.99975070172931
 51
304.96387329163082
  0
ARC
  5
1FED
  8
247
 10
-114.1848365638195
 20
-3.266674430360565
 30
0.0
 40
0.9894111328124999
 50
90.0
 51
270.0
  0
ARC
  5
1FEE
  8
247
 10
-114.1848365638195
 20
-3.266674430360565
 30
0.0
 40
1.2222158203124971
 50
90.0
 51
270.0
  0
LINE
  5
1FEF
  8
247
 10
-112.3916041419445
 20
-4.139683494081237
 30
0.0
 11
-111.8709049231945
 21
-4.139683494081237
 31
0.0
  0
LINE
  5
1FF0
  8
247
 10
-112.87547723727531
 20
-4.0960476099119054
 30
0.0
 11
-112.5582163139557
 21
-3.7787866865923401
 31
0.0
  0
LINE
  5
1FF1
  8
247
 10
-113.9536386265917
 20
-4.139683494081237
 30
0.0
 11
-113.2915977382587
 21
-3.477642605748271
 31
0.0
  0
LINE
  5
1FF2
  8
247
 10
-113.695007250305
 20
-4.139683494081237
 30
0.0
 11
-113.39556853821151
 21
-3.840244781987832
 31
0.0
  0
LINE
  5
1FF3
  8
247
 10
-113.1777444977314
 20
-4.1396834940812681
 30
0.0
 11
-112.5195848427997
 21
-3.4815238391495442
 31
0.0
  0
LINE
  5
1FF4
  8
247
 10
-113.2161594010667
 20
-3.214548494227031
 30
0.0
 11
-113.4069433638559
 21
-3.8799149252862271
 31
0.0
  0
ARC
  5
1FF5
  8
247
 10
-113.35630922006951
 20
-3.5343980631730432
 30
0.0
 40
0.3492072715759277
 50
261.66285421114719
 51
66.338192159113618
  0
LINE
  5
1FF6
  8
247
 10
-113.4363758740182
 20
-4.139683494081237
 30
0.0
 11
-112.58216254420751
 21
-3.285470164270591
 31
0.0
  0
LINE
  5
1FF7
  8
247
 10
-114.062677384132
 20
-4.139683494081237
 30
0.0
 11
-113.096583634132
 21
-4.139683494081237
 31
0.0
  0
LINE
  5
1FF8
  8
247
 10
-114.00253748191609
 20
-3.929950973118804
 30
0.0
 11
-113.0175164478636
 21
-2.944929939066367
 31
0.0
  0
LINE
  5
1FF9
  8
247
 10
-113.8985613244681
 20
-3.567343439384115
 30
0.0
 11
-113.0836448155966
 21
-2.7524269305124962
 31
0.0
  0
ARC
  5
1FFA
  8
247
 10
-113.096583634132
 20
-3.5576802897355861
 30
0.0
 40
0.5820029296875
 50
270.0
 51
40.329840654167107
  0
LINE
  5
1FFB
  8
247
 10
-113.01515583458129
 20
-3.4598320783576781
 30
0.0
 11
-112.25177944346601
 21
-2.6964556872423322
 31
0.0
  0
LINE
  5
1FFC
  8
247
 10
-111.9490045325695
 20
-2.300536735048055
 30
0.0
 11
-111.875571915382
 21
-2.0444586100480651
 31
0.0
  0
LINE
  5
1FFD
  8
247
 10
-111.9490045325695
 20
-2.300536735048055
 30
0.0
 11
-111.864234024757
 21
-2.300536735048055
 31
0.0
  0
LINE
  5
1FFE
  8
247
 10
-112.8997537903373
 20
-2.3099045289664391
 30
0.0
 11
-112.6596558859781
 21
-2.0698066246072671
 31
0.0
  0
LINE
  5
1FFF
  8
247
 10
-113.64300668777931
 20
-2.2772632975481151
 30
0.0
 11
-113.4102020002793
 21
-2.0444586100481241
 31
0.0
  0
LINE
  5
2000
  8
247
 10
-113.70406605600699
 20
-2.0444586100480651
 30
0.0
 11
-113.7708189856944
 21
-2.27726329754806
 31
0.0
  0
LINE
  5
2001
  8
247
 10
-113.58297914194431
 20
-2.0444586100480651
 30
0.0
 11
-113.6497320716323
 21
-2.27726329754806
 31
0.0
  0
LINE
  5
2002
  8
247
 10
-113.58297914194431
 20
-2.0444586100480651
 30
0.0
 11
-112.8319620202666
 21
-2.0444586100481521
 31
0.0
  0
LINE
  5
2003
  8
247
 10
-114.1848365638195
 20
-2.0444586100480651
 30
0.0
 11
-113.70406605600699
 21
-2.0444586100480651
 31
0.0
  0
LINE
  5
2004
  8
247
 10
-112.7773858265754
 20
-2.446167941491395
 30
0.0
 11
-112.4870955864143
 21
-2.1558777013302541
 31
0.0
  0
LINE
  5
2005
  8
247
 10
-113.6497320716323
 20
-2.27726329754806
 30
0.0
 11
-113.52863636850719
 21
-2.2772632975487981
 31
0.0
  0
LINE
  5
2006
  8
247
 10
-114.1848365638195
 20
-2.27726329754806
 30
0.0
 11
-113.7708189856944
 21
-2.27726329754806
 31
0.0
  0
LINE
  5
2007
  8
247
 10
-113.5866328521244
 20
-2.4795208381799361
 30
0.0
 11
-113.1515706239926
 21
-2.0444586100481241
 31
0.0
  0
LINE
  5
2008
  8
247
 10
-112.7475468754262
 20
-2.6749603666289512
 30
0.0
 11
-112.3579707057756
 21
-2.285384196978228
 31
0.0
  0
ARC
  5
2009
  8
247
 10
-112.8295631263195
 20
-2.6264615397355562
 30
0.0
 40
0.5820078735351563
 50
287.66957754739968
 51
90.236159842671555
  0
LINE
  5
200A
  8
247
 10
-113.6906090095723
 20
-2.842128371914681
 30
0.0
 11
-112.8929392477058
 21
-2.0444586100481521
 31
0.0
  0
LINE
  5
200B
  8
247
 10
-113.105436423242
 20
-3.2914812907315101
 30
0.0
 11
-112.2723497998054
 21
-2.4583946672948822
 31
0.0
  0
LINE
  5
200C
  8
247
 10
-112.3916041419445
 20
-4.139683494081237
 30
0.0
 11
-111.864234024757
 21
-2.300536735048055
 31
0.0
  0
LINE
  5
200D
  8
247
 10
-112.9491416718207
 20
-2.2833482234937721
 30
0.0
 11
-113.1399224960242
 21
-2.9486949197053161
 31
0.0
  0
ARC
  5
200E
  8
247
 10
-113.089288712257
 20
-2.6031881022355901
 30
0.0
 40
0.349197280883789
 50
261.6626016879294
 51
66.338155095189762
  0
LINE
  5
200F
  8
247
 10
-113.7945851670203
 20
-3.2047359056493701
 30
0.0
 11
-112.9796720901157
 21
-2.389822828744895
 31
0.0
  0
LINE
  5
2010
  8
247
 10
-114.062677384132
 20
-4.139683494081237
 30
0.0
 11
-113.52863636850719
 21
-2.2772632975487981
 31
0.0
  0
ARC
  5
2011
  8
247
 10
-109.458931290382
 20
-3.266674430360565
 30
0.0
 40
1.2222158203124971
 50
270.0
 51
104.7707939660941
  0
ARC
  5
2012
  8
247
 10
-109.458931290382
 20
-3.266674430360565
 30
0.0
 40
0.9894111328124999
 50
270.0
 51
104.12743649641
  0
LINE
  5
2013
  8
247
 10
-110.45101429819449
 20
-3.706531852235555
 30
0.0
 11
-110.301521134132
 21
-3.1851910319230541
 31
0.0
  0
LINE
  5
2014
  8
247
 10
-110.495267227882
 20
-3.1851910319230541
 30
0.0
 11
-110.301521134132
 21
-3.1851910319230541
 31
0.0
  0
LINE
  5
2015
  8
247
 10
-110.227411759132
 20
-4.0031278300187827
 30
0.0
 11
-110.09084730600701
 21
-4.139683494081237
 31
0.0
  0
LINE
  5
2016
  8
247
 10
-110.495267227882
 20
-3.1851910319230541
 30
0.0
 11
-110.4285142981945
 21
-2.9523863444230609
 31
0.0
  0
LINE
  5
2017
  8
247
 10
-110.4285142981945
 20
-2.9523863444230609
 30
0.0
 11
-109.750394181007
 21
-2.9523863444230609
 31
0.0
  0
LINE
  5
2018
  8
247
 10
-110.09084730600701
 20
-4.139683494081237
 30
0.0
 11
-109.750394181007
 21
-2.9523863444230609
 31
0.0
  0
POLYLINE
  5
2019
  8
247
 66
     1
 10
0.0
 20
0.0
 30
0.0
 70
     1
1001
HATCH_DISTANCE
1040
1.0
1001
HATCH_DISPLAY
1070
     0
1001
HATCH_TYPE
1070
     7
  0
VERTEX
  5
201A
  8
247
 10
-109.7004283606945
 20
-2.3071812662980591
 30
0.0
  0
VERTEX
  5
201B
  8
247
 10
-109.77053871225699
 20
-2.0848443522355762
 30
0.0
  0
VERTEX
  5
201C
  8
247
 10
-109.77053871225699
 20
-2.0848443522355762
 30
0.0
  0
VERTEX
  5
201D
  8
247
 10
-109.7004283606945
 20
-2.3071812662980591
 30
0.0
  0
SEQEND
  5
201E
  8
247
  0
POLYLINE
  5
201F
  8
247
 66
     1
 10
0.0
 20
0.0
 30
0.0
 70
     1
  0
VERTEX
  5
2020
  8
247
 10
-109.7004283606945
 20
-2.3071812662980591
 30
0.0
  0
VERTEX
  5
2021
  8
247
 10
-109.77053871225699
 20
-2.0848443522355762
 30
0.0
  0
VERTEX
  5
2022
  8
247
 10
-109.77053871225699
 20
-2.0848443522355762
 30
0.0
  0
VERTEX
  5
2023
  8
247
 10
-109.7004283606945
 20
-2.3071812662980591
 30
0.0
  0
SEQEND
  5
2024
  8
247
  0
LINE
  5
2025
  8
247
 10
-109.7004283606945
 20
-2.3071812662980591
 30
0.0
 11
-109.77053871225699
 21
-2.0848443522355762
 31
0.0
  0
POLYLINE
  5
2026
  8
247
 66
     1
 10
0.0
 20
0.0
 30
0.0
 70
     1
1001
HATCH_DISTANCE
1040
1.0
1001
HATCH_DISPLAY
1070
     0
1001
HATCH_TYPE
1070
     7
  0
VERTEX
  5
2027
  8
247
 10
-109.7004283606945
 20
-2.3071812662980591
 30
0.0
  0
VERTEX
  5
2028
  8
247
 10
-109.77053871225699
 20
-2.0848443522355762
 30
0.0
  0
VERTEX
  5
2029
  8
247
 10
-109.77053871225699
 20
-2.0848443522355762
 30
0.0
  0
VERTEX
  5
202A
  8
247
 10
-109.7004283606945
 20
-2.3071812662980591
 30
0.0
  0
SEQEND
  5
202B
  8
247
  0
POLYLINE
  5
202C
  8
247
 66
     1
 10
0.0
 20
0.0
 30
0.0
 70
     1
  0
VERTEX
  5
202D
  8
247
 10
-109.7004283606945
 20
-2.3071812662980591
 30
0.0
  0
VERTEX
  5
202E
  8
247
 10
-109.77053871225699
 20
-2.0848443522355762
 30
0.0
  0
VERTEX
  5
202F
  8
247
 10
-109.77053871225699
 20
-2.0848443522355762
 30
0.0
  0
VERTEX
  5
2030
  8
247
 10
-109.7004283606945
 20
-2.3071812662980591
 30
0.0
  0
SEQEND
  5
2031
  8
247
  0
LINE
  5
2032
  8
247
 10
-109.81144300913201
 20
-2.3421881022355651
 30
0.0
 11
-109.8815533606945
 21
-2.1198511881730271
 31
0.0
  0
ARC
  5
2033
  8
247
 10
-109.458931290382
 20
-3.266674430360565
 30
0.0
 40
1.222216369628905
 50
110.22964506332001
 51
118.57168892371681
  0
ARC
  5
2034
  8
247
 10
-110.37223793100701
 20
-2.544986930360563
 30
0.0
 40
0.2444448051452637
 50
1.710121382062733
 51
163.9983983544472
  0
ARC
  5
2035
  8
247
 10
-109.458931290382
 20
-3.266674430360565
 30
0.0
 40
0.9894138793945311
 50
110.8721834020737
 51
132.54194893738779
  0
ARC
  5
2036
  8
247
 10
-109.423968399757
 20
-3.4228560709855591
 30
0.0
 40
1.9799648437499999
 50
155.20517736984041
 51
172.7948259620523
  0
ARC
  5
2037
  8
247
 10
-110.685989884132
 20
-3.639154899110578
 30
0.0
 40
0.2444446334838867
 50
164.0002730571824
 51
344.00027305718208
  0
LINE
  5
2038
  8
247
 10
-110.9209654700695
 20
-3.571777945985573
 30
0.0
 11
-110.6072135169445
 21
-2.4776011881730682
 31
0.0
  0
ARC
  5
2039
  8
247
 10
-110.494107071632
 20
-2.8010650553605521
 30
0.0
 40
0.7566075439453125
 50
53.444012197057511
 51
164.0001843876851
  0
LINE
  5
203A
  8
241
 10
-47.331815475576597
 20
-4.3499997153135981
 30
0.0
 11
-47.331815475576597
 21
-2.8715102637484029
 31
0.0
  0
LINE
  5
203B
  8
241
 10
-5.1103096862034203
 20
4.0000002846863909
 30
0.0
 11
-6.8472483688318793
 21
2.2630616020880061
 31
0.0
  0
LINE
  5
203C
  8
240
 10
-0.2532358191362505
 20
1.7860063399639949
 30
0.0
 11
-0.0590232694973105
 21
1.9802188894448951
 31
0.0
  0
ARC
  5
203D
  8
241
 10
-6.70582701259457
 20
2.1216402458506982
 30
0.0
 40
0.2
 50
135.0
 51
224.99999997718299
1001
GENIUS_GENOBJ-N-FIL_13
1002
{
1000
OWNER
1000
GEN
1002
}
1001
GENIUS_GENODEF_13
1002
{
1000
HIER
1070
     0
1002
}
1002
{
1000
MANEDIT
1070
     0
1002
}
1002
{
1000
NOSEL
1070
     0
1002
}
1002
{
1000
BEHIND
1070
     0
1002
}
1002
{
1000
OTHER
1070
     0
1002
}
1002
{
1000
REACTOR
1002
}
  0
ARC
  5
203E
  8
240
 10
-0.200444625678303
 20
2.1216402457385222
 30
0.0
 40
0.2
 50
314.99999997718351
 51
45.00000000000076
1001
GENIUS_GENOBJ-N-FIL_13
1002
{
1000
OWNER
1000
GEN
1002
}
1001
GENIUS_GENODEF_13
1002
{
1000
HIER
1070
     0
1002
}
1002
{
1000
MANEDIT
1070
     0
1002
}
1002
{
1000
NOSEL
1070
     0
1002
}
1002
{
1000
BEHIND
1070
     0
1002
}
1002
{
1000
OTHER
1070
     0
1002
}
1002
{
1000
REACTOR
1002
}
  0
ARC
  5
203F
  8
240
 10
-3.45313581913625
 20
5.3743314392526971
 30
0.0
 40
0.2
 50
45.000000000000732
 51
135.0
1001
GENIUS_GENOBJ-N-FIL_13
1002
{
1000
OWNER
1000
GEN
1002
}
1001
GENIUS_GENODEF_13
1002
{
1000
HIER
1070
     0
1002
}
1002
{
1000
MANEDIT
1070
     0
1002
}
1002
{
1000
NOSEL
1070
     0
1002
}
1002
{
1000
BEHIND
1070
     0
1002
}
1002
{
1000
OTHER
1070
     0
1002
}
1002
{
1000
REACTOR
1002
}
  0
ARC
  5
2040
  8
241
 10
-3.453135821727281
 20
-1.1310509476635511
 30
0.0
 40
0.2
 50
225.0
 51
315.00000000000051
1001
GENIUS_GENOBJ-N-FIL_13
1002
{
1000
OWNER
1000
GEN
1002
}
1001
GENIUS_GENODEF_13
1002
{
1000
HIER
1070
     0
1002
}
1002
{
1000
MANEDIT
1070
     0
1002
}
1002
{
1000
NOSEL
1070
     0
1002
}
1002
{
1000
BEHIND
1070
     0
1002
}
1002
{
1000
OTHER
1070
     0
1002
}
1002
{
1000
REACTOR
1002
}
  0
ARC
  5
2041
  8
241
 10
13.97696406927294
 20
7.4157588563747501
 30
0.0
 40
17.307108055623999
 50
204.42803179909589
 51
214.3316606010801
  0
CIRCLE
  5
2042
  8
246
 10
-3.4531358191362269
 20
2.1216402457945911
 30
0.0
 40
2.5000000000000031
  0
LINE
  5
2043
  8
245
 10
-122.8773311476734
 20
0.0
 30
0.0
 11
4.0261902054426724
 21
0.0
 31
0.0
  0
LINE
  5
2044
  8
240
 10
-48.453135819136229
 20
6.0000002846863909
 30
0.0
 11
-117.45313581913619
 21
6.0000002846863909
 31
0.0
  0
LINE
  5
2045
  8
240
 10
-117.45313581913619
 20
-5.9999997153136064
 30
0.0
 11
-48.453135819136229
 21
-5.9999997153136064
 31
0.0
  0
LINE
  5
2046
  8
240
 10
-118.45313581913619
 20
-4.9999997153136064
 30
0.0
 11
-118.45313581913619
 21
4.9999997153136064
 31
0.0
  0
ARC
  5
2047
  8
240
 10
-117.45313581913619
 20
-4.9999997153136064
 30
0.0
 40
1.0
 50
180.0
 51
270.0
  0
ARC
  5
2048
  8
240
 10
-117.45313581913619
 20
5.0000002846863909
 30
0.0
 40
1.0
 50
90.0
 51
180.0
  0
LINE
  5
2049
  8
245
 10
4.0261902054426724
 20
1.650000000000118
 30
0.0
 11
-49.690986081216963
 21
1.6499999999998911
 31
0.0
  0
LINE
  5
204A
  8
241
 10
-45.210495132016952
 20
0.8250002846863822
 30
0.0
 11
-5.6920297639608188
 21
0.8250002846864404
 31
0.0
  0
LINE
  5
204B
  8
240
 10
-45.331815475576597
 20
-2.3499997153135701
 30
0.0
 11
-0.3181337849229422
 21
-2.3499997153135701
 31
0.0
  0
LINE
  5
204C
  8
240
 10
-5.110309686177172
 20
4.0000002846863909
 30
0.0
 11
-45.210495132016952
 21
4.0000002846863909
 31
0.0
  0
LINE
  5
204D
  8
241
 10
-46.453135819136179
 20
4.269461121313042
 30
0.0
 11
-46.453135819136179
 21
0.6306264017753165
 31
0.0
  0
LINE
  5
204E
  8
241
 10
-48.453135819136229
 20
-5.9999997153136064
 30
0.0
 11
-48.453135819136229
 21
6.0000002846863909
 31
0.0
  0
ARC
  5
204F
  8
240
 10
-45.210495132016952
 20
7.0000002846863909
 30
0.0
 40
3.0
 50
225.0
 51
270.0
  0
ARC
  5
2050
  8
240
 10
-45.331815475576597
 20
-4.3499997153135981
 30
0.0
 40
2.0
 50
90.0
 51
180.0
  0
LINE
  5
2051
  8
240
 10
-48.453135819136229
 20
-5.9999997153136064
 30
0.0
 11
-47.331815475576597
 21
-4.8786793717539441
 31
0.0
  0
LINE
  5
2052
  8
240
 10
-47.331815475576597
 20
-4.8786793717539441
 30
0.0
 11
-47.331815475576597
 21
-4.3499997153135981
 31
0.0
  0
LINE
  5
2053
  8
240
 10
-47.331815475576597
 20
4.878679941126788
 30
0.0
 11
-48.453135819136229
 21
6.0000002846863909
 31
0.0
  0
LINE
  5
2054
  8
240
 10
-0.0590232694409956
 20
2.2630616019758309
 30
0.0
 11
-3.311714462898943
 21
5.5157527954900081
 31
0.0
  0
LINE
  5
2055
  8
240
 10
-3.5945571753735601
 20
5.5157527954900081
 30
0.0
 11
-5.1103096862034203
 21
4.0000002846863909
 31
0.0
  0
LINE
  5
2056
  8
240
 10
-0.2531358191362187
 20
1.7861063399639481
 30
0.0
 11
-0.2531358191362187
 21
-2.131427903148845
 31
0.0
  0
ARC
  5
2057
  8
240
 10
-0.6531358191362529
 20
-2.1314279031488752
 30
0.0
 40
0.400000000000018
 50
326.87759303121288
 51
0.0
  0
LINE
  5
2058
  8
241
 10
-3.3117144654899691
 20
-1.2724723039008601
 30
0.0
 11
-0.2532358191362505
 21
1.7860063399639949
 31
0.0
  0
LINE
  5
2059
  8
241
 10
-6.847248368888196
 20
1.9802188896697051
 30
0.0
 11
-3.5945571779645911
 21
-1.2724723039008621
 31
0.0
  0
ARC
  5
205A
  8
241
 10
-45.526436128475197
 20
-1.0925810552370561
 30
0.0
 40
1.943434307730876
 50
80.643993379632619
 51
123.14682349849051
  0
ARC
  5
205B
  8
241
 10
-45.205818980075939
 20
-0.8835622797819658
 30
0.0
 40
1.981060509956974
 50
134.2861658272621
 51
172.96963598579089
  0
ARC
  5
205C
  8
241
 10
-36.411638383837627
 20
-2.5331073063129721
 30
0.0
 40
10.925419180815981
 50
170.02748496162519
 51
181.77495824283531
  0
VIEWPORT
  5
22
 67
     1
  8
0
 10
261.51769911504419
 20
148.5
 30
0.0
 40
523.0353982300885
 41
297.0
 68
     1
 69
     1
1001
ACAD
1000
MVIEW
1002
{
1070
    16
1010
0.0
1020
0.0
1030
0.0
1010
0.0
1020
0.0
1030
1.0
1040
0.0
1040
297.0
1040
261.51769911504419
1040
148.5
1040
50.0
1040
0.0
1040
0.0
1070
     0
1070
   100
1070
     1
1070
     1
1070
     0
1070
     0
1070
     0
1070
     0
1040
0.0
1040
0.0
1040
0.0
1040
1.0
1040
1.0
1040
10.0
1040
10.0
1070
     0
1002
{
1002
}
1002
}
1001
GENIUS_GENODEF_13
1002
{
1000
HIER
1070
     0
1002
}
1002
{
1000
MANEDIT
1070
     0
1002
}
1002
{
1000
NOSEL
1070
     0
1002
}
1002
{
1000
BEHIND
1070
     0
1002
}
1002
{
1000
OTHER
1070
     0
1002
}
1002
{
1000
REACTOR
1002
}
1001
GENIUS_GENOBJ-N-SDF_13
1002
{
1000
OWNER
1000
GEN
1002
}
1001
GENIUS_GENSCREG_15
1000
PF
1040
1.0
1000
DF
1040
1.0
1000
MIN
1011
0.0
1021
0.0
1031
0.0
1021
0.0
1031
0.0
1000
MAX
1011
523.0353982300885
1021
0.0
1031
0.0
1021
297.0
1031
0.0
1000
FLAGS
1070
     2
  0
ENDSEC
  0
EOF
