  0
SECTION
  2
HEADER
  9
$ACADVER
  1
AC1009
  9
$INSBASE
 10
0.0
 20
0.0
 30
0.0
  9
$EXTMIN
 10
-113.674968117804
 20
-29.0
 30
0.0
  9
$EXTMAX
 10
14.546864180863761
 20
24.003493330567949
 30
0.0
  9
$LIMMIN
 10
0.0
 20
0.0
  9
$LIMMAX
 10
297.0
 20
210.0
  9
$ORTHOMODE
 70
     0
  9
$REGENMODE
 70
     1
  9
$FILLMODE
 70
     1
  9
$QTEXTMODE
 70
     0
  9
$MIRRTEXT
 70
     1
  9
$DRAGMODE
 70
     2
  9
$LTSCALE
 40
10.0
  9
$OSMODE
 70
  2799
  9
$ATTMODE
 70
     1
  9
$TEXTSIZE
 40
3.0
  9
$TRACEWID
 40
1.0
  9
$TEXTSTYLE
  7
YOKO
  9
$CLAYER
  8
240
  9
$CELTYPE
  6
BYLAYER
  9
$CECOLOR
 62
   256
  9
$DIMSCALE
 40
1.0
  9
$DIMASZ
 40
2.2299999999999991
  9
$DIMEXO
 40
0.5
  9
$DIMDLI
 40
7.0
  9
$DIMRND
 40
0.0
  9
$DIMDLE
 40
0.0
  9
$DIMEXE
 40
1.0
  9
$DIMTP
 40
0.0
  9
$DIMTM
 40
0.01
  9
$DIMTXT
 40
2.799999999999998
  9
$DIMCEN
 40
0.0
  9
$DIMTSZ
 40
0.0
  9
$DIMTOL
 70
     0
  9
$DIMLIM
 70
     0
  9
$DIMTIH
 70
     0
  9
$DIMTOH
 70
     0
  9
$DIMSE1
 70
     0
  9
$DIMSE2
 70
     0
  9
$DIMTAD
 70
     3
  9
$DIMZIN
 70
     9
  9
$DIMBLK
  1
OPEN
  9
$DIMASO
 70
     1
  9
$DIMSHO
 70
     1
  9
$DIMPOST
  1

  9
$DIMAPOST
  1

  9
$DIMALT
 70
     0
  9
$DIMALTD
 70
     2
  9
$DIMALTF
 40
25.399999999999999
  9
$DIMLFAC
 40
1.0
  9
$DIMTOFL
 70
     1
  9
$DIMTVP
 40
0.0
  9
$DIMTIX
 70
     1
  9
$DIMSOXD
 70
     0
  9
$DIMSAH
 70
     0
  9
$DIMBLK1
  1

  9
$DIMBLK2
  1

  9
$DIMSTYLE
  2
BIGT
  9
$DIMCLRD
 70
   256
  9
$DIMCLRE
 70
   256
  9
$DIMCLRT
 70
    40
  9
$DIMTFAC
 40
1.0
  9
$DIMGAP
 40
1.0
  9
$LUNITS
 70
     2
  9
$LUPREC
 70
     3
  9
$SKETCHINC
 40
1.0
  9
$FILLETRAD
 40
0.2
  9
$AUNITS
 70
     0
  9
$AUPREC
 70
     3
  9
$MENU
  1
.
  9
$ELEVATION
 40
0.0
  9
$PELEVATION
 40
0.0
  9
$THICKNESS
 40
0.0
  9
$LIMCHECK
 70
     0
  9
$BLIPMODE
 70
     0
  9
$CHAMFERA
 40
0.25
  9
$CHAMFERB
 40
0.25
  9
$SKPOLY
 70
     0
  9
$TDCREATE
 40
2454678.6292936229
  9
$TDUPDATE
 40
2454679.5782063771
  9
$TDINDWG
 40
0.0492921759
  9
$TDUSRTIMER
 40
0.0492919907
  9
$USRTIMER
 70
     1
  9
$ANGBASE
 50
0.0
  9
$ANGDIR
 70
     0
  9
$PDMODE
 70
     1
  9
$PDSIZE
 40
0.0
  9
$PLINEWID
 40
0.0
  9
$COORDS
 70
     1
  9
$SPLFRAME
 70
     0
  9
$SPLINETYPE
 70
     6
  9
$SPLINESEGS
 70
     4
  9
$ATTDIA
 70
     1
  9
$ATTREQ
 70
     1
  9
$HANDLING
 70
     1
  9
$HANDSEED
  5
2210
  9
$SURFTAB1
 70
     6
  9
$SURFTAB2
 70
     6
  9
$SURFTYPE
 70
     6
  9
$SURFU
 70
     6
  9
$SURFV
 70
     6
  9
$UCSNAME
  2

  9
$UCSORG
 10
0.0
 20
0.0
 30
0.0
  9
$UCSXDIR
 10
1.0
 20
0.0
 30
0.0
  9
$UCSYDIR
 10
0.0
 20
1.0
 30
0.0
  9
$PUCSNAME
  2

  9
$PUCSORG
 10
0.0
 20
0.0
 30
0.0
  9
$PUCSXDIR
 10
1.0
 20
0.0
 30
0.0
  9
$PUCSYDIR
 10
0.0
 20
1.0
 30
0.0
  9
$USERI1
 70
     1
  9
$USERI2
 70
     0
  9
$USERI3
 70
     0
  9
$USERI4
 70
     0
  9
$USERI5
 70
     0
  9
$USERR1
 40
0.0
  9
$USERR2
 40
0.0
  9
$USERR3
 40
0.0
  9
$USERR4
 40
0.0
  9
$USERR5
 40
0.0
  9
$WORLDVIEW
 70
     1
  9
$SHADEDGE
 70
     3
  9
$SHADEDIF
 70
    70
  9
$TILEMODE
 70
     1
  9
$MAXACTVP
 70
    16
  9
$PLIMCHECK
 70
     0
  9
$PEXTMIN
 10
1.0000000000000000E+020
 20
1.0000000000000000E+020
 30
1.0000000000000000E+020
  9
$PEXTMAX
 10
-1.0000000000000000E+020
 20
-1.0000000000000000E+020
 30
-1.0000000000000000E+020
  9
$PLIMMIN
 10
0.0
 20
0.0
  9
$PLIMMAX
 10
420.0
 20
297.0
  9
$UNITMODE
 70
     0
  9
$VISRETAIN
 70
     1
  9
$PLINEGEN
 70
     0
  9
$PSLTSCALE
 70
     1
  0
ENDSEC
  0
SECTION
  2
TABLES
  0
TABLE
  2
VPORT
 70
     3
  0
VPORT
  2
*ACTIVE
 70
     0
 10
0.0
 20
0.0
 11
1.0
 21
1.0
 12
-49.55635190905258
 22
-2.4964405801957241
 13
0.0
 23
0.0
 14
7.0
 24
7.0
 15
7.0
 25
7.0
 16
0.0
 26
0.0
 36
1.0
 17
0.0
 27
0.0
 37
0.0
 40
80.682554690839837
 41
1.5958115183246071
 42
50.0
 43
0.0
 44
0.0
 50
0.0
 51
0.0
 71
     0
 72
  2000
 73
     1
 74
     0
 75
     0
 76
     1
 77
     0
 78
     0
  0
ENDTAB
  0
TABLE
  2
LTYPE
 70
    13
  0
LTYPE
  2
CONTINUOUS
 70
     0
  3
Solid line
 72
    65
 73
     0
 40
0.0
  0
LTYPE
  2
CENTER2
 70
     0
  3
___ _ ___ _ ___ _ ___ _ ___ _ ___ _ ___ _ ___ _
 72
    65
 73
     4
 40
1.125
 49
0.75
 49
-0.125
 49
0.125
 49
-0.125
  0
LTYPE
  2
HIDDEN2
 70
     0
  3
_ _ _ _ _ _ _ _ _ _ _ _ _ _ _ _ _ _ _ _ _ _ _ _
 72
    65
 73
     2
 40
0.1875
 49
0.125
 49
-0.0625
  0
LTYPE
  2
PHANTOM2
 70
     0
  3
___ _ _ ___ _ _ ___ _ _ ___ _ _ ___ _ _ ___ _ _
 72
    65
 73
     6
 40
1.25
 49
0.625
 49
-0.125
 49
0.125
 49
-0.125
 49
0.125
 49
-0.125
  0
LTYPE
  2
CENTER
 70
     0
  3
____ _ ____ _ ____ _ ____ _ ____ _ ____ _ ____ 
 72
    65
 73
     4
 40
2.0
 49
1.25
 49
-0.25
 49
0.25
 49
-0.25
  0
LTYPE
  2
AM_ISO02W050
 70
     0
  3
__ __ __ __ __ __ __ __ __ __ __ __ __ __ __
 72
    65
 73
     2
 40
7.5
 49
6.0
 49
-1.5
  0
LTYPE
  2
AMCONSTR
 70
     0
  3
_______________________
 72
    65
 73
     2
 40
9999.0
 49
9999.0
 49
0.0
  0
LTYPE
  2
ACISOWELD
 70
     0
  3
_ _ _ _ _
 72
    65
 73
     2
 40
2.0
 49
2.0
 49
-1.0
  0
LTYPE
  2
ACISOTGB
 70
     0
  3
__ . . __ . .
 72
    65
 73
     6
 40
9.0
 49
4.0
 49
-1.0
 49
1.0
 49
-1.0
 49
1.0
 49
-1.0
  0
LTYPE
  2
ACISOTGL
 70
     0
  3
_ _ _ _ _
 72
    65
 73
     2
 40
3.0
 49
2.0
 49
-1.0
  0
LTYPE
  2
ACJISTGB
 70
     0
  3
__ . . __ . .
 72
    65
 73
     6
 40
9.0
 49
4.0
 49
-1.0
 49
1.0
 49
-1.0
 49
1.0
 49
-1.0
  0
LTYPE
  2
ACJISTGL
 70
     0
  3
_ _ _ _ _
 72
    65
 73
     2
 40
3.0
 49
2.0
 49
-1.0
  0
LTYPE
  2
HIDDEN
 70
     0
  3
Hidden __ __ __ __ __ __ __ __ __ __ __ __ __ _
 72
    65
 73
     2
 40
9.5249999999999968
 49
6.3499999999999979
 49
-3.174999999999998
  0
ENDTAB
  0
TABLE
  2
LAYER
 70
     8
  0
LAYER
  2
0
 70
     0
 62
     7
  6
CONTINUOUS
  0
LAYER
  2
DEFPOINTS
 70
     0
 62
     7
  6
CONTINUOUS
  0
LAYER
  2
245
 70
     0
 62
     2
  6
CENTER2
  0
LAYER
  2
240
 70
     0
 62
     4
  6
CONTINUOUS
  0
LAYER
  2
241
 70
     0
 62
   211
  6
CONTINUOUS
  0
LAYER
  2
246
 70
     0
 62
     3
  6
PHANTOM2
  0
LAYER
  2
247
 70
     0
 62
    60
  6
CONTINUOUS
  0
LAYER
  2
250
 70
     0
 62
     3
  6
CONTINUOUS
  0
ENDTAB
  0
TABLE
  2
STYLE
 70
     6
  0
STYLE
  2
STANDARD
 70
     0
 40
0.0
 41
1.0
 50
0.0
 71
     0
 42
3.0
  3
romans.shx
  4
extfont.shx
  0
STYLE
  2
ACISOTS
 70
     0
 40
1.0
 41
1.0
 50
0.0
 71
     0
 42
3.0
  3
amgdt.shx
  4
extfont.shx
  0
STYLE
  2
ACISOGDT
 70
     0
 40
0.0
 41
1.0
 50
0.0
 71
     0
 42
3.0
  3
amgdt.shx
  4
extfont.shx
  0
STYLE
  2
ACJISTS
 70
     0
 40
1.0
 41
1.0
 50
0.0
 71
     0
 42
3.0
  3
amgdt.shx
  4
extfont.shx
  0
STYLE
  2
ACJISGDT
 70
     0
 40
0.0
 41
1.0
 50
0.0
 71
     0
 42
3.0
  3
amgdt.shx
  4
extfont.shx
  0
STYLE
  2
YOKO
 70
     0
 40
0.0
 41
1.0
 50
0.0
 71
     0
 42
3.0
  3
romans.shx
  4
extfont.shx
  0
ENDTAB
  0
TABLE
  2
VIEW
 70
     0
  0
ENDTAB
  0
TABLE
  2
UCS
 70
     0
  0
ENDTAB
  0
TABLE
  2
APPID
 70
    31
  0
APPID
  2
ACAD
 70
     0
  0
APPID
  2
GLOBAL
 70
     0
  0
APPID
  2
DETAIL
 70
     0
  0
APPID
  2
GRPNAME
 70
     0
  0
APPID
  2
GPARA
 70
     0
  0
APPID
  2
MCAD_NO_VIS
 70
     0
  0
APPID
  2
ACAD_TEMP_GRAPHIC
 70
     0
  0
APPID
  2
ACATTRIBSERVICES
 70
     0
  0
APPID
  2
GENIUS_GENSCREG_15
 70
     0
  0
APPID
  2
GENIUS_GENODEF_13
 70
     0
  0
APPID
  2
GENIUS_GENOBJ-N-SDF_13
 70
     0
  0
APPID
  2
GENIUS_GENREC_14
 70
     0
  0
APPID
  2
GENIUS_GENOBJ-N-REC_13
 70
     0
  0
APPID
  2
GENIUS_GENDIMSH_14
 70
     0
  0
APPID
  2
GENIUS_GENOBJ-N-DIM_13
 70
     0
  0
APPID
  2
GENIUS_GENDIM_13
 70
     0
  0
APPID
  2
GENIUS_GENDTOL_13
 70
     0
  0
APPID
  2
GENIUS_GENOLIS_13
 70
     0
  0
APPID
  2
GENIUS_GENOENT_13
 70
     0
  0
APPID
  2
GENIUS_GENOBJ-F-FEM_13
 70
     0
  0
APPID
  2
GENIUS_GENOREF_13
 70
     0
  0
APPID
  2
GENIUS_GEFFEM_13
 70
     0
  0
APPID
  2
GENIUS_GEFFEMP_13
 70
     0
  0
APPID
  2
AD_DRAW
 70
     0
  0
APPID
  2
DESIGNERASSEMBLIES
 70
     0
  0
APPID
  2
ACADM_DIM_EDIT
 70
     0
  0
APPID
  2
AMDT_DM_ADJ
 70
     0
  0
APPID
  2
HATCH_TYPE
 70
     0
  0
APPID
  2
HATCH_DISPLAY
 70
     0
  0
APPID
  2
HATCH_DISTANCE
 70
     0
  0
APPID
  2
GENIUS_GENOBJ-N-FIL_13
 70
     0
  0
ENDTAB
  0
TABLE
  2
DIMSTYLE
 70
    23
  0
DIMSTYLE
  2
BIGT
 70
     0
  3

  4

  5
OPEN
  6

  7

 40
1.0
 41
2.2299999999999991
 42
0.5
 43
7.0
 44
1.0
 45
0.0
 46
0.0
 47
0.0
 48
0.01
140
2.7999999999999989
141
0.0
142
0.0
143
25.399999999999999
144
1.0
145
0.0
146
1.0
147
1.0
 71
     0
 72
     0
 73
     0
 74
     0
 75
     0
 76
     0
 77
     3
 78
     9
170
     0
171
     2
172
     1
173
     0
174
     1
175
     0
176
   256
177
   256
178
    40
  0
DIMSTYLE
  2
AM_ISO
 70
     0
  3

  4
"
  5

  6

  7

 40
1.0
 41
2.5
 42
1.0
 43
10.0
 44
1.0
 45
0.0
 46
0.0
 47
0.1
 48
0.1
140
3.5
141
0.0
142
0.0
143
0.0393701
144
1.0
145
0.0
146
0.71
147
1.5
 71
     0
 72
     0
 73
     0
 74
     0
 75
     0
 76
     0
 77
     1
 78
     8
170
     0
171
     2
172
     1
173
     0
174
     0
175
     0
176
   256
177
   256
178
     2
  0
DIMSTYLE
  2
AM_ISO$3
 70
     0
  3

  4
"
  5

  6

  7

 40
1.0
 41
2.5
 42
1.0
 43
10.0
 44
1.0
 45
0.0
 46
0.0
 47
0.1
 48
0.1
140
3.5
141
0.0
142
0.0
143
0.0393701
144
1.0
145
0.0
146
0.71
147
1.5
 71
     0
 72
     0
 73
     0
 74
     1
 75
     0
 76
     0
 77
     1
 78
     8
170
     0
171
     2
172
     0
173
     0
174
     0
175
     0
176
   256
177
   256
178
     2
  0
DIMSTYLE
  2
AM_ISO$4
 70
     0
  3

  4
"
  5

  6

  7

 40
1.0
 41
2.5
 42
1.0
 43
10.0
 44
1.0
 45
0.0
 46
0.0
 47
0.1
 48
0.1
140
3.5
141
0.0
142
0.0
143
0.0393701
144
1.0
145
0.0
146
0.71
147
1.5
 71
     0
 72
     0
 73
     0
 74
     1
 75
     0
 76
     0
 77
     1
 78
     8
170
     0
171
     2
172
     0
173
     0
174
     0
175
     0
176
   256
177
   256
178
     2
  0
DIMSTYLE
  2
AM_ISO$6
 70
     0
  3

  4
"
  5

  6

  7

 40
1.0
 41
2.5
 42
1.0
 43
10.0
 44
1.0
 45
0.0
 46
0.0
 47
0.1
 48
0.1
140
3.5
141
0.0
142
0.0
143
0.0393701
144
1.0
145
0.0
146
0.71
147
1.5
 71
     0
 72
     0
 73
     0
 74
     0
 75
     0
 76
     0
 77
     0
 78
     8
170
     0
171
     2
172
     1
173
     0
174
     0
175
     0
176
   256
177
   256
178
     2
  0
DIMSTYLE
  2
AM_ISO$7
 70
     0
  3

  4
"
  5

  6

  7

 40
1.0
 41
2.5
 42
1.0
 43
10.0
 44
1.0
 45
0.0
 46
0.0
 47
0.1
 48
0.1
140
5.0
141
0.0
142
0.0
143
0.0393701
144
1.0
145
0.0
146
0.71
147
1.5
 71
     0
 72
     0
 73
     0
 74
     0
 75
     0
 76
     0
 77
     1
 78
     8
170
     0
171
     2
172
     1
173
     0
174
     0
175
     0
176
   256
177
   256
178
     2
  0
DIMSTYLE
  2
AM_ISO$SF
 70
     0
  3

  4
"
  5

  6

  7

 40
1.0
 41
2.5
 42
1.0
 43
10.0
 44
1.0
 45
0.0
 46
0.0
 47
0.1
 48
0.1
140
3.5
141
0.0
142
0.0
143
0.0393701
144
1.0
145
0.0
146
0.71
147
1.5
 71
     0
 72
     0
 73
     0
 74
     0
 75
     1
 76
     1
 77
     1
 78
     8
170
     0
171
     2
172
     1
173
     0
174
     0
175
     0
176
   256
177
   256
178
     2
  0
DIMSTYLE
  2
AM_ISO$SH
 70
     0
  3

  4
"
  5

  6
GENAXEH
  7

 40
1.0
 41
2.5
 42
1.0
 43
10.0
 44
1.0
 45
0.0
 46
0.0
 47
0.1
 48
0.1
140
3.5
141
0.0
142
0.0
143
0.0393701
144
2.0
145
0.0
146
0.71
147
1.5
 71
     0
 72
     0
 73
     0
 74
     0
 75
     1
 76
     1
 77
     1
 78
     8
170
     0
171
     2
172
     1
173
     1
174
     0
175
     0
176
   256
177
   256
178
     2
  0
DIMSTYLE
  2
BIGT$2
 70
     0
  3

  4

  5
OPEN
  6

  7

 40
1.0
 41
2.2299999999999991
 42
0.5
 43
7.0
 44
1.0
 45
0.0
 46
0.0
 47
0.0
 48
0.01
140
2.7999999999999989
141
0.0
142
0.0
143
25.399999999999999
144
1.0
145
0.0
146
1.0
147
1.0
 71
     0
 72
     0
 73
     0
 74
     0
 75
     0
 76
     0
 77
     3
 78
     9
170
     0
171
     2
172
     1
173
     0
174
     0
175
     0
176
   256
177
   256
178
    40
  0
DIMSTYLE
  2
BIGT$3
 70
     0
  3

  4

  5
OPEN
  6

  7

 40
1.0
 41
2.2299999999999991
 42
0.5
 43
2.5
 44
1.0
 45
0.0
 46
0.0
 47
0.0
 48
0.01
140
2.7999999999999989
141
0.0
142
0.0
143
25.399999999999999
144
1.0
145
0.0
146
1.0
147
1.0
 71
     0
 72
     0
 73
     0
 74
     0
 75
     0
 76
     0
 77
     3
 78
     9
170
     0
171
     2
172
     1
173
     0
174
     0
175
     0
176
   256
177
   256
178
    40
  0
DIMSTYLE
  2
BIGT$7
 70
     0
  3

  4

  5
OPEN
  6

  7

 40
0.0
 41
2.2299999999999991
 42
0.5
 43
7.0
 44
1.0
 45
0.0
 46
0.0
 47
0.0
 48
0.01
140
2.7999999999999989
141
0.0
142
0.0
143
25.399999999999999
144
1.0
145
0.0
146
1.0
147
1.0
 71
     0
 72
     0
 73
     0
 74
     0
 75
     0
 76
     0
 77
     3
 78
     9
170
     0
171
     2
172
     0
173
     0
174
     0
175
     0
176
   256
177
   256
178
    40
  0
DIMSTYLE
  2
BIGT$6
 70
     0
  3

  4

  5
OPEN
  6

  7

 40
1.0
 41
2.2299999999999991
 42
0.5
 43
2.5
 44
1.0
 45
0.0
 46
0.0
 47
0.0
 48
0.01
140
2.7999999999999989
141
0.0
142
0.0
143
25.399999999999999
144
1.0
145
0.0
146
1.0
147
1.0
 71
     0
 72
     0
 73
     0
 74
     0
 75
     0
 76
     0
 77
     3
 78
     9
170
     0
171
     2
172
     1
173
     0
174
     0
175
     0
176
   256
177
   256
178
    40
  0
DIMSTYLE
  2
BIGT$0
 70
     0
  3

  4

  5
OPEN
  6

  7

 40
1.0
 41
2.2299999999999991
 42
0.5
 43
7.0
 44
1.0
 45
0.0
 46
0.0
 47
0.0
 48
0.01
140
2.7999999999999989
141
0.0
142
0.0
143
25.399999999999999
144
1.0
145
0.0
146
1.0
147
1.0
 71
     0
 72
     0
 73
     0
 74
     0
 75
     0
 76
     0
 77
     3
 78
     9
170
     0
171
     2
172
     1
173
     0
174
     0
175
     0
176
   256
177
   256
178
    40
  0
DIMSTYLE
  2
BIGT$4
 70
     0
  3

  4

  5
OPEN
  6

  7

 40
1.0
 41
2.2299999999999991
 42
0.5
 43
2.5
 44
1.0
 45
0.0
 46
0.0
 47
0.0
 48
0.01
140
2.7999999999999989
141
0.0
142
0.0
143
25.399999999999999
144
1.0
145
0.0
146
1.0
147
1.0
 71
     0
 72
     0
 73
     0
 74
     0
 75
     0
 76
     0
 77
     3
 78
     9
170
     0
171
     2
172
     1
173
     0
174
     0
175
     0
176
   256
177
   256
178
    40
  0
DIMSTYLE
  2
BIGT$SH
 70
     0
  3

  4

  5
OPEN
  6

  7

 40
1.0
 41
2.2299999999999991
 42
0.5
 43
7.0
 44
1.0
 45
0.0
 46
0.0
 47
0.0
 48
0.0
140
2.7999999999999989
141
0.0
142
0.0
143
25.399999999999999
144
1.0
145
0.0
146
1.0
147
1.0
 71
     0
 72
     0
 73
     0
 74
     0
 75
     0
 76
     0
 77
     3
 78
     9
170
     0
171
     2
172
     1
173
     0
174
     0
175
     0
176
   256
177
   256
178
    40
  0
DIMSTYLE
  2
BIGT$SF
 70
     0
  3

  4

  5
OPEN
  6

  7

 40
1.0
 41
2.2299999999999991
 42
0.5
 43
7.0
 44
1.0
 45
0.0
 46
0.0
 47
0.0
 48
0.0
140
2.7999999999999989
141
0.0
142
0.0
143
25.399999999999999
144
1.0
145
0.0
146
1.0
147
1.0
 71
     0
 72
     0
 73
     0
 74
     0
 75
     0
 76
     0
 77
     3
 78
     9
170
     0
171
     2
172
     1
173
     0
174
     0
175
     0
176
   256
177
   256
178
    40
  0
DIMSTYLE
  2
TECHNICAL_OSAKA
 70
     0
  3

  4
"
  5
OPEN30
  6

  7

 40
1.0
 41
2.5
 42
1.0
 43
10.0
 44
1.0
 45
0.0
 46
0.0
 47
0.1
 48
0.1
140
2.7999999999999989
141
0.0
142
0.0
143
0.0393701
144
1.0
145
0.0
146
0.71
147
1.5
 71
     0
 72
     0
 73
     0
 74
     0
 75
     0
 76
     0
 77
     3
 78
     8
170
     0
171
     2
172
     1
173
     0
174
     0
175
     0
176
   256
177
   256
178
    40
  0
DIMSTYLE
  2
TECHNICAL_OSAKA$3
 70
     0
  3

  4
"
  5
OPEN30
  6

  7

 40
1.0
 41
2.5
 42
1.0
 43
10.0
 44
1.0
 45
0.0
 46
0.0
 47
0.1
 48
0.1
140
2.7999999999999989
141
0.0
142
0.0
143
0.0393701
144
1.0
145
0.0
146
0.71
147
1.5
 71
     0
 72
     0
 73
     0
 74
     1
 75
     0
 76
     0
 77
     3
 78
     8
170
     0
171
     2
172
     0
173
     0
174
     0
175
     0
176
   256
177
   256
178
    40
  0
DIMSTYLE
  2
TECHNICAL_OSAKA$4
 70
     0
  3

  4
"
  5
OPEN30
  6

  7

 40
1.0
 41
2.5
 42
1.0
 43
10.0
 44
1.0
 45
0.0
 46
0.0
 47
0.1
 48
0.1
140
2.7999999999999989
141
0.0
142
0.0
143
0.0393701
144
1.0
145
0.0
146
0.71
147
1.5
 71
     0
 72
     0
 73
     0
 74
     1
 75
     0
 76
     0
 77
     3
 78
     8
170
     0
171
     2
172
     0
173
     0
174
     0
175
     0
176
   256
177
   256
178
    40
  0
DIMSTYLE
  2
TECHNICAL_OSAKA$6
 70
     0
  3

  4
"
  5
OPEN30
  6

  7

 40
1.0
 41
2.5
 42
1.0
 43
10.0
 44
1.0
 45
0.0
 46
0.0
 47
0.1
 48
0.1
140
2.7999999999999989
141
0.0
142
0.0
143
0.0393701
144
1.0
145
0.0
146
0.71
147
1.5
 71
     0
 72
     0
 73
     0
 74
     0
 75
     0
 76
     0
 77
     0
 78
     8
170
     0
171
     2
172
     1
173
     0
174
     0
175
     0
176
   256
177
   256
178
    40
  0
DIMSTYLE
  2
TECHNICAL_OSAKA$7
 70
     0
  3

  4
"
  5
OPEN30
  6

  7

 40
1.0
 41
2.5
 42
1.0
 43
10.0
 44
1.0
 45
0.0
 46
0.0
 47
0.1
 48
0.1
140
2.7999999999999989
141
0.0
142
0.0
143
0.0393701
144
1.0
145
0.0
146
0.71
147
1.5
 71
     0
 72
     0
 73
     0
 74
     0
 75
     0
 76
     0
 77
     3
 78
     8
170
     0
171
     2
172
     1
173
     0
174
     0
175
     0
176
   256
177
   256
178
    40
  0
DIMSTYLE
  2
TECHNICAL_OSAKA$SF
 70
     0
  3

  4
"
  5
OPEN30
  6
OPEN30
  7
OPEN30
 40
1.0
 41
2.5
 42
1.0
 43
10.0
 44
1.0
 45
0.0
 46
0.0
 47
0.1
 48
0.1
140
3.5
141
0.0
142
0.0
143
0.0393701
144
1.0
145
0.0
146
0.71
147
1.5
 71
     0
 72
     0
 73
     0
 74
     0
 75
     1
 76
     1
 77
     3
 78
     8
170
     0
171
     2
172
     1
173
     0
174
     0
175
     0
176
   256
177
   256
178
    40
  0
DIMSTYLE
  2
TECHNICAL_OSAKA$SH
 70
     0
  3

  4
"
  5
OPEN30
  6
GENAXEH
  7
OPEN30
 40
1.0
 41
2.5
 42
1.0
 43
10.0
 44
1.0
 45
0.0
 46
0.0
 47
0.1
 48
0.1
140
3.5
141
0.0
142
0.0
143
0.0393701
144
2.0
145
0.0
146
0.71
147
1.5
 71
     0
 72
     0
 73
     0
 74
     0
 75
     1
 76
     1
 77
     3
 78
     8
170
     0
171
     2
172
     1
173
     1
174
     0
175
     0
176
   256
177
   256
178
    40
  0
ENDTAB
  0
ENDSEC
  0
SECTION
  2
BLOCKS
  0
BLOCK
  8
0
  2
$MODEL_SPACE
 70
     0
 10
0.0
 20
0.0
 30
0.0
  3
$MODEL_SPACE
  1

  0
ENDBLK
  5
1C
  8
0
  0
BLOCK
 67
     1
  8
0
  2
$PAPER_SPACE
 70
     0
 10
0.0
 20
0.0
 30
0.0
  3
$PAPER_SPACE
  1

  0
ENDBLK
  5
19
 67
     1
  8
0
  0
BLOCK
  8
0
  2
_OPEN
 70
     0
 10
0.0
 20
0.0
 30
0.0
  3
_OPEN
  1

  0
LINE
  5
2124
  8
0
  6
BYBLOCK
 62
     0
 10
-1.0
 20
0.1666666666666666
 30
0.0
 11
0.0
 21
0.0
 31
0.0
  0
LINE
  5
2125
  8
0
  6
BYBLOCK
 62
     0
 10
-1.0
 20
-0.1666666666666666
 30
0.0
 11
0.0
 21
0.0
 31
0.0
  0
LINE
  5
2126
  8
0
  6
BYBLOCK
 62
     0
 10
0.0
 20
0.0
 30
0.0
 11
-1.0
 21
0.0
 31
0.0
  0
ENDBLK
  5
2127
  8
0
  0
BLOCK
  8
0
  2
GENAXEH
 70
     0
 10
0.0
 20
0.0
 30
0.0
  3
GENAXEH
  1

  0
LINE
  5
214F
  8
0
 10
-1.0
 20
0.0
 30
0.0
 11
1.0
 21
0.0
 31
0.0
  0
ENDBLK
  5
2150
  8
0
  0
BLOCK
  8
0
  2
_OPEN30
 70
     0
 10
0.0
 20
0.0
 30
0.0
  3
_OPEN30
  1

  0
LINE
  5
2174
  8
0
  6
BYBLOCK
 62
     0
 10
-1.0
 20
0.26794919
 30
0.0
 11
0.0
 21
0.0
 31
0.0
  0
LINE
  5
2175
  8
0
  6
BYBLOCK
 62
     0
 10
0.0
 20
0.0
 30
0.0
 11
-1.0
 21
-0.26794919
 31
0.0
  0
LINE
  5
2176
  8
0
  6
BYBLOCK
 62
     0
 10
0.0
 20
0.0
 30
0.0
 11
-1.0
 21
0.0
 31
0.0
  0
ENDBLK
  5
2177
  8
0
  0
BLOCK
  8
0
  2
A$C19A95C06
 70
     0
 10
0.0
 20
0.0
 30
0.0
  3
A$C19A95C06
  1

  0
LINE
  5
1FCF
  8
247
 10
-95.370575948920589
 20
-2.9703070535421379
 30
0.0
 11
-94.481203940637926
 21
-2.0809350452594781
 31
0.0
  0
LINE
  5
1FD0
  8
247
 10
-95.407051734434006
 20
-3.2654142153423429
 30
0.0
 11
-95.136050603461925
 21
-2.9944130843702599
 31
0.0
  0
LINE
  5
1FD1
  8
247
 10
-94.457097909809804
 20
-2.3154603907181319
 30
0.0
 11
-94.186096778837722
 21
-2.0444592597460511
 31
0.0
  0
LINE
  5
1FD2
  8
247
 10
-95.384318374309544
 20
-3.5013122315046439
 30
0.0
 11
-95.173949997543716
 21
-3.2909438547388148
 31
0.0
  0
LINE
  5
1FD3
  8
247
 10
-94.160269440352934
 20
-2.2772632975480569
 30
0.0
 11
-93.927464752852956
 21
-2.0444586100480628
 31
0.0
  0
LINE
  5
1FD4
  8
247
 10
-95.326753177529596
 20
-3.7023784110114981
 30
0.0
 11
-95.141915664581575
 21
-3.5175408980635048
 31
0.0
  0
LINE
  5
1FD5
  8
247
 10
-93.901638064066148
 20
-2.2772632975480578
 30
0.0
 11
-93.718229619250138
 21
-2.0938548527320622
 31
0.0
  0
LINE
  5
1FD6
  8
247
 10
-95.243386744626378
 20
-3.8776433543950848
 30
0.0
 11
-95.071488376401277
 21
-3.7057449861699778
 31
0.0
  0
LINE
  5
1FD7
  8
247
 10
-95.138369267764574
 20
-4.0312572538200806
 30
0.0
 11
-94.972522641114153
 21
-3.8654106271696782
 31
0.0
  0
LINE
  5
1FD8
  8
247
 10
-95.013530342152094
 20
-4.1650497044943826
 30
0.0
 11
-94.848747071482975
 21
-4.0002664338252627
 31
0.0
  0
LINE
  5
1FD9
  8
247
 10
-94.869183763723143
 20
-4.2793345023522393
 30
0.0
 11
-94.700768253956198
 21
-4.1109189925852787
 31
0.0
  0
LINE
  5
1FDA
  8
247
 10
-94.704248113989024
 20
-4.3730302289048932
 30
0.0
 11
-94.526456013494936
 21
-4.1952381284108169
 31
0.0
  0
LINE
  5
1FDB
  8
247
 10
-94.515810133794545
 20
-4.4432236249972128
 30
0.0
 11
-94.319469293459647
 21
-4.2468827846623203
 31
0.0
  0
LINE
  5
1FDC
  8
247
 10
-94.297629657166638
 20
-4.4836745246560996
 30
0.0
 11
-94.070040970341793
 21
-4.2560858378312671
 31
0.0
  0
LINE
  5
1FDD
  8
247
 10
-94.044214275563519
 20
-4.4888905193397601
 30
0.0
 11
-93.811409594055021
 21
-4.2560858378312671
 31
0.0
  0
LINE
  5
1FDE
  8
247
 10
-93.785582899276719
 20
-4.4888905193397601
 30
0.0
 11
-93.552778217768235
 21
-4.2560858378312671
 31
0.0
  0
LINE
  5
1FDF
  8
247
 10
-93.526951522989947
 20
-4.4888905193397601
 30
0.0
 11
-93.294146841481464
 21
-4.2560858378312671
 31
0.0
  0
LINE
  5
1FE0
  8
247
 10
-93.268320146703147
 20
-4.4888905193397672
 30
0.0
 11
-93.035515465194635
 21
-4.2560858378312751
 31
0.0
  0
LINE
  5
1FE1
  8
247
 10
-93.009688770416346
 20
-4.4888905193397672
 30
0.0
 11
-92.776884088907849
 21
-4.2560858378312671
 31
0.0
  0
LINE
  5
1FE2
  8
247
 10
-92.751057394129546
 20
-4.4888905193397601
 30
0.0
 11
-92.518252712621063
 21
-4.2560858378312671
 31
0.0
  0
LINE
  5
1FE3
  8
247
 10
-92.49242601784276
 20
-4.4888905193397601
 30
0.0
 11
-92.259621336334277
 21
-4.2560858378312671
 31
0.0
  0
LINE
  5
1FE4
  8
247
 10
-92.233794641555974
 20
-4.4888905193397601
 30
0.0
 11
-92.000989960047491
 21
-4.2560858378312671
 31
0.0
  0
LINE
  5
1FE5
  8
247
 10
-91.975163265269188
 20
-4.4888905193397601
 30
0.0
 11
-91.742358583760705
 21
-4.2560858378312671
 31
0.0
  0
LINE
  5
1FE6
  8
247
 10
-89.72273002632771
 20
-2.2364572803982812
 30
0.0
 11
-89.532976339715887
 21
-2.046703593786467
 31
0.0
  0
LINE
  5
1FE7
  8
247
 10
-91.716531888982374
 20
-4.4888905193397672
 30
0.0
 11
-91.483727207473891
 21
-4.2560858378312671
 31
0.0
  0
LINE
  5
1FE8
  8
247
 10
-89.506026133198247
 20
-2.2783847635556191
 30
0.0
 11
-89.284597183685904
 21
-2.056955814043274
 31
0.0
  0
LINE
  5
1FE9
  8
247
 10
-91.457900512695588
 20
-4.4888905193397601
 30
0.0
 11
-91.225095831187105
 21
-4.2560858378312671
 31
0.0
  0
LINE
  5
1FEA
  8
247
 10
-89.265387899210964
 20
-2.2963779058551341
 30
0.0
 11
-89.075252549331637
 21
-2.1062425559758009
 31
0.0
  0
LINE
  5
1FEB
  8
247
 10
-91.199269136408816
 20
-4.4888905193397601
 30
0.0
 11
-90.966464454900319
 21
-4.2560858378312671
 31
0.0
  0
LINE
  5
1FEC
  8
247
 10
-89.068103981534236
 20
-2.3577253644651779
 30
0.0
 11
-88.893496433968664
 21
-2.183117816899613
 31
0.0
  0
LINE
  5
1FED
  8
247
 10
-90.940637760122044
 20
-4.4888905193397672
 30
0.0
 11
-90.707833078613518
 21
-4.25608583783126
 31
0.0
  0
LINE
  5
1FEE
  8
247
 10
-88.901193113371036
 20
-2.4494458725887731
 30
0.0
 11
-88.734234006815683
 21
-2.2824867660334212
 31
0.0
  0
LINE
  5
1FEF
  8
247
 10
-90.682006383835216
 20
-4.4888905193397672
 30
0.0
 11
-90.449201702326732
 21
-4.256085837831276
 31
0.0
  0
LINE
  5
1FF0
  8
247
 10
-88.759741603063404
 20
-2.5666257385679332
 30
0.0
 11
-88.595123804728033
 21
-2.402007940232576
 31
0.0
  0
LINE
  5
1FF1
  8
247
 10
-90.423375007548429
 20
-4.4888905193397681
 30
0.0
 11
-90.190570326039946
 21
-4.256085837831268
 31
0.0
  0
LINE
  5
1FF2
  8
247
 10
-88.642400177242735
 20
-2.7079156890340581
 30
0.0
 11
-88.475472634293283
 21
-2.5409881460846071
 31
0.0
  0
LINE
  5
1FF3
  8
247
 10
-90.164743631261643
 20
-4.488890519339761
 30
0.0
 11
-89.931938949753146
 21
-4.256085837831268
 31
0.0
  0
LINE
  5
1FF4
  8
247
 10
-88.550499466926794
 20
-2.8746463550049022
 30
0.0
 11
-88.375964269185346
 21
-2.700111157263462
 31
0.0
  0
LINE
  5
1FF5
  8
247
 10
-89.906112254974843
 20
-4.488890519339761
 30
0.0
 11
-89.673307573466346
 21
-4.256085837831268
 31
0.0
  0
LINE
  5
1FF6
  8
247
 10
-88.488921381579459
 20
-3.0716996459443742
 30
0.0
 11
-88.298926903250759
 21
-2.8817051676156682
 31
0.0
  0
LINE
  5
1FF7
  8
247
 10
-89.647480878688071
 20
-4.4888905193397681
 30
0.0
 11
-89.41363869175342
 21
-4.2550483324051154
 31
0.0
  0
LINE
  5
1FF8
  8
247
 10
-88.470557388337497
 20
-3.311967028989184
 30
0.0
 11
-88.249429903736598
 21
-3.090839544388285
 31
0.0
  0
LINE
  5
1FF9
  8
247
 10
-89.386713798167435
 20
-4.4867548151059289
 30
0.0
 11
-89.081033622482167
 21
-4.181074639420661
 31
0.0
  0
LINE
  5
1FFA
  8
247
 10
-88.544531081321935
 20
-3.6445720982604461
 30
0.0
 11
-88.238850905636696
 21
-3.3388919225751819
 31
0.0
  0
LINE
  5
1FFB
  8
247
 10
-89.064990409503196
 20
-4.4236628027284768
 30
0.0
 11
-88.301942918014134
 21
-3.660615311239416
 31
0.0
  0
LINE
  5
1FFC
  8
247
 10
-91.882470357898725
 20
-2.0685152253881869
 30
0.0
 11
-91.858413742558611
 21
-2.0444586100480642
 31
0.0
  0
LINE
  5
1FFD
  8
247
 10
-91.867600414426192
 20
-2.3122766582024399
 30
0.0
 11
-91.599782366271825
 21
-2.0444586100480722
 31
0.0
  0
LINE
  5
1FFE
  8
247
 10
-91.97157730719114
 20
-2.6748849272541722
 30
0.0
 11
-91.341150989985039
 21
-2.0444586100480642
 31
0.0
  0
LINE
  5
1FFF
  8
247
 10
-92.075554199956073
 20
-3.0374931963058982
 30
0.0
 11
-91.345526812012835
 21
-2.3074658083626818
 31
0.0
  0
LINE
  5
2000
  8
247
 10
-92.179531092721007
 20
-3.4001014653576331
 30
0.0
 11
-91.449502285830306
 21
-2.6700726584669332
 31
0.0
  0
LINE
  5
2001
  8
247
 10
-92.283507985485954
 20
-3.7627097344093499
 30
0.0
 11
-91.553477759647748
 21
-3.0326795085711749
 31
0.0
  0
LINE
  5
2002
  8
247
 10
-92.387484878250859
 20
-4.1253180034610732
 30
0.0
 11
-91.657453233465219
 21
-3.3952863586754192
 31
0.0
  0
LINE
  5
2003
  8
247
 10
-92.143218992584238
 20
-4.139683494081237
 30
0.0
 11
-91.761428707282676
 21
-3.7578932087796648
 31
0.0
  0
LINE
  5
2004
  8
247
 10
-91.884587616297438
 20
-4.139683494081237
 30
0.0
 11
-91.865404181100104
 21
-4.1205000588839003
 31
0.0
  0
LINE
  5
2005
  8
247
 10
-91.294488120314554
 20
-2.7736898692379581
 30
0.0
 11
-90.568968387514687
 21
-2.048170136438086
 31
0.0
  0
LINE
  5
2006
  8
247
 10
-91.380351880725811
 20
-3.1181850059360179
 30
0.0
 11
-90.325622360262741
 21
-2.0634554854729532
 31
0.0
  0
LINE
  5
2007
  8
247
 10
-91.416998607522203
 20
-3.413463109019196
 30
0.0
 11
-90.65789982458486
 21
-2.654364326081851
 31
0.0
  0
LINE
  5
2008
  8
247
 10
-90.311694016035887
 20
-2.3081585175328918
 30
0.0
 11
-90.137371452553211
 21
-2.133835954050201
 31
0.0
  0
LINE
  5
2009
  8
247
 10
-91.375854217125863
 20
-3.6309500949096392
 30
0.0
 11
-90.761876657409744
 21
-3.016972535193529
 31
0.0
  0
LINE
  5
200A
  8
247
 10
-90.163191387083444
 20
-2.4182872648672502
 30
0.0
 11
-89.877526251020754
 21
-2.132622128804547
 31
0.0
  0
LINE
  5
200B
  8
247
 10
-91.289938535762587
 20
-3.8036657898331572
 30
0.0
 11
-90.865853490234628
 21
-3.3795807443052128
 31
0.0
  0
LINE
  5
200C
  8
247
 10
-89.839761409083621
 20
-2.353488663154192
 30
0.0
 11
-89.815522810236985
 21
-2.3292500643075562
 31
0.0
  0
LINE
  5
200D
  8
247
 10
-91.170272842066126
 20
-3.9426314724234901
 30
0.0
 11
-90.923715349842084
 21
-3.6960739801994702
 31
0.0
  0
LINE
  5
200E
  8
247
 10
-90.41283240156568
 20
-3.1851910319230581
 30
0.0
 11
-90.180027714065687
 21
-2.9523863444230578
 31
0.0
  0
LINE
  5
200F
  8
247
 10
-91.018768176683125
 20
-4.0497581833272873
 30
0.0
 11
-90.815488810380984
 21
-3.8464788170251341
 31
0.0
  0
LINE
  5
2010
  8
247
 10
-90.360747940681222
 20
-3.3917379473253848
 30
0.0
 11
-89.921396337778901
 21
-2.9523863444230658
 31
0.0
  0
LINE
  5
2011
  8
247
 10
-90.830775412411484
 20
-4.1203967953424341
 30
0.0
 11
-90.557458898238366
 21
-3.8470802811693372
 31
0.0
  0
LINE
  5
2012
  8
247
 10
-90.478064502073266
 20
-3.7676858850042101
 30
0.0
 11
-89.785623385862323
 21
-3.0752447687932651
 31
0.0
  0
LINE
  5
2013
  8
247
 10
-90.587900346590345
 20
-4.1361531058080816
 30
0.0
 11
-89.889599865256415
 21
-3.4378526244741661
 31
0.0
  0
LINE
  5
2014
  8
247
 10
-90.21182722532572
 20
-4.018711360830256
 30
0.0
 11
-89.993576344650535
 21
-3.8004604801550701
 31
0.0
  0
LINE
  5
2015
  8
247
 10
-91.270110977882027
 20
-2.0444586100480659
 30
0.0
 11
-91.875571915382025
 21
-2.0444586100480659
 31
0.0
1001
HATCH_DISTANCE
1040
1.0
1001
HATCH_DISPLAY
1070
     0
1001
HATCH_TYPE
1070
     7
  0
LINE
  5
2016
  8
247
 10
-91.870904923194544
 20
-4.1396834940812379
 30
0.0
 11
-91.270110977882027
 21
-2.0444586100480659
 31
0.0
1001
HATCH_DISTANCE
1040
1.0
1001
HATCH_DISPLAY
1070
     0
1001
HATCH_TYPE
1070
     7
  0
LINE
  5
2017
  8
247
 10
-92.391604141944555
 20
-4.1396834940812379
 30
0.0
 11
-91.870904923194544
 21
-4.1396834940812379
 31
0.0
1001
HATCH_DISTANCE
1040
1.0
1001
HATCH_DISPLAY
1070
     0
1001
HATCH_TYPE
1070
     7
  0
LINE
  5
2018
  8
247
 10
-91.864234024757025
 20
-2.300536735048055
 30
0.0
 11
-92.391604141944555
 21
-4.1396834940812379
 31
0.0
1001
HATCH_DISTANCE
1040
1.0
1001
HATCH_DISPLAY
1070
     0
1001
HATCH_TYPE
1070
     7
  0
LINE
  5
2019
  8
247
 10
-91.949004532569518
 20
-2.300536735048055
 30
0.0
 11
-91.864234024757025
 21
-2.300536735048055
 31
0.0
1001
HATCH_DISTANCE
1040
1.0
1001
HATCH_DISPLAY
1070
     0
1001
HATCH_TYPE
1070
     7
  0
LINE
  5
201A
  8
247
 10
-91.875571915382025
 20
-2.0444586100480659
 30
0.0
 11
-91.949004532569518
 21
-2.300536735048055
 31
0.0
1001
HATCH_DISTANCE
1040
1.0
1001
HATCH_DISPLAY
1070
     0
1001
HATCH_TYPE
1070
     7
  0
LINE
  5
201B
  8
247
 10
-91.270110977882027
 20
-2.0444586100480659
 30
0.0
 11
-91.875571915382025
 21
-2.0444586100480659
 31
0.0
  0
LINE
  5
201C
  8
247
 10
-91.870904923194544
 20
-4.1396834940812379
 30
0.0
 11
-91.270110977882027
 21
-2.0444586100480659
 31
0.0
  0
LINE
  5
201D
  8
247
 10
-92.391604141944555
 20
-4.1396834940812379
 30
0.0
 11
-91.870904923194544
 21
-4.1396834940812379
 31
0.0
  0
LINE
  5
201E
  8
247
 10
-91.864234024757025
 20
-2.300536735048055
 30
0.0
 11
-92.391604141944555
 21
-4.1396834940812379
 31
0.0
  0
LINE
  5
201F
  8
247
 10
-91.949004532569518
 20
-2.300536735048055
 30
0.0
 11
-91.864234024757025
 21
-2.300536735048055
 31
0.0
  0
LINE
  5
2020
  8
247
 10
-91.875571915382025
 20
-2.0444586100480659
 30
0.0
 11
-91.949004532569518
 21
-2.300536735048055
 31
0.0
  0
LINE
  5
2021
  8
247
 10
-89.700428360694517
 20
-2.3071812662980591
 30
0.0
 11
-89.700428360694517
 21
-2.3071812662980591
 31
0.0
1001
HATCH_DISTANCE
1040
1.0
1001
HATCH_DISPLAY
1070
     0
1001
HATCH_TYPE
1070
     7
  0
LINE
  5
2022
  8
247
 10
-89.770538712257036
 20
-2.0848443522355762
 30
0.0
 11
-89.700428360694517
 21
-2.3071812662980591
 31
0.0
1001
HATCH_DISTANCE
1040
1.0
1001
HATCH_DISPLAY
1070
     0
1001
HATCH_TYPE
1070
     7
  0
LINE
  5
2023
  8
247
 10
-89.770538712257036
 20
-2.0848443522355762
 30
0.0
 11
-89.770538712257036
 21
-2.0848443522355762
 31
0.0
1001
HATCH_DISTANCE
1040
1.0
1001
HATCH_DISPLAY
1070
     0
1001
HATCH_TYPE
1070
     7
  0
LINE
  5
2024
  8
247
 10
-89.700428360694517
 20
-2.3071812662980591
 30
0.0
 11
-89.770538712257036
 21
-2.0848443522355762
 31
0.0
1001
HATCH_DISTANCE
1040
1.0
1001
HATCH_DISPLAY
1070
     0
1001
HATCH_TYPE
1070
     7
  0
LINE
  5
2025
  8
247
 10
-89.700428360694517
 20
-2.3071812662980591
 30
0.0
 11
-89.700428360694517
 21
-2.3071812662980591
 31
0.0
  0
LINE
  5
2026
  8
247
 10
-89.770538712257036
 20
-2.0848443522355762
 30
0.0
 11
-89.700428360694517
 21
-2.3071812662980591
 31
0.0
  0
LINE
  5
2027
  8
247
 10
-89.770538712257036
 20
-2.0848443522355762
 30
0.0
 11
-89.770538712257036
 21
-2.0848443522355762
 31
0.0
  0
LINE
  5
2028
  8
247
 10
-89.700428360694517
 20
-2.3071812662980591
 30
0.0
 11
-89.770538712257036
 21
-2.0848443522355762
 31
0.0
  0
LINE
  5
2029
  8
247
 10
-89.700428360694517
 20
-2.3071812662980591
 30
0.0
 11
-89.700428360694517
 21
-2.3071812662980591
 31
0.0
1001
HATCH_DISTANCE
1040
1.0
1001
HATCH_DISPLAY
1070
     0
1001
HATCH_TYPE
1070
     7
  0
LINE
  5
202A
  8
247
 10
-89.770538712257036
 20
-2.0848443522355762
 30
0.0
 11
-89.700428360694517
 21
-2.3071812662980591
 31
0.0
1001
HATCH_DISTANCE
1040
1.0
1001
HATCH_DISPLAY
1070
     0
1001
HATCH_TYPE
1070
     7
  0
LINE
  5
202B
  8
247
 10
-89.770538712257036
 20
-2.0848443522355762
 30
0.0
 11
-89.770538712257036
 21
-2.0848443522355762
 31
0.0
1001
HATCH_DISTANCE
1040
1.0
1001
HATCH_DISPLAY
1070
     0
1001
HATCH_TYPE
1070
     7
  0
LINE
  5
202C
  8
247
 10
-89.700428360694517
 20
-2.3071812662980591
 30
0.0
 11
-89.770538712257036
 21
-2.0848443522355762
 31
0.0
1001
HATCH_DISTANCE
1040
1.0
1001
HATCH_DISPLAY
1070
     0
1001
HATCH_TYPE
1070
     7
  0
LINE
  5
202D
  8
247
 10
-89.700428360694517
 20
-2.3071812662980591
 30
0.0
 11
-89.700428360694517
 21
-2.3071812662980591
 31
0.0
  0
LINE
  5
202E
  8
247
 10
-89.770538712257036
 20
-2.0848443522355762
 30
0.0
 11
-89.700428360694517
 21
-2.3071812662980591
 31
0.0
  0
LINE
  5
202F
  8
247
 10
-89.770538712257036
 20
-2.0848443522355762
 30
0.0
 11
-89.770538712257036
 21
-2.0848443522355762
 31
0.0
  0
LINE
  5
2030
  8
247
 10
-89.700428360694517
 20
-2.3071812662980591
 30
0.0
 11
-89.770538712257036
 21
-2.0848443522355762
 31
0.0
  0
LINE
  5
2031
  8
241
 10
-26.453135819136179
 20
4.269461121313042
 30
0.0
 11
-26.453135819136179
 21
0.5815950274877244
 31
0.0
  0
ARC
  5
2032
  8
240
 10
-97.453135819136264
 20
5.0000002846863927
 30
0.0
 40
1.0
 50
90.0
 51
180.0
  0
ARC
  5
2033
  8
240
 10
-97.453135819136264
 20
-4.9999997153136064
 30
0.0
 40
1.0
 50
180.0
 51
270.0
  0
LINE
  5
2034
  8
240
 10
-98.453135819136293
 20
-4.9999997153136064
 30
0.0
 11
-98.453135819136293
 21
4.9999997153136064
 31
0.0
  0
POLYLINE
  8
241
  5
218E
  66
     1
 10
0.000000
 20
0.000000
 30
0.000000
  70
     8
  0
VERTEX
  8
241
  5
218F
 10
-25.2105
 20
0.825000
 30
0.000000
  70
    32
  0
VERTEX
  8
241
  5
2190
 10
-25.2115
 20
0.825001
 30
0.000000
  70
    32
  0
VERTEX
  8
241
  5
2191
 10
-25.2124
 20
0.825002
 30
0.000000
  70
    32
  0
VERTEX
  8
241
  5
2192
 10
-25.2134
 20
0.825004
 30
0.000000
  70
    32
  0
VERTEX
  8
241
  5
2193
 10
-25.2143
 20
0.825006
 30
0.000000
  70
    32
  0
VERTEX
  8
241
  5
2194
 10
-25.2153
 20
0.825010
 30
0.000000
  70
    32
  0
VERTEX
  8
241
  5
2195
 10
-25.2162
 20
0.825014
 30
0.000000
  70
    32
  0
VERTEX
  8
241
  5
2196
 10
-25.2172
 20
0.825018
 30
0.000000
  70
    32
  0
VERTEX
  8
241
  5
2197
 10
-25.2181
 20
0.825024
 30
0.000000
  70
    32
  0
VERTEX
  8
241
  5
2198
 10
-25.2191
 20
0.825030
 30
0.000000
  70
    32
  0
VERTEX
  8
241
  5
2199
 10
-25.2201
 20
0.825037
 30
0.000000
  70
    32
  0
VERTEX
  8
241
  5
219A
 10
-25.2210
 20
0.825045
 30
0.000000
  70
    32
  0
VERTEX
  8
241
  5
219B
 10
-25.2220
 20
0.825054
 30
0.000000
  70
    32
  0
VERTEX
  8
241
  5
219C
 10
-25.2229
 20
0.825063
 30
0.000000
  70
    32
  0
VERTEX
  8
241
  5
219D
 10
-25.2239
 20
0.825073
 30
0.000000
  70
    32
  0
VERTEX
  8
241
  5
219E
 10
-25.2248
 20
0.825084
 30
0.000000
  70
    32
  0
VERTEX
  8
241
  5
219F
 10
-25.2258
 20
0.825095
 30
0.000000
  70
    32
  0
VERTEX
  8
241
  5
21A0
 10
-25.2268
 20
0.825107
 30
0.000000
  70
    32
  0
VERTEX
  8
241
  5
21A1
 10
-25.2277
 20
0.825120
 30
0.000000
  70
    32
  0
VERTEX
  8
241
  5
21A2
 10
-25.2287
 20
0.825134
 30
0.000000
  70
    32
  0
VERTEX
  8
241
  5
21A3
 10
-25.2296
 20
0.825149
 30
0.000000
  70
    32
  0
VERTEX
  8
241
  5
21A4
 10
-25.2306
 20
0.825164
 30
0.000000
  70
    32
  0
VERTEX
  8
241
  5
21A5
 10
-25.2315
 20
0.825180
 30
0.000000
  70
    32
  0
VERTEX
  8
241
  5
21A6
 10
-25.2325
 20
0.825196
 30
0.000000
  70
    32
  0
VERTEX
  8
241
  5
21A7
 10
-25.2335
 20
0.825214
 30
0.000000
  70
    32
  0
VERTEX
  8
241
  5
21A8
 10
-25.2344
 20
0.825232
 30
0.000000
  70
    32
  0
VERTEX
  8
241
  5
21A9
 10
-25.2354
 20
0.825251
 30
0.000000
  70
    32
  0
VERTEX
  8
241
  5
21AA
 10
-25.2363
 20
0.825271
 30
0.000000
  70
    32
  0
VERTEX
  8
241
  5
21AB
 10
-25.2373
 20
0.825291
 30
0.000000
  70
    32
  0
VERTEX
  8
241
  5
21AC
 10
-25.2382
 20
0.825312
 30
0.000000
  70
    32
  0
VERTEX
  8
241
  5
21AD
 10
-25.2392
 20
0.825334
 30
0.000000
  70
    32
  0
VERTEX
  8
241
  5
21AE
 10
-25.2402
 20
0.825356
 30
0.000000
  70
    32
  0
VERTEX
  8
241
  5
21AF
 10
-25.2411
 20
0.825380
 30
0.000000
  70
    32
  0
VERTEX
  8
241
  5
21B0
 10
-25.2421
 20
0.825404
 30
0.000000
  70
    32
  0
VERTEX
  8
241
  5
21B1
 10
-25.2430
 20
0.825429
 30
0.000000
  70
    32
  0
VERTEX
  8
241
  5
21B2
 10
-25.2440
 20
0.825454
 30
0.000000
  70
    32
  0
VERTEX
  8
241
  5
21B3
 10
-25.2449
 20
0.825481
 30
0.000000
  70
    32
  0
VERTEX
  8
241
  5
21B4
 10
-25.2459
 20
0.825508
 30
0.000000
  70
    32
  0
VERTEX
  8
241
  5
21B5
 10
-25.2468
 20
0.825535
 30
0.000000
  70
    32
  0
VERTEX
  8
241
  5
21B6
 10
-25.2478
 20
0.825564
 30
0.000000
  70
    32
  0
VERTEX
  8
241
  5
21B7
 10
-25.2488
 20
0.825593
 30
0.000000
  70
    32
  0
VERTEX
  8
241
  5
21B8
 10
-25.2497
 20
0.825623
 30
0.000000
  70
    32
  0
VERTEX
  8
241
  5
21B9
 10
-25.2507
 20
0.825654
 30
0.000000
  70
    32
  0
VERTEX
  8
241
  5
21BA
 10
-25.2516
 20
0.825685
 30
0.000000
  70
    32
  0
VERTEX
  8
241
  5
21BB
 10
-25.2526
 20
0.825717
 30
0.000000
  70
    32
  0
VERTEX
  8
241
  5
21BC
 10
-25.2535
 20
0.825750
 30
0.000000
  70
    32
  0
VERTEX
  8
241
  5
21BD
 10
-25.2545
 20
0.825784
 30
0.000000
  70
    32
  0
VERTEX
  8
241
  5
21BE
 10
-25.2555
 20
0.825818
 30
0.000000
  70
    32
  0
VERTEX
  8
241
  5
21BF
 10
-25.2564
 20
0.825854
 30
0.000000
  70
    32
  0
VERTEX
  8
241
  5
21C0
 10
-25.2574
 20
0.825889
 30
0.000000
  70
    32
  0
VERTEX
  8
241
  5
21C1
 10
-25.2583
 20
0.825926
 30
0.000000
  70
    32
  0
VERTEX
  8
241
  5
21C2
 10
-25.2593
 20
0.825963
 30
0.000000
  70
    32
  0
VERTEX
  8
241
  5
21C3
 10
-25.2602
 20
0.826002
 30
0.000000
  70
    32
  0
VERTEX
  8
241
  5
21C4
 10
-25.2612
 20
0.826040
 30
0.000000
  70
    32
  0
VERTEX
  8
241
  5
21C5
 10
-25.2621
 20
0.826080
 30
0.000000
  70
    32
  0
VERTEX
  8
241
  5
21C6
 10
-25.2631
 20
0.826120
 30
0.000000
  70
    32
  0
VERTEX
  8
241
  5
21C7
 10
-25.2641
 20
0.826161
 30
0.000000
  70
    32
  0
VERTEX
  8
241
  5
21C8
 10
-25.2650
 20
0.826203
 30
0.000000
  70
    32
  0
VERTEX
  8
241
  5
21C9
 10
-25.2660
 20
0.826246
 30
0.000000
  70
    32
  0
VERTEX
  8
241
  5
21CA
 10
-25.2669
 20
0.826289
 30
0.000000
  70
    32
  0
VERTEX
  8
241
  5
21CB
 10
-25.2679
 20
0.826333
 30
0.000000
  70
    32
  0
VERTEX
  8
241
  5
21CC
 10
-25.2688
 20
0.826378
 30
0.000000
  70
    32
  0
VERTEX
  8
241
  5
21CD
 10
-25.2698
 20
0.826423
 30
0.000000
  70
    32
  0
VERTEX
  8
241
  5
21CE
 10
-25.2708
 20
0.826469
 30
0.000000
  70
    32
  0
VERTEX
  8
241
  5
21CF
 10
-25.2717
 20
0.826516
 30
0.000000
  70
    32
  0
VERTEX
  8
241
  5
21D0
 10
-25.2727
 20
0.826564
 30
0.000000
  70
    32
  0
VERTEX
  8
241
  5
21D1
 10
-25.2736
 20
0.826612
 30
0.000000
  70
    32
  0
VERTEX
  8
241
  5
21D2
 10
-25.2746
 20
0.826661
 30
0.000000
  70
    32
  0
VERTEX
  8
241
  5
21D3
 10
-25.2755
 20
0.826711
 30
0.000000
  70
    32
  0
VERTEX
  8
241
  5
21D4
 10
-25.2765
 20
0.826762
 30
0.000000
  70
    32
  0
VERTEX
  8
241
  5
21D5
 10
-25.2774
 20
0.826813
 30
0.000000
  70
    32
  0
VERTEX
  8
241
  5
21D6
 10
-25.2784
 20
0.826865
 30
0.000000
  70
    32
  0
VERTEX
  8
241
  5
21D7
 10
-25.2794
 20
0.826918
 30
0.000000
  70
    32
  0
VERTEX
  8
241
  5
21D8
 10
-25.2803
 20
0.826972
 30
0.000000
  70
    32
  0
VERTEX
  8
241
  5
21D9
 10
-25.2813
 20
0.827026
 30
0.000000
  70
    32
  0
VERTEX
  8
241
  5
21DA
 10
-25.2822
 20
0.827081
 30
0.000000
  70
    32
  0
VERTEX
  8
241
  5
21DB
 10
-25.2832
 20
0.827137
 30
0.000000
  70
    32
  0
VERTEX
  8
241
  5
21DC
 10
-25.2841
 20
0.827193
 30
0.000000
  70
    32
  0
VERTEX
  8
241
  5
21DD
 10
-25.2851
 20
0.827250
 30
0.000000
  70
    32
  0
VERTEX
  8
241
  5
21DE
 10
-25.2860
 20
0.827308
 30
0.000000
  70
    32
  0
VERTEX
  8
241
  5
21DF
 10
-25.2870
 20
0.827367
 30
0.000000
  70
    32
  0
VERTEX
  8
241
  5
21E0
 10
-25.2880
 20
0.827426
 30
0.000000
  70
    32
  0
VERTEX
  8
241
  5
21E1
 10
-25.2889
 20
0.827487
 30
0.000000
  70
    32
  0
VERTEX
  8
241
  5
21E2
 10
-25.2899
 20
0.827547
 30
0.000000
  70
    32
  0
VERTEX
  8
241
  5
21E3
 10
-25.2908
 20
0.827609
 30
0.000000
  70
    32
  0
VERTEX
  8
241
  5
21E4
 10
-25.2918
 20
0.827671
 30
0.000000
  70
    32
  0
VERTEX
  8
241
  5
21E5
 10
-25.2927
 20
0.827735
 30
0.000000
  70
    32
  0
VERTEX
  8
241
  5
21E6
 10
-25.2937
 20
0.827798
 30
0.000000
  70
    32
  0
VERTEX
  8
241
  5
21E7
 10
-25.2946
 20
0.827863
 30
0.000000
  70
    32
  0
VERTEX
  8
241
  5
21E8
 10
-25.2956
 20
0.827928
 30
0.000000
  70
    32
  0
VERTEX
  8
241
  5
21E9
 10
-25.2965
 20
0.827994
 30
0.000000
  70
    32
  0
VERTEX
  8
241
  5
21EA
 10
-25.2975
 20
0.828061
 30
0.000000
  70
    32
  0
VERTEX
  8
241
  5
21EB
 10
-25.2985
 20
0.828128
 30
0.000000
  70
    32
  0
VERTEX
  8
241
  5
21EC
 10
-25.2994
 20
0.828197
 30
0.000000
  70
    32
  0
VERTEX
  8
241
  5
21ED
 10
-25.3004
 20
0.828266
 30
0.000000
  70
    32
  0
VERTEX
  8
241
  5
21EE
 10
-25.3013
 20
0.828335
 30
0.000000
  70
    32
  0
VERTEX
  8
241
  5
21EF
 10
-25.3023
 20
0.828406
 30
0.000000
  70
    32
  0
VERTEX
  8
241
  5
21F0
 10
-25.3032
 20
0.828477
 30
0.000000
  70
    32
  0
VERTEX
  8
241
  5
21F1
 10
-25.3042
 20
0.828549
 30
0.000000
  70
    32
  0
VERTEX
  8
241
  5
21F2
 10
-25.3051
 20
0.828621
 30
0.000000
  70
    32
  0
VERTEX
  8
241
  5
21F3
 10
-25.3061
 20
0.828695
 30
0.000000
  70
    32
  0
VERTEX
  8
241
  5
21F4
 10
-25.3070
 20
0.828769
 30
0.000000
  70
    32
  0
VERTEX
  8
241
  5
21F5
 10
-25.3080
 20
0.828844
 30
0.000000
  70
    32
  0
VERTEX
  8
241
  5
21F6
 10
-25.3089
 20
0.828919
 30
0.000000
  70
    32
  0
VERTEX
  8
241
  5
21F7
 10
-25.3099
 20
0.828995
 30
0.000000
  70
    32
  0
VERTEX
  8
241
  5
21F8
 10
-25.3109
 20
0.829072
 30
0.000000
  70
    32
  0
VERTEX
  8
241
  5
21F9
 10
-25.3118
 20
0.829150
 30
0.000000
  70
    32
  0
VERTEX
  8
241
  5
21FA
 10
-25.3128
 20
0.829229
 30
0.000000
  70
    32
  0
VERTEX
  8
241
  5
21FB
 10
-25.3137
 20
0.829308
 30
0.000000
  70
    32
  0
VERTEX
  8
241
  5
21FC
 10
-25.3147
 20
0.829388
 30
0.000000
  70
    32
  0
VERTEX
  8
241
  5
21FD
 10
-25.3156
 20
0.829468
 30
0.000000
  70
    32
  0
VERTEX
  8
241
  5
21FE
 10
-25.3166
 20
0.829550
 30
0.000000
  70
    32
  0
VERTEX
  8
241
  5
21FF
 10
-25.3175
 20
0.829632
 30
0.000000
  70
    32
  0
VERTEX
  8
241
  5
2200
 10
-25.3185
 20
0.829715
 30
0.000000
  70
    32
  0
VERTEX
  8
241
  5
2201
 10
-25.3194
 20
0.829798
 30
0.000000
  70
    32
  0
VERTEX
  8
241
  5
2202
 10
-25.3204
 20
0.829883
 30
0.000000
  70
    32
  0
VERTEX
  8
241
  5
2203
 10
-25.3213
 20
0.829968
 30
0.000000
  70
    32
  0
VERTEX
  8
241
  5
2204
 10
-25.3223
 20
0.830054
 30
0.000000
  70
    32
  0
VERTEX
  8
241
  5
2205
 10
-25.3232
 20
0.830140
 30
0.000000
  70
    32
  0
VERTEX
  8
241
  5
2206
 10
-25.3242
 20
0.830227
 30
0.000000
  70
    32
  0
VERTEX
  8
241
  5
2207
 10
-25.3252
 20
0.830315
 30
0.000000
  70
    32
  0
VERTEX
  8
241
  5
2208
 10
-25.3261
 20
0.830404
 30
0.000000
  70
    32
  0
VERTEX
  8
241
  5
2209
 10
-25.3271
 20
0.830493
 30
0.000000
  70
    32
  0
VERTEX
  8
241
  5
220A
 10
-25.3280
 20
0.830584
 30
0.000000
  70
    32
  0
VERTEX
  8
241
  5
220B
 10
-25.3290
 20
0.830674
 30
0.000000
  70
    32
  0
VERTEX
  8
241
  5
220C
 10
-25.3299
 20
0.830766
 30
0.000000
  70
    32
  0
VERTEX
  8
241
  5
220D
 10
-25.3309
 20
0.830858
 30
0.000000
  70
    32
  0
VERTEX
  8
241
  5
220E
 10
-25.3318
 20
0.830951
 30
0.000000
  70
    32
  0
SEQEND
  8
241
  5
220F
  0
ARC
  5
2036
  8
240
 10
-25.210495132016948
 20
7.0000002846863918
 30
0.0
 40
3.0
 50
225.0
 51
270.0
  0
LINE
  5
2037
  8
240
 10
-27.331815475576612
 20
4.8786799411267889
 30
0.0
 11
-28.453135819136239
 21
6.0000002846863918
 31
0.0
  0
ARC
  5
2038
  8
240
 10
-25.331815475576601
 20
-4.3499997153135999
 30
0.0
 40
2.0
 50
90.0
 51
180.0
  0
LINE
  5
2039
  8
240
 10
-27.331815475576612
 20
-4.8786793717539458
 30
0.0
 11
-27.331815475576612
 21
-4.3499997153135999
 31
0.0
  0
LINE
  5
203A
  8
240
 10
-28.453135819136239
 20
-5.9999997153136064
 30
0.0
 11
-27.331815475576612
 21
-4.8786793717539458
 31
0.0
  0
LINE
  5
203B
  8
241
 10
-28.453135819136239
 20
-5.9999997153136064
 30
0.0
 11
-28.453135819136239
 21
6.0000002846863918
 31
0.0
  0
LINE
  5
203C
  8
240
 10
-97.453135819136264
 20
-5.9999997153136064
 30
0.0
 11
-28.453135819136239
 21
-5.9999997153136064
 31
0.0
  0
LINE
  5
203D
  8
240
 10
-28.453135819136239
 20
6.0000002846863918
 30
0.0
 11
-97.453135819136264
 21
6.0000002846863918
 31
0.0
  0
LINE
  5
203E
  8
241
 10
-3.311714464788138
 20
-1.2724723039008541
 30
0.0
 11
-0.2531358191361903
 21
1.7861063398618731
 31
0.0
  0
LINE
  5
203F
  8
240
 10
-0.0590232694407575
 20
2.2630616001566879
 30
0.0
 11
-3.3117144628989461
 21
5.5157527954899859
 31
0.0
  0
ARC
  5
2040
  8
240
 10
-0.6531358191362529
 20
-2.1314279031488739
 30
0.0
 40
0.400000000000018
 50
327.70381293418342
 51
0.0
  0
LINE
  5
2041
  8
240
 10
-0.2531358191361903
 20
1.7861063398618591
 30
0.0
 11
-0.2531358191361903
 21
-2.1314279031488739
 31
0.0
  0
LINE
  5
2042
  8
240
 10
-3.5945571753735792
 20
5.5157527954899717
 30
0.0
 11
-5.1103096861771462
 21
4.0000002846863927
 31
0.0
  0
LINE
  5
2043
  8
241
 10
-6.847248368872866
 20
1.980218889639259
 30
0.0
 11
-3.5945571772627711
 21
-1.272472303900869
 31
0.0
  0
LINE
  5
2044
  8
240
 10
-25.331815475576601
 20
-2.349999715313571
 30
0.0
 11
-0.3238150490088856
 21
-2.349999715313571
 31
0.0
  0
LINE
  5
2045
  8
240
 10
-5.1103096861771728
 20
4.0000002846863927
 30
0.0
 11
-25.210495132016948
 21
4.0000002846863927
 31
0.0
  0
LINE
  5
2046
  8
241
 10
-25.210495132016948
 20
0.8250002846863822
 30
0.0
 11
-5.6920297639607886
 21
0.825000284686439
 31
0.0
  0
LINE
  5
2047
  8
245
 10
4.0261902054426733
 20
1.6500000000001189
 30
0.0
 11
-29.69098608121698
 21
1.64999999999989
 31
0.0
  0
LINE
  5
2048
  8
245
 10
-102.8773311476733
 20
0.0
 30
0.0
 11
4.0261902054426733
 21
0.0
 31
0.0
  0
ARC
  5
2049
  8
241
 10
13.52605407862211
 20
6.958961509262406
 30
0.0
 40
16.687589218732739
 50
203.61222874108151
 51
213.90637043923141
  0
CIRCLE
  5
204A
  8
246
 10
-3.453135819136234
 20
2.1216402457945942
 30
0.0
 40
2.5000000000000089
  0
ARC
  5
204B
  8
247
 10
-90.494107071632016
 20
-2.8010650553605512
 30
0.0
 40
0.7566075439453125
 50
53.444012197057347
 51
164.00018438768541
  0
LINE
  5
204C
  8
247
 10
-90.920965470069504
 20
-3.571777945985573
 30
0.0
 11
-90.607213516944526
 21
-2.4776011881730682
 31
0.0
  0
ARC
  5
204D
  8
247
 10
-90.685989884132056
 20
-3.639154899110578
 30
0.0
 40
0.2444446334838867
 50
164.00027305718211
 51
344.00027305718231
  0
ARC
  5
204E
  8
247
 10
-89.42396839975703
 20
-3.4228560709855582
 30
0.0
 40
1.9799648437499999
 50
155.20517736984081
 51
172.79482596205219
  0
ARC
  5
204F
  8
247
 10
-89.458931290382026
 20
-3.2666744303605659
 30
0.0
 40
0.9894138793945311
 50
110.8721834020736
 51
132.5419489373875
  0
ARC
  5
2050
  8
247
 10
-90.372237931007021
 20
-2.5449869303605639
 30
0.0
 40
0.2444448051452637
 50
1.7101213820627319
 51
163.99839835444709
  0
ARC
  5
2051
  8
247
 10
-89.458931290382026
 20
-3.2666744303605659
 30
0.0
 40
1.222216369628905
 50
110.22964506332011
 51
118.57168892371659
  0
LINE
  5
2052
  8
247
 10
-89.811443009132006
 20
-2.3421881022355659
 30
0.0
 11
-89.881553360694525
 21
-2.1198511881730289
 31
0.0
  0
LINE
  5
2053
  8
247
 10
-89.700428360694517
 20
-2.3071812662980591
 30
0.0
 11
-89.770538712257036
 21
-2.0848443522355762
 31
0.0
  0
LINE
  5
2054
  8
247
 10
-90.090847306007035
 20
-4.1396834940812379
 30
0.0
 11
-89.750394181007039
 21
-2.9523863444230609
 31
0.0
  0
LINE
  5
2055
  8
247
 10
-90.428514298194528
 20
-2.9523863444230609
 30
0.0
 11
-89.750394181007039
 21
-2.9523863444230609
 31
0.0
  0
LINE
  5
2056
  8
247
 10
-90.495267227882039
 20
-3.1851910319230532
 30
0.0
 11
-90.428514298194528
 21
-2.9523863444230609
 31
0.0
  0
LINE
  5
2057
  8
247
 10
-90.227411759132025
 20
-4.0031278300187827
 30
0.0
 11
-90.090847306007035
 21
-4.1396834940812379
 31
0.0
  0
LINE
  5
2058
  8
247
 10
-90.495267227882039
 20
-3.1851910319230532
 30
0.0
 11
-90.301521134132045
 21
-3.1851910319230532
 31
0.0
  0
LINE
  5
2059
  8
247
 10
-90.451014298194508
 20
-3.7065318522355559
 30
0.0
 11
-90.301521134132045
 21
-3.1851910319230532
 31
0.0
  0
ARC
  5
205A
  8
247
 10
-89.458931290382026
 20
-3.2666744303605659
 30
0.0
 40
0.9894111328124999
 50
270.0
 51
104.1274364964102
  0
ARC
  5
205B
  8
247
 10
-89.458931290382026
 20
-3.2666744303605659
 30
0.0
 40
1.2222158203124971
 50
270.0
 51
104.7707939660942
  0
LINE
  5
205C
  8
247
 10
-94.062677384132002
 20
-4.1396834940812379
 30
0.0
 11
-93.528636368507264
 21
-2.2772632975487981
 31
0.0
  0
LINE
  5
205D
  8
247
 10
-93.794585167020287
 20
-3.2047359056493701
 30
0.0
 11
-92.979672090115713
 21
-2.3898228287448959
 31
0.0
  0
ARC
  5
205E
  8
247
 10
-93.089288712257044
 20
-2.6031881022355901
 30
0.0
 40
0.349197280883789
 50
261.6626016879294
 51
66.33815509518989
  0
LINE
  5
205F
  8
247
 10
-92.949141671820755
 20
-2.283348223493773
 30
0.0
 11
-93.139922496024212
 21
-2.9486949197053161
 31
0.0
  0
LINE
  5
2060
  8
247
 10
-92.391604141944526
 20
-4.1396834940812379
 30
0.0
 11
-91.864234024757025
 21
-2.300536735048055
 31
0.0
  0
LINE
  5
2061
  8
247
 10
-93.105436423241954
 20
-3.2914812907315101
 30
0.0
 11
-92.272349799805426
 21
-2.4583946672948809
 31
0.0
  0
LINE
  5
2062
  8
247
 10
-93.690609009572313
 20
-2.842128371914681
 30
0.0
 11
-92.892939247705797
 21
-2.0444586100481521
 31
0.0
  0
ARC
  5
2063
  8
247
 10
-92.829563126319513
 20
-2.6264615397355571
 30
0.0
 40
0.5820078735351563
 50
287.66957754739968
 51
90.236159842671555
  0
LINE
  5
2064
  8
247
 10
-92.747546875426224
 20
-2.6749603666289512
 30
0.0
 11
-92.357970705775585
 21
-2.285384196978228
 31
0.0
  0
LINE
  5
2065
  8
247
 10
-93.586632852124424
 20
-2.4795208381799361
 30
0.0
 11
-93.151570623992598
 21
-2.0444586100481228
 31
0.0
  0
LINE
  5
2066
  8
247
 10
-94.184836563819488
 20
-2.27726329754806
 30
0.0
 11
-93.770818985694447
 21
-2.27726329754806
 31
0.0
  0
LINE
  5
2067
  8
247
 10
-93.649732071632286
 20
-2.27726329754806
 30
0.0
 11
-93.528636368507264
 21
-2.2772632975487981
 31
0.0
  0
LINE
  5
2068
  8
247
 10
-92.777385826575411
 20
-2.446167941491395
 30
0.0
 11
-92.487095586414355
 21
-2.1558777013302541
 31
0.0
  0
LINE
  5
2069
  8
247
 10
-94.184836563819488
 20
-2.0444586100480659
 30
0.0
 11
-93.704066056007008
 21
-2.0444586100480659
 31
0.0
  0
LINE
  5
206A
  8
247
 10
-93.582979141944364
 20
-2.0444586100480659
 30
0.0
 11
-92.831962020266644
 21
-2.0444586100481521
 31
0.0
  0
LINE
  5
206B
  8
247
 10
-93.582979141944364
 20
-2.0444586100480659
 30
0.0
 11
-93.649732071632286
 21
-2.27726329754806
 31
0.0
  0
LINE
  5
206C
  8
247
 10
-93.704066056007008
 20
-2.0444586100480659
 30
0.0
 11
-93.770818985694447
 21
-2.27726329754806
 31
0.0
  0
LINE
  5
206D
  8
247
 10
-93.643006687779334
 20
-2.277263297548116
 30
0.0
 11
-93.410202000279327
 21
-2.0444586100481228
 31
0.0
  0
LINE
  5
206E
  8
247
 10
-92.899753790337272
 20
-2.3099045289664399
 30
0.0
 11
-92.659655885978125
 21
-2.0698066246072662
 31
0.0
  0
LINE
  5
206F
  8
247
 10
-91.949004532569518
 20
-2.300536735048055
 30
0.0
 11
-91.864234024757025
 21
-2.300536735048055
 31
0.0
  0
LINE
  5
2070
  8
247
 10
-91.949004532569518
 20
-2.300536735048055
 30
0.0
 11
-91.875571915382025
 21
-2.0444586100480659
 31
0.0
  0
LINE
  5
2071
  8
247
 10
-93.015155834581378
 20
-3.4598320783576781
 30
0.0
 11
-92.251779443466035
 21
-2.6964556872423331
 31
0.0
  0
ARC
  5
2072
  8
247
 10
-93.096583634132003
 20
-3.5576802897355861
 30
0.0
 40
0.5820029296875
 50
270.0
 51
40.329840654167029
  0
LINE
  5
2073
  8
247
 10
-93.898561324468119
 20
-3.5673434393841159
 30
0.0
 11
-93.083644815596614
 21
-2.7524269305124971
 31
0.0
  0
LINE
  5
2074
  8
247
 10
-94.002537481916065
 20
-3.9299509731188049
 30
0.0
 11
-93.017516447863684
 21
-2.9449299390663679
 31
0.0
  0
LINE
  5
2075
  8
247
 10
-94.062677384132002
 20
-4.1396834940812379
 30
0.0
 11
-93.096583634132003
 21
-4.1396834940812379
 31
0.0
  0
LINE
  5
2076
  8
247
 10
-93.436375874018196
 20
-4.1396834940812379
 30
0.0
 11
-92.582162544207506
 21
-3.285470164270591
 31
0.0
  0
ARC
  5
2077
  8
247
 10
-93.356309220069534
 20
-3.5343980631730432
 30
0.0
 40
0.3492072715759277
 50
261.66285421114731
 51
66.33819215911376
  0
LINE
  5
2078
  8
247
 10
-93.216159401066719
 20
-3.214548494227031
 30
0.0
 11
-93.406943363855859
 21
-3.8799149252862279
 31
0.0
  0
LINE
  5
2079
  8
247
 10
-93.177744497731396
 20
-4.1396834940812681
 30
0.0
 11
-92.519584842799702
 21
-3.4815238391495442
 31
0.0
  0
LINE
  5
207A
  8
247
 10
-93.695007250305025
 20
-4.1396834940812379
 30
0.0
 11
-93.395568538211549
 21
-3.8402447819878329
 31
0.0
  0
LINE
  5
207B
  8
247
 10
-93.953638626591726
 20
-4.1396834940812379
 30
0.0
 11
-93.29159773825873
 21
-3.477642605748271
 31
0.0
  0
LINE
  5
207C
  8
247
 10
-92.875477237275277
 20
-4.0960476099119063
 30
0.0
 11
-92.558216313955668
 21
-3.7787866865923401
 31
0.0
  0
LINE
  5
207D
  8
247
 10
-92.391604141944526
 20
-4.1396834940812379
 30
0.0
 11
-91.870904923194544
 21
-4.1396834940812379
 31
0.0
  0
ARC
  5
207E
  8
247
 10
-94.184836563819488
 20
-3.2666744303605659
 30
0.0
 40
1.2222158203124971
 50
90.0
 51
270.0
  0
ARC
  5
207F
  8
247
 10
-94.184836563819488
 20
-3.2666744303605659
 30
0.0
 40
0.9894111328124999
 50
90.0
 51
270.0
  0
ARC
  5
2080
  8
247
 10
-90.660993790382008
 20
-3.3830767741105618
 30
0.0
 40
0.756615234375
 50
163.99975070172931
 51
304.96387329163031
  0
LINE
  5
2081
  8
247
 10
-94.184836563819488
 20
-4.2560858378312627
 30
0.0
 11
-89.458931290382026
 21
-4.2560858378312627
 31
0.0
  0
LINE
  5
2082
  8
247
 10
-94.184836563819488
 20
-4.488890519339761
 30
0.0
 11
-89.458931290382026
 21
-4.488890519339761
 31
0.0
  0
LINE
  5
2083
  8
247
 10
-91.870904923194544
 20
-4.1396834940812379
 30
0.0
 11
-91.270110977882027
 21
-2.0444586100480659
 31
0.0
  0
LINE
  5
2084
  8
247
 10
-91.875571915382025
 20
-2.0444586100480659
 30
0.0
 11
-91.270110977882027
 21
-2.0444586100480659
 31
0.0
  0
TEXT
  5
2085
  8
247
 10
-87.207823388356246
 20
-4.1921017954155229
 30
0.0
 40
2.0
  1
ST12-CM10-45B-25
 41
0.7
  7
YOKO
 11
-87.207823388356246
 21
-4.1921017954155229
 31
0.0
 73
     1
  0
LINE
  5
2086
  8
241
 10
-5.1103096861771462
 20
4.0000002846863927
 30
0.0
 11
-6.8472483688317993
 21
2.263061602072824
 31
0.0
  0
LINE
  5
2087
  8
240
 10
-0.2531358191361903
 20
1.7861063398618731
 30
0.0
 11
-0.0590232694407575
 21
1.980218887682083
 31
0.0
  0
ARC
  5
2088
  8
240
 10
-3.4531358191362629
 20
5.3743314392526713
 30
0.0
 40
0.2
 50
45.000000000000732
 51
135.0000000000004
1001
GENIUS_GENOBJ-N-FIL_13
1002
{
1000
OWNER
1000
GEN
1002
}
1001
GENIUS_GENODEF_13
1002
{
1000
HIER
1070
     0
1002
}
1002
{
1000
MANEDIT
1070
     0
1002
}
1002
{
1000
NOSEL
1070
     0
1002
}
1002
{
1000
BEHIND
1070
     0
1002
}
1002
{
1000
OTHER
1070
     0
1002
}
1002
{
1000
REACTOR
1002
}
  0
ARC
  5
2089
  8
240
 10
-0.2004446256780739
 20
2.121640243919372
 30
0.0
 40
0.2
 50
315.0000000000062
 51
45.000000000000988
1001
GENIUS_GENOBJ-N-FIL_13
1002
{
1000
OWNER
1000
GEN
1002
}
1001
GENIUS_GENODEF_13
1002
{
1000
HIER
1070
     0
1002
}
1002
{
1000
MANEDIT
1070
     0
1002
}
1002
{
1000
NOSEL
1070
     0
1002
}
1002
{
1000
BEHIND
1070
     0
1002
}
1002
{
1000
OTHER
1070
     0
1002
}
1002
{
1000
REACTOR
1002
}
  0
ARC
  5
208A
  8
241
 10
-3.4531358210254539
 20
-1.131050947663552
 30
0.0
 40
0.2
 50
225.0
 51
315.00000000000023
1001
GENIUS_GENODEF_13
1002
{
1000
HIER
1070
     0
1002
}
1002
{
1000
MANEDIT
1070
     0
1002
}
1002
{
1000
NOSEL
1070
     0
1002
}
1002
{
1000
BEHIND
1070
     0
1002
}
1002
{
1000
OTHER
1070
     0
1002
}
1002
{
1000
REACTOR
1002
}
1001
GENIUS_GENOBJ-N-FIL_13
1002
{
1000
OWNER
1000
GEN
1002
}
  0
ARC
  5
208B
  8
241
 10
-6.7058270125944821
 20
2.1216402458355059
 30
0.0
 40
0.2
 50
134.99999999999949
 51
224.99999998336321
1001
GENIUS_GENOREF_13
1005
208F
  0
ARC
  5
208C
  8
241
 10
-25.57009582701259
 20
-0.7434228524561463
 30
0.0
 40
1.592303994173409
 50
81.393644907312918
 51
152.16771553256211
  0
ARC
  5
208D
  8
241
 10
-19.48049032471463
 20
-2.3808451956010641
 30
0.0
 40
7.8666421574683181
 50
162.38311655534989
 51
183.57602358917981
  0
LINE
  5
208E
  8
241
 10
-27.331815475576612
 20
-4.3499997153135999
 30
0.0
 11
-27.331815475576612
 21
-2.8715102637484051
 31
0.0
  0
POINT
  5
208F
  8
0
 10
0.0
 20
0.0
 30
0.0
1001
GENIUS_GENOLIS_13
1002
{
1000
ENT
1005
208B
1002
}
1001
GENIUS_GENODEF_13
1002
{
1000
HIER
1070
     1
1002
}
1002
{
1000
MANEDIT
1070
     0
1002
}
1002
{
1000
NOSEL
1070
     0
1002
}
1002
{
1000
BEHIND
1070
     0
1002
}
1002
{
1000
OTHER
1070
     0
1002
}
1002
{
1000
REACTOR
1002
}
1001
GENIUS_GENOBJ-N-FIL_13
1002
{
1000
OWNER
1000
GEN
1002
}
1001
GENIUS_GENOENT_13
1002
{
1000
MYREF
1005
208F
1002
}
1002
{
1000
GRP
1005
0
1002
}
  0
ENDBLK
  5
2092
  8
0
  0
ENDSEC
  0
SECTION
  2
ENTITIES
  0
TEXT
  5
145B
  8
241
 10
-99.148236116165847
 20
21.00349333056792
 30
0.0
 40
3.0
  1
ST12-CM10-45B-25
  7
YOKO
 11
-99.148236116165847
 21
21.00349333056792
 31
0.0
 73
     1
  0
LINE
  5
1754
  8
250
 10
-98.453135819136293
 20
-5.5000000000000284
 30
0.0
 11
-98.453135819136293
 21
-29.0
 31
0.0
  0
LINE
  5
1755
  8
250
 10
0.0
 20
1.6216402457946499
 30
0.0
 11
0.0
 21
-29.0
 31
0.0
  0
LINE
  5
1756
  8
250
 10
-96.223135819136274
 20
-28.0
 30
0.0
 11
-2.2299999999999889
 21
-28.0
 31
0.0
  0
LINE
  5
175A
  8
250
 10
-26.453135819136179
 20
0.1306264017753165
 30
0.0
 11
-26.453135819136179
 21
-22.0
 31
0.0
  0
LINE
  5
175B
  8
250
 10
0.0
 20
1.6216402457946499
 30
0.0
 11
0.0
 21
-22.0
 31
0.0
  0
LINE
  5
175C
  8
250
 10
-24.223135819136189
 20
-21.0
 30
0.0
 11
-2.2299999999999889
 21
-21.0
 31
0.0
  0
LINE
  5
1760
  8
250
 10
0.0000000000000284
 20
2.704038332591153
 30
0.0
 11
-0.0000000000000284
 21
11.61723797468647
 31
0.0
  0
LINE
  5
1761
  8
250
 10
-3.665806004448994
 20
5.8698443370400071
 30
0.0
 11
-6.6561372995884911
 21
8.8601756321794181
 31
0.0
  0
ARC
  5
1762
  8
250
 10
0.0
 20
2.204038332591153
 30
0.0
 40
8.4131996420953303
 50
105.23161328164269
 51
119.7683867183584
  0
LINE
  5
1766
  8
250
 10
-2.2299999999999889
 20
-20.62833333333333
 30
0.0
 11
0.0
 21
-21.0
 31
0.0
  0
LINE
  5
1767
  8
250
 10
-2.2299999999999889
 20
-21.37166666666667
 30
0.0
 11
0.0
 21
-21.0
 31
0.0
  0
LINE
  5
1768
  8
250
 10
0.0
 20
-21.0
 30
0.0
 11
-2.2299999999999889
 21
-21.0
 31
0.0
  0
LINE
  5
1769
  8
250
 10
-24.223135819136189
 20
-21.37166666666667
 30
0.0
 11
-26.453135819136179
 21
-21.0
 31
0.0
  0
LINE
  5
176A
  8
250
 10
-24.223135819136189
 20
-20.62833333333333
 30
0.0
 11
-26.453135819136179
 21
-21.0
 31
0.0
  0
LINE
  5
176B
  8
250
 10
-26.453135819136179
 20
-21.0
 30
0.0
 11
-24.223135819136189
 21
-21.0
 31
0.0
  0
TEXT
  5
176C
  8
250
 10
-53.893234576234789
 20
-27.0
 30
0.0
 40
2.799999999999998
  1
98.5
  0
LINE
  5
176D
  8
250
 10
-2.2299999999999889
 20
-27.62833333333333
 30
0.0
 11
0.0
 21
-28.0
 31
0.0
  0
LINE
  5
176E
  8
250
 10
-2.2299999999999889
 20
-28.37166666666667
 30
0.0
 11
0.0
 21
-28.0
 31
0.0
  0
LINE
  5
176F
  8
250
 10
0.0
 20
-28.0
 30
0.0
 11
-2.2299999999999889
 21
-28.0
 31
0.0
  0
LINE
  5
1770
  8
250
 10
-96.223135819136274
 20
-28.37166666666667
 30
0.0
 11
-98.453135819136293
 21
-28.0
 31
0.0
  0
LINE
  5
1771
  8
250
 10
-96.223135819136274
 20
-27.62833333333333
 30
0.0
 11
-98.453135819136293
 21
-28.0
 31
0.0
  0
LINE
  5
1772
  8
250
 10
-98.453135819136293
 20
-28.0
 30
0.0
 11
-96.223135819136274
 21
-28.0
 31
0.0
  0
LINE
  5
1773
  8
250
 10
-97.953135819136264
 20
-6.0
 30
0.0
 11
-110.77496811780399
 21
-6.0
 31
0.0
  0
LINE
  5
1774
  8
250
 10
-97.953135819136264
 20
6.0
 30
0.0
 11
-110.77496811780399
 21
6.0
 31
0.0
  0
LINE
  5
1775
  8
250
 10
-109.77496811780399
 20
-3.769999999999996
 30
0.0
 11
-109.77496811780399
 21
3.769999999999996
 31
0.0
  0
TEXT
  5
1779
  8
250
 10
-110.77496811780399
 20
-3.8952380952380841
 30
0.0
 40
3.0
  1
\U+2205
 50
90.0
  0
TEXT
  5
177A
  8
250
 10
-110.874968117804
 20
-1.1809523809523621
 30
0.0
 40
2.799999999999998
  1
12
 50
90.0
  0
LINE
  5
177B
  8
250
 10
-110.14663478447071
 20
3.769999999999996
 30
0.0
 11
-109.77496811780399
 21
6.0
 31
0.0
  0
LINE
  5
177C
  8
250
 10
-109.4033014511373
 20
3.769999999999996
 30
0.0
 11
-109.77496811780399
 21
6.0
 31
0.0
  0
LINE
  5
177D
  8
250
 10
-109.77496811780399
 20
6.0
 30
0.0
 11
-109.77496811780399
 21
3.769999999999996
 31
0.0
  0
LINE
  5
177E
  8
250
 10
-109.4033014511373
 20
-3.769999999999996
 30
0.0
 11
-109.77496811780399
 21
-6.0
 31
0.0
  0
LINE
  5
177F
  8
250
 10
-110.14663478447071
 20
-3.769999999999996
 30
0.0
 11
-109.77496811780399
 21
-6.0
 31
0.0
  0
LINE
  5
1780
  8
250
 10
-109.77496811780399
 20
-6.0
 30
0.0
 11
-109.77496811780399
 21
-3.769999999999996
 31
0.0
  0
LINE
  5
1781
  8
250
 10
4.5261902054426733
 20
0.0
 30
0.0
 11
7.5468641808637349
 21
0.0
 31
0.0
  0
LINE
  5
1782
  8
250
 10
4.5261902054426733
 20
1.6500000000001189
 30
0.0
 11
7.5468641808637349
 21
1.6500000000001189
 31
0.0
  0
LINE
  5
1783
  8
250
 10
6.5468641808637349
 20
3.880000000000122
 30
0.0
 11
6.5468641808637349
 21
6.1100000000001122
 31
0.0
  0
LINE
  5
1784
  8
250
 10
6.5468641808637349
 20
-2.2300000000000031
 30
0.0
 11
6.5468641808637349
 21
-14.88380952380956
 31
0.0
  0
LINE
  5
1785
  8
250
 10
6.5468641808637349
 20
1.6500000000001189
 30
0.0
 11
6.5468641808637349
 21
0.0
 31
0.0
  0
LINE
  5
1789
  8
250
 10
-2.9531358191362629
 20
5.6499999999999773
 30
0.0
 11
14.546864180863761
 21
5.6499999999999773
 31
0.0
  0
LINE
  5
178A
  8
250
 10
13.546864180863761
 20
3.4199999999999728
 30
0.0
 11
13.546864180863761
 21
-8.2183255570120508
 31
0.0
  0
LINE
  5
178D
  8
250
 10
13.175197514197089
 20
3.4199999999999728
 30
0.0
 11
13.546864180863761
 21
5.6499999999999773
 31
0.0
  0
LINE
  5
178E
  8
250
 10
13.91853084753043
 20
3.4199999999999728
 30
0.0
 11
13.546864180863761
 21
5.6499999999999773
 31
0.0
  0
LINE
  5
178F
  8
250
 10
13.546864180863761
 20
5.6499999999999773
 30
0.0
 11
13.546864180863761
 21
3.4199999999999728
 31
0.0
  0
TEXT
  5
1790
  8
250
 10
12.395871642049769
 20
-7.5040398427262982
 30
0.0
 40
3.0
  1
\U+2205
 50
90.0
  0
TEXT
  5
1791
  8
250
 10
12.29587164204977
 20
-4.7897541284405767
 30
0.0
 40
2.799999999999998
  1
11.3
 50
90.0
  0
LINE
  5
1792
  8
250
 10
6.1751975141970661
 20
-2.2300000000000031
 30
0.0
 11
6.5468641808637349
 21
0.0
 31
0.0
  0
LINE
  5
1793
  8
250
 10
6.9185308475304046
 20
-2.2300000000000031
 30
0.0
 11
6.5468641808637349
 21
0.0
 31
0.0
  0
LINE
  5
1794
  8
250
 10
6.5468641808637349
 20
0.0
 30
0.0
 11
6.5468641808637349
 21
-2.2300000000000031
 31
0.0
  0
LINE
  5
1795
  8
250
 10
6.9185308475304046
 20
3.880000000000122
 30
0.0
 11
6.5468641808637349
 21
1.6500000000001189
 31
0.0
  0
LINE
  5
1796
  8
250
 10
6.1751975141970661
 20
3.880000000000122
 30
0.0
 11
6.5468641808637349
 21
1.6500000000001189
 31
0.0
  0
LINE
  5
1797
  8
250
 10
6.5468641808637349
 20
1.6500000000001189
 30
0.0
 11
6.5468641808637349
 21
3.880000000000122
 31
0.0
  0
TEXT
  5
1798
  8
250
 10
-6.9715362195007913
 20
9.9936588637794284
 30
0.0
 40
2.799999999999998
  1
45üï
 50
16.04683860792678
  0
LINE
  5
1799
  8
250
 10
-3.9514524295227869
 20
9.2117084922027868
 30
0.0
 11
-5.9490305184019387
 21
8.153068850992895
 31
0.0
  0
LINE
  5
179A
  8
250
 10
-4.4027722098545894
 20
9.8023478917738771
 30
0.0
 11
-5.9490305184019387
 21
8.153068850992895
 31
0.0
  0
LINE
  5
179B
  8
250
 10
-5.9490305184019387
 20
8.153068850992895
 30
0.0
 11
-4.177112319688689
 21
9.5070281919883222
 31
0.0
  0
LINE
  5
179C
  8
250
 10
-2.2595861292449779
 20
10.69008463305164
 30
0.0
 11
-0.0000000000000284
 21
10.61723797468647
 31
0.0
  0
LINE
  5
179D
  8
250
 10
-2.161072281728535
 20
9.9533082312227208
 30
0.0
 11
-0.0000000000000284
 21
10.61723797468647
 31
0.0
  0
LINE
  5
179E
  8
250
 10
-0.0000000000000284
 20
10.61723797468647
 30
0.0
 11
-2.2103292054867421
 21
10.32169643213717
 31
0.0
  0
TEXT
  5
1E7A
  8
250
 10
5.5468641808637003
 20
-14.683809523809501
 30
0.0
 40
2.799999999999998
  1
1.65
 50
90.0
  0
TEXT
  5
1E7B
  8
250
 10
-17.893234576234729
 20
-19.999999999999979
 30
0.0
 40
2.799999999999998
  1
26.5
  0
INSERT
  5
2093
  8
240
  2
A$C19A95C06
 10
0.0
 20
0.0
 30
0.0
  0
VIEWPORT
  5
22
 67
     1
  8
0
 10
261.51769911504419
 20
148.5
 30
0.0
 40
523.0353982300885
 41
297.0
 68
     1
 69
     1
1001
ACAD
1000
MVIEW
1002
{
1070
    16
1010
0.0
1020
0.0
1030
0.0
1010
0.0
1020
0.0
1030
1.0
1040
0.0
1040
297.0
1040
261.51769911504419
1040
148.5
1040
50.0
1040
0.0
1040
0.0
1070
     0
1070
   100
1070
     1
1070
     1
1070
     0
1070
     0
1070
     0
1070
     0
1040
0.0
1040
0.0
1040
0.0
1040
1.0
1040
1.0
1040
10.0
1040
10.0
1070
     0
1002
{
1002
}
1002
}
1001
GENIUS_GENODEF_13
1002
{
1000
HIER
1070
     0
1002
}
1002
{
1000
MANEDIT
1070
     0
1002
}
1002
{
1000
NOSEL
1070
     0
1002
}
1002
{
1000
BEHIND
1070
     0
1002
}
1002
{
1000
OTHER
1070
     0
1002
}
1002
{
1000
REACTOR
1002
}
1001
GENIUS_GENOBJ-N-SDF_13
1002
{
1000
OWNER
1000
GEN
1002
}
1001
GENIUS_GENSCREG_15
1000
PF
1040
1.0
1000
DF
1040
1.0
1000
MIN
1011
0.0
1021
0.0
1031
0.0
1021
0.0
1031
0.0
1000
MAX
1011
523.0353982300885
1021
0.0
1031
0.0
1021
297.0
1031
0.0
1000
FLAGS
1070
     2
  0
ENDSEC
  0
EOF
