  0
SECTION
  2
HEADER
  9
$ACADVER
  1
AC1009
  9
$INSBASE
 10
0.0
 20
0.0
 30
0.0
  9
$EXTMIN
 10
-164.80000000000001
 20
-21.0
 30
0.0
  9
$EXTMAX
 10
22.0
 20
47.0
 30
0.0
  9
$LIMMIN
 10
0.0
 20
0.0
  9
$LIMMAX
 10
297.0
 20
210.0
  9
$ORTHOMODE
 70
     1
  9
$REGENMODE
 70
     1
  9
$FILLMODE
 70
     1
  9
$QTEXTMODE
 70
     0
  9
$MIRRTEXT
 70
     1
  9
$DRAGMODE
 70
     2
  9
$LTSCALE
 40
10.0
  9
$OSMODE
 70
  2799
  9
$ATTMODE
 70
     1
  9
$TEXTSIZE
 40
3.0
  9
$TRACEWID
 40
1.0
  9
$TEXTSTYLE
  7
YOKO
  9
$CLAYER
  8
240
  9
$CELTYPE
  6
BYLAYER
  9
$CECOLOR
 62
   256
  9
$DIMSCALE
 40
1.0
  9
$DIMASZ
 40
2.2299999999999991
  9
$DIMEXO
 40
0.5
  9
$DIMDLI
 40
7.0
  9
$DIMRND
 40
0.0
  9
$DIMDLE
 40
0.0
  9
$DIMEXE
 40
1.0
  9
$DIMTP
 40
0.0
  9
$DIMTM
 40
0.0
  9
$DIMTXT
 40
2.799999999999998
  9
$DIMCEN
 40
0.0
  9
$DIMTSZ
 40
0.0
  9
$DIMTOL
 70
     0
  9
$DIMLIM
 70
     0
  9
$DIMTIH
 70
     0
  9
$DIMTOH
 70
     0
  9
$DIMSE1
 70
     0
  9
$DIMSE2
 70
     0
  9
$DIMTAD
 70
     3
  9
$DIMZIN
 70
     9
  9
$DIMBLK
  1
OPEN
  9
$DIMASO
 70
     1
  9
$DIMSHO
 70
     1
  9
$DIMPOST
  1

  9
$DIMAPOST
  1

  9
$DIMALT
 70
     0
  9
$DIMALTD
 70
     2
  9
$DIMALTF
 40
25.399999999999999
  9
$DIMLFAC
 40
1.0
  9
$DIMTOFL
 70
     1
  9
$DIMTVP
 40
0.0
  9
$DIMTIX
 70
     1
  9
$DIMSOXD
 70
     0
  9
$DIMSAH
 70
     0
  9
$DIMBLK1
  1

  9
$DIMBLK2
  1

  9
$DIMSTYLE
  2
BIGT
  9
$DIMCLRD
 70
   256
  9
$DIMCLRE
 70
   256
  9
$DIMCLRT
 70
    40
  9
$DIMTFAC
 40
1.0
  9
$DIMGAP
 40
1.0
  9
$LUNITS
 70
     2
  9
$LUPREC
 70
     3
  9
$SKETCHINC
 40
1.0
  9
$FILLETRAD
 40
0.0
  9
$AUNITS
 70
     0
  9
$AUPREC
 70
     3
  9
$MENU
  1
.
  9
$ELEVATION
 40
0.0
  9
$PELEVATION
 40
0.0
  9
$THICKNESS
 40
0.0
  9
$LIMCHECK
 70
     0
  9
$BLIPMODE
 70
     0
  9
$CHAMFERA
 40
0.25
  9
$CHAMFERB
 40
0.25
  9
$SKPOLY
 70
     0
  9
$TDCREATE
 40
2452787.5336546879
  9
$TDUPDATE
 40
2454035.4571799771
  9
$TDINDWG
 40
0.0097677778
  9
$TDUSRTIMER
 40
0.0097675926
  9
$USRTIMER
 70
     1
  9
$ANGBASE
 50
0.0
  9
$ANGDIR
 70
     0
  9
$PDMODE
 70
    35
  9
$PDSIZE
 40
-5.0
  9
$PLINEWID
 40
0.0
  9
$COORDS
 70
     0
  9
$SPLFRAME
 70
     0
  9
$SPLINETYPE
 70
     6
  9
$SPLINESEGS
 70
     4
  9
$ATTDIA
 70
     1
  9
$ATTREQ
 70
     1
  9
$HANDLING
 70
     1
  9
$HANDSEED
  5
1A86
  9
$SURFTAB1
 70
     6
  9
$SURFTAB2
 70
     6
  9
$SURFTYPE
 70
     6
  9
$SURFU
 70
     6
  9
$SURFV
 70
     6
  9
$UCSNAME
  2

  9
$UCSORG
 10
0.0
 20
0.0
 30
0.0
  9
$UCSXDIR
 10
1.0
 20
0.0
 30
0.0
  9
$UCSYDIR
 10
0.0
 20
1.0
 30
0.0
  9
$PUCSNAME
  2

  9
$PUCSORG
 10
0.0
 20
0.0
 30
0.0
  9
$PUCSXDIR
 10
1.0
 20
0.0
 30
0.0
  9
$PUCSYDIR
 10
0.0
 20
1.0
 30
0.0
  9
$USERI1
 70
     1
  9
$USERI2
 70
     0
  9
$USERI3
 70
     0
  9
$USERI4
 70
     0
  9
$USERI5
 70
     0
  9
$USERR1
 40
0.0
  9
$USERR2
 40
0.0
  9
$USERR3
 40
0.0
  9
$USERR4
 40
0.0
  9
$USERR5
 40
0.0
  9
$WORLDVIEW
 70
     1
  9
$SHADEDGE
 70
     3
  9
$SHADEDIF
 70
    70
  9
$TILEMODE
 70
     1
  9
$MAXACTVP
 70
    16
  9
$PLIMCHECK
 70
     0
  9
$PEXTMIN
 10
1.0000000000000000E+020
 20
1.0000000000000000E+020
 30
1.0000000000000000E+020
  9
$PEXTMAX
 10
-1.0000000000000000E+020
 20
-1.0000000000000000E+020
 30
-1.0000000000000000E+020
  9
$PLIMMIN
 10
0.0
 20
0.0
  9
$PLIMMAX
 10
420.0
 20
297.0
  9
$UNITMODE
 70
     0
  9
$VISRETAIN
 70
     1
  9
$PLINEGEN
 70
     0
  9
$PSLTSCALE
 70
     1
  0
ENDSEC
  0
SECTION
  2
TABLES
  0
TABLE
  2
VPORT
 70
     3
  0
VPORT
  2
*ACTIVE
 70
     0
 10
0.0
 20
0.0
 11
1.0
 21
1.0
 12
-71.395001831435479
 22
12.99826857039972
 13
0.0
 23
0.0
 14
7.0
 24
7.0
 15
7.0
 25
7.0
 16
0.0
 26
0.0
 36
1.0
 17
0.0
 27
0.0
 37
0.0
 40
121.31954080696769
 41
1.546099290780141
 42
50.0
 43
0.0
 44
0.0
 50
0.0
 51
0.0
 71
     0
 72
   500
 73
     1
 74
     0
 75
     0
 76
     0
 77
     0
 78
     0
  0
ENDTAB
  0
TABLE
  2
LTYPE
 70
    13
  0
LTYPE
  2
CONTINUOUS
 70
     0
  3
Solid line
 72
    65
 73
     0
 40
0.0
  0
LTYPE
  2
CENTER2
 70
     0
  3
___ _ ___ _ ___ _ ___ _ ___ _ ___ _ ___ _ ___ _
 72
    65
 73
     4
 40
1.125
 49
0.75
 49
-0.125
 49
0.125
 49
-0.125
  0
LTYPE
  2
CENTER
 70
     0
  3
____ _ ____ _ ____ _ ____ _ ____ _ ____ _ ____ 
 72
    65
 73
     4
 40
2.0
 49
1.25
 49
-0.25
 49
0.25
 49
-0.25
  0
LTYPE
  2
AM_ISO02W050
 70
     0
  3
__ __ __ __ __ __ __ __ __ __ __ __ __ __ __
 72
    65
 73
     2
 40
7.5
 49
6.0
 49
-1.5
  0
LTYPE
  2
AMCONSTR
 70
     0
  3
_______________________
 72
    65
 73
     2
 40
9999.0
 49
9999.0
 49
0.0
  0
LTYPE
  2
ACISOWELD
 70
     0
  3
_ _ _ _ _
 72
    65
 73
     2
 40
2.0
 49
2.0
 49
-1.0
  0
LTYPE
  2
ACISOTGB
 70
     0
  3
__ . . __ . .
 72
    65
 73
     6
 40
9.0
 49
4.0
 49
-1.0
 49
1.0
 49
-1.0
 49
1.0
 49
-1.0
  0
LTYPE
  2
ACISOTGL
 70
     0
  3
_ _ _ _ _
 72
    65
 73
     2
 40
3.0
 49
2.0
 49
-1.0
  0
LTYPE
  2
HIDDEN2
 70
     0
  3
_ _ _ _ _ _ _ _ _ _ _ _ _ _ _ _ _ _ _ _ _ _ _ _
 72
    65
 73
     2
 40
0.1875
 49
0.125
 49
-0.0625
  0
LTYPE
  2
PHANTOM2
 70
     0
  3
___ _ _ ___ _ _ ___ _ _ ___ _ _ ___ _ _ ___ _ _
 72
    65
 73
     6
 40
1.25
 49
0.625
 49
-0.125
 49
0.125
 49
-0.125
 49
0.125
 49
-0.125
  0
LTYPE
  2
HIDDEN
 70
     0
  3
Hidden __ __ __ __ __ __ __ __ __ __ __ __ __ _
 72
    65
 73
     2
 40
9.5249999999999986
 49
6.3499999999999988
 49
-3.1749999999999989
  0
LTYPE
  2
ACJISTGB
 70
     0
  3
__ . . __ . .
 72
    65
 73
     6
 40
9.0
 49
4.0
 49
-1.0
 49
1.0
 49
-1.0
 49
1.0
 49
-1.0
  0
LTYPE
  2
ACJISTGL
 70
     0
  3
_ _ _ _ _
 72
    65
 73
     2
 40
3.0
 49
2.0
 49
-1.0
  0
ENDTAB
  0
TABLE
  2
LAYER
 70
     7
  0
LAYER
  2
0
 70
     0
 62
     7
  6
CONTINUOUS
  0
LAYER
  2
DEFPOINTS
 70
     0
 62
     7
  6
CONTINUOUS
  0
LAYER
  2
245
 70
     0
 62
     2
  6
CENTER2
  0
LAYER
  2
240
 70
     0
 62
     4
  6
CONTINUOUS
  0
LAYER
  2
241
 70
     0
 62
   211
  6
CONTINUOUS
  0
LAYER
  2
247
 70
     0
 62
    60
  6
CONTINUOUS
  0
LAYER
  2
250
 70
     0
 62
     7
  6
CONTINUOUS
  0
ENDTAB
  0
TABLE
  2
STYLE
 70
     6
  0
STYLE
  2
STANDARD
 70
     0
 40
0.0
 41
1.0
 50
0.0
 71
     0
 42
3.0
  3
romans.shx
  4
extfont.shx
  0
STYLE
  2
ACISOTS
 70
     0
 40
1.0
 41
1.0
 50
0.0
 71
     0
 42
3.0
  3
amgdt.shx
  4
extfont.shx
  0
STYLE
  2
ACISOGDT
 70
     0
 40
0.0
 41
1.0
 50
0.0
 71
     0
 42
3.0
  3
amgdt.shx
  4
extfont.shx
  0
STYLE
  2
ACJISTS
 70
     0
 40
1.0
 41
1.0
 50
0.0
 71
     0
 42
3.0
  3
amgdt.shx
  4
extfont.shx
  0
STYLE
  2
YOKO
 70
     0
 40
0.0
 41
1.0
 50
0.0
 71
     0
 42
3.0
  3
romans.shx
  4
extfont.shx
  0
STYLE
  2
ACJISGDT
 70
     0
 40
0.0
 41
1.0
 50
0.0
 71
     0
 42
3.0
  3
amgdt.shx
  4
extfont.shx
  0
ENDTAB
  0
TABLE
  2
VIEW
 70
     0
  0
ENDTAB
  0
TABLE
  2
UCS
 70
     0
  0
ENDTAB
  0
TABLE
  2
APPID
 70
    34
  0
APPID
  2
ACAD
 70
     0
  0
APPID
  2
GLOBAL
 70
     0
  0
APPID
  2
DETAIL
 70
     0
  0
APPID
  2
GRPNAME
 70
     0
  0
APPID
  2
GPARA
 70
     0
  0
APPID
  2
MCAD_NO_VIS
 70
     0
  0
APPID
  2
ACAD_TEMP_GRAPHIC
 70
     0
  0
APPID
  2
ACATTRIBSERVICES
 70
     0
  0
APPID
  2
GENIUS_GENSCREG_15
 70
     0
  0
APPID
  2
GENIUS_GENODEF_13
 70
     0
  0
APPID
  2
GENIUS_GENOBJ-N-SDF_13
 70
     0
  0
APPID
  2
GENIUS_GENREC_14
 70
     0
  0
APPID
  2
GENIUS_GENOBJ-N-REC_13
 70
     0
  0
APPID
  2
GENIUS_GENDIMSH_14
 70
     0
  0
APPID
  2
GENIUS_GENOBJ-N-DIM_13
 70
     0
  0
APPID
  2
GENIUS_GENDIM_13
 70
     0
  0
APPID
  2
GENIUS_GENDTOL_13
 70
     0
  0
APPID
  2
GENIUS_GENOLIS_13
 70
     0
  0
APPID
  2
GENIUS_GENOENT_13
 70
     0
  0
APPID
  2
GENIUS_GENOBJ-F-FEM_13
 70
     0
  0
APPID
  2
GENIUS_GENOREF_13
 70
     0
  0
APPID
  2
GENIUS_GEFFEM_13
 70
     0
  0
APPID
  2
GENIUS_GEFFEMP_13
 70
     0
  0
APPID
  2
ITEMNAME
 70
     0
  0
APPID
  2
GENIUS_GENOBJ-N-FIL_13
 70
     0
  0
APPID
  2
HATCH_TYPE
 70
     0
  0
APPID
  2
HATCH_DISPLAY
 70
     0
  0
APPID
  2
HATCH_DISTANCE
 70
     0
  0
APPID
  2
AD_DRAW
 70
     0
  0
APPID
  2
DESIGNERASSEMBLIES
 70
     0
  0
APPID
  2
ACADM_DIM_EDIT
 70
     0
  0
APPID
  2
AMDT_DM_ADJ
 70
     0
  0
APPID
  2
GENIUS_GENFIL_13
 70
     0
  0
APPID
  2
GENIUS_GENOBJ-N-CHA_13
 70
     0
  0
ENDTAB
  0
TABLE
  2
DIMSTYLE
 70
    23
  0
DIMSTYLE
  2
BIGT
 70
     0
  3

  4

  5
OPEN
  6

  7

 40
1.0
 41
2.2299999999999991
 42
0.5
 43
7.0
 44
1.0
 45
0.0
 46
0.0
 47
0.0
 48
0.01
140
2.7999999999999989
141
0.0
142
0.0
143
25.399999999999999
144
1.0
145
0.0
146
1.0
147
1.0
 71
     0
 72
     0
 73
     0
 74
     0
 75
     0
 76
     0
 77
     3
 78
     9
170
     0
171
     2
172
     1
173
     0
174
     1
175
     0
176
   256
177
   256
178
    40
  0
DIMSTYLE
  2
AM_ISO
 70
     0
  3

  4
"
  5

  6

  7

 40
1.0
 41
2.5
 42
1.0
 43
10.0
 44
1.0
 45
0.0
 46
0.0
 47
0.1
 48
0.1
140
3.5
141
0.0
142
0.0
143
0.0393701
144
1.0
145
0.0
146
0.71
147
1.5
 71
     0
 72
     0
 73
     0
 74
     0
 75
     0
 76
     0
 77
     1
 78
     8
170
     0
171
     2
172
     1
173
     0
174
     0
175
     0
176
   256
177
   256
178
     2
  0
DIMSTYLE
  2
AM_ISO$3
 70
     0
  3

  4
"
  5

  6

  7

 40
1.0
 41
2.5
 42
1.0
 43
10.0
 44
1.0
 45
0.0
 46
0.0
 47
0.1
 48
0.1
140
3.5
141
0.0
142
0.0
143
0.0393701
144
1.0
145
0.0
146
0.71
147
1.5
 71
     0
 72
     0
 73
     0
 74
     1
 75
     0
 76
     0
 77
     1
 78
     8
170
     0
171
     2
172
     0
173
     0
174
     0
175
     0
176
   256
177
   256
178
     2
  0
DIMSTYLE
  2
AM_ISO$4
 70
     0
  3

  4
"
  5

  6

  7

 40
1.0
 41
2.5
 42
1.0
 43
10.0
 44
1.0
 45
0.0
 46
0.0
 47
0.1
 48
0.1
140
3.5
141
0.0
142
0.0
143
0.0393701
144
1.0
145
0.0
146
0.71
147
1.5
 71
     0
 72
     0
 73
     0
 74
     1
 75
     0
 76
     0
 77
     1
 78
     8
170
     0
171
     2
172
     0
173
     0
174
     0
175
     0
176
   256
177
   256
178
     2
  0
DIMSTYLE
  2
AM_ISO$6
 70
     0
  3

  4
"
  5

  6

  7

 40
1.0
 41
2.5
 42
1.0
 43
10.0
 44
1.0
 45
0.0
 46
0.0
 47
0.1
 48
0.1
140
3.5
141
0.0
142
0.0
143
0.0393701
144
1.0
145
0.0
146
0.71
147
1.5
 71
     0
 72
     0
 73
     0
 74
     0
 75
     0
 76
     0
 77
     0
 78
     8
170
     0
171
     2
172
     1
173
     0
174
     0
175
     0
176
   256
177
   256
178
     2
  0
DIMSTYLE
  2
AM_ISO$7
 70
     0
  3

  4
"
  5

  6

  7

 40
1.0
 41
2.5
 42
1.0
 43
10.0
 44
1.0
 45
0.0
 46
0.0
 47
0.1
 48
0.1
140
5.0
141
0.0
142
0.0
143
0.0393701
144
1.0
145
0.0
146
0.71
147
1.5
 71
     0
 72
     0
 73
     0
 74
     0
 75
     0
 76
     0
 77
     1
 78
     8
170
     0
171
     2
172
     1
173
     0
174
     0
175
     0
176
   256
177
   256
178
     2
  0
DIMSTYLE
  2
AM_ISO$SF
 70
     0
  3

  4
"
  5

  6

  7

 40
1.0
 41
2.5
 42
1.0
 43
10.0
 44
1.0
 45
0.0
 46
0.0
 47
0.1
 48
0.1
140
3.5
141
0.0
142
0.0
143
0.0393701
144
1.0
145
0.0
146
0.71
147
1.5
 71
     0
 72
     0
 73
     0
 74
     0
 75
     1
 76
     1
 77
     1
 78
     8
170
     0
171
     2
172
     1
173
     0
174
     0
175
     0
176
   256
177
   256
178
     2
  0
DIMSTYLE
  2
AM_ISO$SH
 70
     0
  3

  4
"
  5

  6
GENAXEH
  7

 40
1.0
 41
2.5
 42
1.0
 43
10.0
 44
1.0
 45
0.0
 46
0.0
 47
0.1
 48
0.1
140
3.5
141
0.0
142
0.0
143
0.0393701
144
2.0
145
0.0
146
0.71
147
1.5
 71
     0
 72
     0
 73
     0
 74
     0
 75
     1
 76
     1
 77
     1
 78
     8
170
     0
171
     2
172
     1
173
     1
174
     0
175
     0
176
   256
177
   256
178
     2
  0
DIMSTYLE
  2
BIGT$2
 70
     0
  3

  4

  5
OPEN
  6

  7

 40
1.0
 41
2.2299999999999991
 42
0.5
 43
7.0
 44
1.0
 45
0.0
 46
0.0
 47
0.0
 48
0.01
140
2.7999999999999989
141
0.0
142
0.0
143
25.399999999999999
144
1.0
145
0.0
146
1.0
147
1.0
 71
     0
 72
     0
 73
     0
 74
     0
 75
     0
 76
     0
 77
     3
 78
     9
170
     0
171
     2
172
     1
173
     0
174
     0
175
     0
176
   256
177
   256
178
    40
  0
DIMSTYLE
  2
BIGT$0
 70
     0
  3

  4

  5
OPEN
  6

  7

 40
1.0
 41
2.2299999999999991
 42
0.5
 43
7.0
 44
1.0
 45
0.0
 46
0.0
 47
0.0
 48
0.01
140
2.7999999999999989
141
0.0
142
0.0
143
25.399999999999999
144
1.0
145
0.0
146
1.0
147
1.0
 71
     0
 72
     0
 73
     0
 74
     0
 75
     0
 76
     0
 77
     3
 78
     9
170
     0
171
     2
172
     1
173
     0
174
     0
175
     0
176
   256
177
   256
178
    40
  0
DIMSTYLE
  2
BIGT$3
 70
     0
  3

  4

  5
OPEN
  6

  7

 40
1.0
 41
2.2299999999999991
 42
0.5
 43
2.5
 44
1.0
 45
0.0
 46
0.0
 47
0.0
 48
0.01
140
2.7999999999999989
141
0.0
142
0.0
143
25.399999999999999
144
1.0
145
0.0
146
1.0
147
1.0
 71
     0
 72
     0
 73
     0
 74
     0
 75
     0
 76
     0
 77
     3
 78
     9
170
     0
171
     2
172
     1
173
     0
174
     0
175
     0
176
   256
177
   256
178
    40
  0
DIMSTYLE
  2
BIGT$4
 70
     0
  3

  4

  5
OPEN
  6

  7

 40
1.0
 41
2.2299999999999991
 42
0.5
 43
2.5
 44
1.0
 45
0.0
 46
0.0
 47
0.0
 48
0.01
140
2.7999999999999989
141
0.0
142
0.0
143
25.399999999999999
144
1.0
145
0.0
146
1.0
147
1.0
 71
     0
 72
     0
 73
     0
 74
     0
 75
     0
 76
     0
 77
     3
 78
     9
170
     0
171
     2
172
     1
173
     0
174
     0
175
     0
176
   256
177
   256
178
    40
  0
DIMSTYLE
  2
BIGT$6
 70
     0
  3

  4

  5
OPEN
  6

  7

 40
1.0
 41
2.2299999999999991
 42
0.5
 43
2.5
 44
1.0
 45
0.0
 46
0.0
 47
0.0
 48
0.01
140
2.7999999999999989
141
0.0
142
0.0
143
25.399999999999999
144
1.0
145
0.0
146
1.0
147
1.0
 71
     0
 72
     0
 73
     0
 74
     0
 75
     0
 76
     0
 77
     3
 78
     9
170
     0
171
     2
172
     1
173
     0
174
     0
175
     0
176
   256
177
   256
178
    40
  0
DIMSTYLE
  2
BIGT$7
 70
     0
  3

  4

  5
OPEN
  6

  7

 40
0.0
 41
2.2299999999999991
 42
0.5
 43
7.0
 44
1.0
 45
0.0
 46
0.0
 47
0.0
 48
0.01
140
2.7999999999999989
141
0.0
142
0.0
143
25.399999999999999
144
1.0
145
0.0
146
1.0
147
1.0
 71
     0
 72
     0
 73
     0
 74
     0
 75
     0
 76
     0
 77
     3
 78
     9
170
     0
171
     2
172
     0
173
     0
174
     0
175
     0
176
   256
177
   256
178
    40
  0
DIMSTYLE
  2
BIGT$SF
 70
     0
  3

  4

  5
OPEN
  6

  7

 40
1.0
 41
2.2299999999999991
 42
0.5
 43
7.0
 44
1.0
 45
0.0
 46
0.0
 47
0.0
 48
0.0
140
2.7999999999999989
141
0.0
142
0.0
143
25.399999999999999
144
1.0
145
0.0
146
1.0
147
1.0
 71
     0
 72
     0
 73
     0
 74
     0
 75
     0
 76
     0
 77
     3
 78
     9
170
     0
171
     2
172
     1
173
     0
174
     0
175
     0
176
   256
177
   256
178
    40
  0
DIMSTYLE
  2
BIGT$SH
 70
     0
  3

  4

  5
OPEN
  6

  7

 40
1.0
 41
2.2299999999999991
 42
0.5
 43
7.0
 44
1.0
 45
0.0
 46
0.0
 47
0.0
 48
0.0
140
2.7999999999999989
141
0.0
142
0.0
143
25.399999999999999
144
1.0
145
0.0
146
1.0
147
1.0
 71
     0
 72
     0
 73
     0
 74
     0
 75
     0
 76
     0
 77
     3
 78
     9
170
     0
171
     2
172
     1
173
     0
174
     0
175
     0
176
   256
177
   256
178
    40
  0
DIMSTYLE
  2
TECHNICAL_OSAKA
 70
     0
  3

  4
"
  5
OPEN30
  6

  7

 40
1.0
 41
2.5
 42
1.0
 43
10.0
 44
1.0
 45
0.0
 46
0.0
 47
0.1
 48
0.1
140
2.7999999999999989
141
0.0
142
0.0
143
0.0393701
144
1.0
145
0.0
146
0.71
147
1.5
 71
     0
 72
     0
 73
     0
 74
     0
 75
     0
 76
     0
 77
     3
 78
     8
170
     0
171
     2
172
     1
173
     0
174
     0
175
     0
176
   256
177
   256
178
    40
  0
DIMSTYLE
  2
TECHNICAL_OSAKA$3
 70
     0
  3

  4
"
  5
OPEN30
  6

  7

 40
1.0
 41
2.5
 42
1.0
 43
10.0
 44
1.0
 45
0.0
 46
0.0
 47
0.1
 48
0.1
140
2.7999999999999989
141
0.0
142
0.0
143
0.0393701
144
1.0
145
0.0
146
0.71
147
1.5
 71
     0
 72
     0
 73
     0
 74
     1
 75
     0
 76
     0
 77
     3
 78
     8
170
     0
171
     2
172
     0
173
     0
174
     0
175
     0
176
   256
177
   256
178
    40
  0
DIMSTYLE
  2
TECHNICAL_OSAKA$4
 70
     0
  3

  4
"
  5
OPEN30
  6

  7

 40
1.0
 41
2.5
 42
1.0
 43
10.0
 44
1.0
 45
0.0
 46
0.0
 47
0.1
 48
0.1
140
2.7999999999999989
141
0.0
142
0.0
143
0.0393701
144
1.0
145
0.0
146
0.71
147
1.5
 71
     0
 72
     0
 73
     0
 74
     1
 75
     0
 76
     0
 77
     3
 78
     8
170
     0
171
     2
172
     0
173
     0
174
     0
175
     0
176
   256
177
   256
178
    40
  0
DIMSTYLE
  2
TECHNICAL_OSAKA$6
 70
     0
  3

  4
"
  5
OPEN30
  6

  7

 40
1.0
 41
2.5
 42
1.0
 43
10.0
 44
1.0
 45
0.0
 46
0.0
 47
0.1
 48
0.1
140
2.7999999999999989
141
0.0
142
0.0
143
0.0393701
144
1.0
145
0.0
146
0.71
147
1.5
 71
     0
 72
     0
 73
     0
 74
     0
 75
     0
 76
     0
 77
     0
 78
     8
170
     0
171
     2
172
     1
173
     0
174
     0
175
     0
176
   256
177
   256
178
    40
  0
DIMSTYLE
  2
TECHNICAL_OSAKA$7
 70
     0
  3

  4
"
  5
OPEN30
  6

  7

 40
1.0
 41
2.5
 42
1.0
 43
10.0
 44
1.0
 45
0.0
 46
0.0
 47
0.1
 48
0.1
140
2.7999999999999989
141
0.0
142
0.0
143
0.0393701
144
1.0
145
0.0
146
0.71
147
1.5
 71
     0
 72
     0
 73
     0
 74
     0
 75
     0
 76
     0
 77
     3
 78
     8
170
     0
171
     2
172
     1
173
     0
174
     0
175
     0
176
   256
177
   256
178
    40
  0
DIMSTYLE
  2
TECHNICAL_OSAKA$SF
 70
     0
  3

  4
"
  5
OPEN30
  6
OPEN30
  7
OPEN30
 40
1.0
 41
2.5
 42
1.0
 43
10.0
 44
1.0
 45
0.0
 46
0.0
 47
0.1
 48
0.1
140
3.5
141
0.0
142
0.0
143
0.0393701
144
1.0
145
0.0
146
0.71
147
1.5
 71
     0
 72
     0
 73
     0
 74
     0
 75
     1
 76
     1
 77
     3
 78
     8
170
     0
171
     2
172
     1
173
     0
174
     0
175
     0
176
   256
177
   256
178
    40
  0
DIMSTYLE
  2
TECHNICAL_OSAKA$SH
 70
     0
  3

  4
"
  5
OPEN30
  6
GENAXEH
  7
OPEN30
 40
1.0
 41
2.5
 42
1.0
 43
10.0
 44
1.0
 45
0.0
 46
0.0
 47
0.1
 48
0.1
140
3.5
141
0.0
142
0.0
143
0.0393701
144
2.0
145
0.0
146
0.71
147
1.5
 71
     0
 72
     0
 73
     0
 74
     0
 75
     1
 76
     1
 77
     3
 78
     8
170
     0
171
     2
172
     1
173
     1
174
     0
175
     0
176
   256
177
   256
178
    40
  0
ENDTAB
  0
ENDSEC
  0
SECTION
  2
BLOCKS
  0
BLOCK
  8
0
  2
$MODEL_SPACE
 70
     0
 10
0.0
 20
0.0
 30
0.0
  3
$MODEL_SPACE
  1

  0
ENDBLK
  5
1C
  8
0
  0
BLOCK
 67
     1
  8
0
  2
$PAPER_SPACE
 70
     0
 10
0.0
 20
0.0
 30
0.0
  3
$PAPER_SPACE
  1

  0
ENDBLK
  5
19
 67
     1
  8
0
  0
BLOCK
  8
0
  2
_OPEN
 70
     0
 10
0.0
 20
0.0
 30
0.0
  3
_OPEN
  1

  0
LINE
  5
195B
  8
0
  6
BYBLOCK
 62
     0
 10
-1.0
 20
0.1666666666666666
 30
0.0
 11
0.0
 21
0.0
 31
0.0
  0
LINE
  5
195C
  8
0
  6
BYBLOCK
 62
     0
 10
-1.0
 20
-0.1666666666666666
 30
0.0
 11
0.0
 21
0.0
 31
0.0
  0
LINE
  5
195D
  8
0
  6
BYBLOCK
 62
     0
 10
0.0
 20
0.0
 30
0.0
 11
-1.0
 21
0.0
 31
0.0
  0
ENDBLK
  5
195E
  8
0
  0
BLOCK
  8
0
  2
GENAXEH
 70
     0
 10
0.0
 20
0.0
 30
0.0
  3
GENAXEH
  1

  0
LINE
  5
1986
  8
0
 10
-1.0
 20
0.0
 30
0.0
 11
1.0
 21
0.0
 31
0.0
  0
ENDBLK
  5
1987
  8
0
  0
BLOCK
  8
0
  2
_OPEN30
 70
     0
 10
0.0
 20
0.0
 30
0.0
  3
_OPEN30
  1

  0
LINE
  5
19AB
  8
0
  6
BYBLOCK
 62
     0
 10
-1.0
 20
0.26794919
 30
0.0
 11
0.0
 21
0.0
 31
0.0
  0
LINE
  5
19AC
  8
0
  6
BYBLOCK
 62
     0
 10
0.0
 20
0.0
 30
0.0
 11
-1.0
 21
-0.26794919
 31
0.0
  0
LINE
  5
19AD
  8
0
  6
BYBLOCK
 62
     0
 10
0.0
 20
0.0
 30
0.0
 11
-1.0
 21
0.0
 31
0.0
  0
ENDBLK
  5
19AE
  8
0
  0
BLOCK
  8
0
  2
A$C7D440B5C
 70
     0
 10
0.0
 20
0.0
 30
0.0
  3
A$C7D440B5C
  1

  0
LINE
  5
1816
  8
240
 10
-14.00000000000011
 20
5.8071796769724511
 30
0.0
 11
-14.00000000000011
 21
5.75
 31
0.0
  0
LINE
  5
1817
  8
240
 10
-14.25000000000011
 20
6.0
 30
0.0
 11
-14.00000000000011
 21
5.75
 31
0.0
1001
GENIUS_GENFIL_13
1070
     0
1040
0.25
1040
0.25
1040
0.2500000000000284
1040
45.00000000000162
1002
{
1002
}
1001
GENIUS_GENODEF_13
1002
{
1000
HIER
1070
     0
1002
}
1002
{
1000
MANEDIT
1070
     0
1002
}
1002
{
1000
NOSEL
1070
     0
1002
}
1002
{
1000
BEHIND
1070
     0
1002
}
1002
{
1000
OTHER
1070
     0
1002
}
1002
{
1000
REACTOR
1002
}
1001
GENIUS_GENOBJ-N-CHA_13
1002
{
1000
OWNER
1000
GEN
1002
}
  0
LINE
  5
1818
  8
240
 10
-14.00000000000011
 20
-5.7499999999999991
 30
0.0
 11
-14.00000000000011
 21
-5.8071796769726207
 31
0.0
  0
LINE
  5
1819
  8
240
 10
-14.25000000000011
 20
-5.9999999999999991
 30
0.0
 11
-14.00000000000011
 21
-5.7499999999999991
 31
0.0
1001
GENIUS_GENFIL_13
1070
     0
1040
0.25
1040
0.25
1040
0.2500000000000284
1040
45.00000000000162
1002
{
1002
}
1001
GENIUS_GENODEF_13
1002
{
1000
HIER
1070
     0
1002
}
1002
{
1000
MANEDIT
1070
     0
1002
}
1002
{
1000
NOSEL
1070
     0
1002
}
1002
{
1000
BEHIND
1070
     0
1002
}
1002
{
1000
OTHER
1070
     0
1002
}
1002
{
1000
REACTOR
1002
}
1001
GENIUS_GENOBJ-N-CHA_13
1002
{
1000
OWNER
1000
GEN
1002
}
  0
LINE
  5
181A
  8
241
  6
CONTINUOUS
 10
-14.00000000000011
 20
5.75
 30
0.0
 11
-14.00000000000011
 21
-5.7499999999999991
 31
0.0
  0
LINE
  5
181B
  8
247
 10
-57.545030919879842
 20
4.0026383944945314
 30
0.0
 11
-57.545030919879842
 21
4.0026383944945314
 31
0.0
1001
HATCH_DISTANCE
1040
1.0
1001
HATCH_DISPLAY
1070
     0
1001
HATCH_TYPE
1070
     7
  0
LINE
  5
181C
  8
247
 10
-57.636320440143528
 20
4.2921395846800783
 30
0.0
 11
-57.545030919879842
 21
4.0026383944945314
 31
0.0
1001
HATCH_DISTANCE
1040
1.0
1001
HATCH_DISPLAY
1070
     0
1001
HATCH_TYPE
1070
     7
  0
LINE
  5
181D
  8
247
 10
-57.636320440143528
 20
4.2921395846800783
 30
0.0
 11
-57.636320440143528
 21
4.2921395846800783
 31
0.0
1001
HATCH_DISTANCE
1040
1.0
1001
HATCH_DISPLAY
1070
     0
1001
HATCH_TYPE
1070
     7
  0
LINE
  5
181E
  8
247
 10
-57.545030919879842
 20
4.0026383944945314
 30
0.0
 11
-57.636320440143528
 21
4.2921395846800783
 31
0.0
1001
HATCH_DISTANCE
1040
1.0
1001
HATCH_DISPLAY
1070
     0
1001
HATCH_TYPE
1070
     7
  0
LINE
  5
181F
  8
247
 10
-57.545030919879842
 20
4.0026383944945314
 30
0.0
 11
-57.545030919879842
 21
4.0026383944945314
 31
0.0
  0
LINE
  5
1820
  8
247
 10
-57.636320440143528
 20
4.2921395846800783
 30
0.0
 11
-57.545030919879842
 21
4.0026383944945314
 31
0.0
  0
LINE
  5
1821
  8
247
 10
-57.636320440143528
 20
4.2921395846800783
 30
0.0
 11
-57.636320440143528
 21
4.2921395846800783
 31
0.0
  0
LINE
  5
1822
  8
247
 10
-57.545030919879842
 20
4.0026383944945314
 30
0.0
 11
-57.636320440143528
 21
4.2921395846800783
 31
0.0
  0
LINE
  5
1823
  8
247
 10
-57.545030919879842
 20
4.0026383944945314
 30
0.0
 11
-57.545030919879842
 21
4.0026383944945314
 31
0.0
1001
HATCH_DISTANCE
1040
1.0
1001
HATCH_DISPLAY
1070
     0
1001
HATCH_TYPE
1070
     7
  0
LINE
  5
1824
  8
247
 10
-57.636320440143528
 20
4.2921395846800783
 30
0.0
 11
-57.545030919879842
 21
4.0026383944945314
 31
0.0
1001
HATCH_DISTANCE
1040
1.0
1001
HATCH_DISPLAY
1070
     0
1001
HATCH_TYPE
1070
     7
  0
LINE
  5
1825
  8
247
 10
-57.636320440143528
 20
4.2921395846800783
 30
0.0
 11
-57.636320440143528
 21
4.2921395846800783
 31
0.0
1001
HATCH_DISTANCE
1040
1.0
1001
HATCH_DISPLAY
1070
     0
1001
HATCH_TYPE
1070
     7
  0
LINE
  5
1826
  8
247
 10
-57.545030919879842
 20
4.0026383944945314
 30
0.0
 11
-57.636320440143528
 21
4.2921395846800783
 31
0.0
1001
HATCH_DISTANCE
1040
1.0
1001
HATCH_DISPLAY
1070
     0
1001
HATCH_TYPE
1070
     7
  0
LINE
  5
1827
  8
247
 10
-57.545030919879842
 20
4.0026383944945314
 30
0.0
 11
-57.545030919879842
 21
4.0026383944945314
 31
0.0
  0
LINE
  5
1828
  8
247
 10
-57.636320440143528
 20
4.2921395846800783
 30
0.0
 11
-57.545030919879842
 21
4.0026383944945314
 31
0.0
  0
LINE
  5
1829
  8
247
 10
-57.636320440143528
 20
4.2921395846800783
 30
0.0
 11
-57.636320440143528
 21
4.2921395846800783
 31
0.0
  0
LINE
  5
182A
  8
247
 10
-57.545030919879842
 20
4.0026383944945314
 30
0.0
 11
-57.636320440143528
 21
4.2921395846800783
 31
0.0
  0
LINE
  5
182B
  8
247
 10
-59.588888494342733
 20
4.344725186486718
 30
0.0
 11
-60.377249090045872
 21
4.344725186486718
 31
0.0
1001
HATCH_DISTANCE
1040
1.0
1001
HATCH_DISPLAY
1070
     0
1001
HATCH_TYPE
1070
     7
  0
LINE
  5
182C
  8
247
 10
-60.371172277301717
 20
1.616567785401819
 30
0.0
 11
-59.588888494342733
 21
4.344725186486718
 31
0.0
1001
HATCH_DISTANCE
1040
1.0
1001
HATCH_DISPLAY
1070
     0
1001
HATCH_TYPE
1070
     7
  0
LINE
  5
182D
  8
247
 10
-61.04916605171578
 20
1.616567785401819
 30
0.0
 11
-60.371172277301717
 21
1.616567785401819
 31
0.0
1001
HATCH_DISTANCE
1040
1.0
1001
HATCH_DISPLAY
1070
     0
1001
HATCH_TYPE
1070
     7
  0
LINE
  5
182E
  8
247
 10
-60.36248621162791
 20
4.011290127892968
 30
0.0
 11
-61.04916605171578
 21
1.616567785401819
 31
0.0
1001
HATCH_DISTANCE
1040
1.0
1001
HATCH_DISPLAY
1070
     0
1001
HATCH_TYPE
1070
     7
  0
LINE
  5
182F
  8
247
 10
-60.472864477008763
 20
4.011290127892968
 30
0.0
 11
-60.36248621162791
 21
4.011290127892968
 31
0.0
1001
HATCH_DISTANCE
1040
1.0
1001
HATCH_DISPLAY
1070
     0
1001
HATCH_TYPE
1070
     7
  0
LINE
  5
1830
  8
247
 10
-60.377249090045872
 20
4.344725186486718
 30
0.0
 11
-60.472864477008763
 21
4.011290127892968
 31
0.0
1001
HATCH_DISTANCE
1040
1.0
1001
HATCH_DISPLAY
1070
     0
1001
HATCH_TYPE
1070
     7
  0
LINE
  5
1831
  8
247
 10
-59.588888494342733
 20
4.344725186486718
 30
0.0
 11
-60.377249090045872
 21
4.344725186486718
 31
0.0
  0
LINE
  5
1832
  8
247
 10
-60.371172277301717
 20
1.616567785401819
 30
0.0
 11
-59.588888494342733
 21
4.344725186486718
 31
0.0
  0
LINE
  5
1833
  8
247
 10
-61.04916605171578
 20
1.616567785401819
 30
0.0
 11
-60.371172277301717
 21
1.616567785401819
 31
0.0
  0
LINE
  5
1834
  8
247
 10
-60.36248621162791
 20
4.011290127892968
 30
0.0
 11
-61.04916605171578
 21
1.616567785401819
 31
0.0
  0
LINE
  5
1835
  8
247
 10
-60.472864477008763
 20
4.011290127892968
 30
0.0
 11
-60.36248621162791
 21
4.011290127892968
 31
0.0
  0
LINE
  5
1836
  8
247
 10
-60.377249090045872
 20
4.344725186486718
 30
0.0
 11
-60.472864477008763
 21
4.011290127892968
 31
0.0
  0
LINE
  5
1837
  8
247
 10
-60.388988283946141
 20
1.6165677854018341
 30
0.0
 11
-60.364009852699638
 21
1.641546216648329
 31
0.0
  0
LINE
  5
1838
  8
247
 10
-60.725747888486246
 20
1.616567785401819
 30
0.0
 11
-60.228625121166488
 21
2.1136905527215779
 31
0.0
  0
LINE
  5
1839
  8
247
 10
-61.043802427114663
 20
1.635272851313494
 30
0.0
 11
-60.093240389633358
 21
2.5858348887947988
 31
0.0
  0
LINE
  5
183A
  8
247
 10
-60.908415847993673
 20
2.1074190349745829
 30
0.0
 11
-59.957855658100222
 21
3.057979224868034
 31
0.0
  0
LINE
  5
183B
  8
247
 10
-60.773029268872691
 20
2.5795652186356639
 30
0.0
 11
-59.822470926567092
 21
3.53012356094127
 31
0.0
  0
LINE
  5
183C
  8
247
 10
-60.637642689751679
 20
3.05171140229676
 30
0.0
 11
-59.68708619503392
 21
4.0022678970145051
 31
0.0
  0
LINE
  5
183D
  8
247
 10
-60.502256110630668
 20
3.523857585957848
 30
0.0
 11
-59.681388510101797
 21
4.344725186486726
 31
0.0
  0
LINE
  5
183E
  8
247
 10
-60.366869531509693
 20
3.9960037696189299
 30
0.0
 11
-60.018148114641889
 21
4.344725186486726
 31
0.0
  0
LINE
  5
183F
  8
247
 10
-60.386231437072873
 20
4.3134014685958411
 30
0.0
 11
-60.354907719181988
 21
4.344725186486726
 31
0.0
  0
LINE
  5
1840
  8
247
 10
-56.717637754266072
 20
1.2468030606007749
 30
0.0
 11
-55.724086333056391
 21
2.2403544818104488
 31
0.0
  0
LINE
  5
1841
  8
247
 10
-56.039956337363463
 20
2.2612440820434889
 30
0.0
 11
-55.641935275273262
 21
2.6592651441336912
 31
0.0
  0
LINE
  5
1842
  8
247
 10
-57.136548416589306
 20
1.1646520028176319
 30
0.0
 11
-56.738527354499112
 21
1.5626730649078331
 31
0.0
  0
LINE
  5
1843
  8
247
 10
-55.943636424623271
 20
2.6943235993237731
 30
0.0
 11
-55.655710012382507
 21
2.9822500115645312
 31
0.0
  0
LINE
  5
1844
  8
247
 10
-57.476088886017251
 20
1.1618711379297999
 30
0.0
 11
-57.17160687177941
 21
1.4663531521676409
 31
0.0
  0
LINE
  5
1845
  8
247
 10
-55.967547874157077
 20
3.0071717543300451
 30
0.0
 11
-55.720159230499917
 21
3.2545603979872122
 31
0.0
  0
LINE
  5
1846
  8
247
 10
-57.812848490557329
 20
1.1618711379297999
 30
0.0
 11
-57.509717394843129
 21
1.4650022336440001
 31
0.0
  0
LINE
  5
1847
  8
247
 10
-56.047727672786387
 20
3.26375156024082
 30
0.0
 11
-55.820468300727228
 21
3.4910109322999849
 31
0.0
  0
LINE
  5
1848
  8
247
 10
-58.14960809509742
 20
1.161871137929793
 30
0.0
 11
-57.846476999383214
 21
1.4650022336440001
 31
0.0
  0
LINE
  5
1849
  8
247
 10
-56.167390056010291
 20
3.480848781557035
 30
0.0
 11
-55.950036484461528
 21
3.698202353105799
 31
0.0
  0
LINE
  5
184A
  8
247
 10
-58.486367699637533
 20
1.1618711379297999
 30
0.0
 11
-58.183236603923319
 21
1.4650022336440141
 31
0.0
  0
LINE
  5
184B
  8
247
 10
-56.320178370880953
 20
3.6648200712264649
 30
0.0
 11
-56.105832279298447
 21
3.8791661628089642
 31
0.0
  0
LINE
  5
184C
  8
247
 10
-58.823127304177611
 20
1.161871137929807
 30
0.0
 11
-58.519996208463411
 21
1.4650022336440001
 31
0.0
  0
LINE
  5
184D
  8
247
 10
-56.504360024927337
 20
3.817398021720158
 30
0.0
 11
-56.2869653549334
 21
4.0347926917140953
 31
0.0
  0
LINE
  5
184E
  8
247
 10
-59.159886908717702
 20
1.161871137929807
 30
0.0
 11
-58.856755813003502
 21
1.4650022336440069
 31
0.0
  0
LINE
  5
184F
  8
247
 10
-56.721691884514833
 20
3.9368257666727611
 30
0.0
 11
-56.49433830695552
 21
4.1641793442320738
 31
0.0
  0
LINE
  5
1850
  8
247
 10
-59.496646513257787
 20
1.161871137929807
 30
0.0
 11
-59.193515417543587
 21
1.4650022336440069
 31
0.0
  0
LINE
  5
1851
  8
247
 10
-56.97857198565643
 20
4.0167052700712631
 30
0.0
 11
-56.730999915501059
 21
4.2642773402266414
 31
0.0
  0
LINE
  5
1852
  8
247
 10
-59.8334061177979
 20
1.1618711379297999
 30
0.0
 11
-59.530275022083693
 21
1.4650022336440069
 31
0.0
  0
LINE
  5
1853
  8
247
 10
-57.291903019494022
 20
4.0401338407737546
 30
0.0
 11
-57.003584074816487
 21
4.3284527854512831
 31
0.0
  0
LINE
  5
1854
  8
247
 10
-60.170165722337977
 20
1.1618711379297999
 30
0.0
 11
-59.867034626623777
 21
1.4650022336440069
 31
0.0
  0
LINE
  5
1855
  8
247
 10
-57.574069547006367
 20
4.0947269178015011
 30
0.0
 11
-57.326994434230528
 21
4.341802030577341
 31
0.0
  0
LINE
  5
1856
  8
247
 10
-60.506925326878068
 20
1.1618711379297999
 30
0.0
 11
-60.203794231163847
 21
1.4650022336440141
 31
0.0
  0
LINE
  5
1857
  8
247
 10
-60.84368493141816
 20
1.161871137929807
 30
0.0
 11
-60.540553835703953
 21
1.4650022336440209
 31
0.0
  0
LINE
  5
1858
  8
247
 10
-61.180444535958273
 20
1.1618711379297999
 30
0.0
 11
-60.877313440244052
 21
1.4650022336440209
 31
0.0
  0
LINE
  5
1859
  8
247
 10
-61.51720414049835
 20
1.1618711379297999
 30
0.0
 11
-61.214073044784129
 21
1.4650022336440209
 31
0.0
  0
LINE
  5
185A
  8
247
 10
-61.853963745038449
 20
1.161871137929807
 30
0.0
 11
-61.550832649324242
 21
1.4650022336440141
 31
0.0
  0
LINE
  5
185B
  8
247
 10
-62.190723349578541
 20
1.161871137929807
 30
0.0
 11
-61.887592253864341
 21
1.4650022336440141
 31
0.0
  0
LINE
  5
185C
  8
247
 10
-62.527482954118632
 20
1.161871137929807
 30
0.0
 11
-62.224351858404418
 21
1.4650022336440141
 31
0.0
  0
LINE
  5
185D
  8
247
 10
-62.864242558658717
 20
1.1618711379297999
 30
0.0
 11
-62.561111462944503
 21
1.4650022336440209
 31
0.0
  0
LINE
  5
185E
  8
247
 10
-63.201002163198822
 20
1.1618711379297999
 30
0.0
 11
-62.897871067484601
 21
1.4650022336440209
 31
0.0
  0
LINE
  5
185F
  8
247
 10
-63.530970107994563
 20
1.168662797674159
 30
0.0
 11
-63.234630672024707
 21
1.4650022336440141
 31
0.0
  0
LINE
  5
1860
  8
247
 10
-63.81505927027046
 20
1.2213332399383461
 30
0.0
 11
-63.559407134417746
 21
1.476985375791066
 31
0.0
  0
LINE
  5
1861
  8
247
 10
-64.060421223648703
 20
1.312730891100208
 30
0.0
 11
-63.828921092797053
 21
1.544231021951858
 31
0.0
  0
LINE
  5
1862
  8
247
 10
-64.27518118424004
 20
1.4347305350489701
 30
0.0
 11
-64.055890155897643
 21
1.6540215633913531
 31
0.0
  0
LINE
  5
1863
  8
247
 10
-64.463132458236061
 20
1.5835388655930409
 30
0.0
 11
-64.248570907885636
 21
1.7981004159434659
 31
0.0
  0
LINE
  5
1864
  8
247
 10
-64.62568314262731
 20
1.757747785741862
 30
0.0
 11
-64.409737014176272
 21
1.9736939141929071
 31
0.0
  0
LINE
  5
1865
  8
247
 10
-64.76242464895779
 20
1.9577658839514951
 30
0.0
 11
-64.538598648664674
 21
2.1815918842446029
 31
0.0
  0
LINE
  5
1866
  8
247
 10
-63.015356054478282
 20
4.041594082971101
 30
0.0
 11
-62.776542975290923
 21
4.2804071621584461
 31
0.0
  0
LINE
  5
1867
  8
247
 10
-64.870974691800512
 20
2.1859754456488711
 30
0.0
 11
-64.630300846816141
 21
2.4266492906332209
 31
0.0
  0
LINE
  5
1868
  8
247
 10
-63.352115659018352
 20
4.041594082971109
 30
0.0
 11
-63.048984555502727
 21
4.344725186486734
 31
0.0
  0
LINE
  5
1869
  8
247
 10
-64.945929375107724
 20
2.4477803668817368
 30
0.0
 11
-64.672012217860555
 21
2.7216975241289059
 31
0.0
  0
LINE
  5
186A
  8
247
 10
-63.738611061956988
 20
3.991858284572579
 30
0.0
 11
-63.385745006003773
 21
4.3447243405257927
 31
0.0
  0
LINE
  5
186B
  8
247
 10
-64.975530104436501
 20
2.754939242093065
 30
0.0
 11
-64.622664048483287
 21
3.10780529804628
 31
0.0
  0
LINE
  5
186C
  8
247
 10
-64.92803559204927
 20
3.1391933590203962
 30
0.0
 11
-63.769999122931111
 21
4.2972298281385468
 31
0.0
  0
LINE
  5
186D
  8
247
 10
-58.210914858201683
 20
1.7740835839057281
 30
0.0
 11
-57.926734023989248
 21
2.0582644181181702
 31
0.0
  0
LINE
  5
186E
  8
247
 10
-58.700593401515
 20
1.6211646451325019
 30
0.0
 11
-57.791347983111507
 21
2.5304100635359879
 31
0.0
  0
LINE
  5
186F
  8
247
 10
-58.557577978966862
 20
2.1009396722207461
 30
0.0
 11
-57.655961942233787
 21
3.0025557089538131
 31
0.0
  0
LINE
  5
1870
  8
247
 10
-59.016836976802949
 20
1.641680674384645
 30
0.0
 11
-58.660956098973251
 21
1.9975615522143491
 31
0.0
  0
LINE
  5
1871
  8
247
 10
-58.404822039654213
 20
2.5904552160734928
 30
0.0
 11
-57.832749640041747
 21
3.1625276156859452
 31
0.0
  0
LINE
  5
1872
  8
247
 10
-59.261619221948322
 20
1.733658033779363
 30
0.0
 11
-58.996932547075708
 21
1.9983447086519841
 31
0.0
  0
LINE
  5
1873
  8
247
 10
-58.472640348097471
 20
2.8593965121703131
 30
0.0
 11
-58.169509244581839
 21
3.1625276156859452
 31
0.0
  0
LINE
  5
1874
  8
247
 10
-59.45889092166577
 20
1.8731459386020139
 30
0.0
 11
-59.137852520332402
 21
2.194184339935382
 31
0.0
  0
LINE
  5
1875
  8
247
 10
-57.726454159969748
 20
3.9423423048381201
 30
0.0
 11
-57.694893484388217
 21
3.9739029804196369
 31
0.0
  0
LINE
  5
1876
  8
247
 10
-59.614705626999701
 20
2.0540908378081681
 30
0.0
 11
-59.062511557301889
 21
2.6062849075059731
 31
0.0
  0
LINE
  5
1877
  8
247
 10
-58.147586943823761
 20
3.857969125524213
 30
0.0
 11
-57.775627131242132
 21
4.229928938105842
 31
0.0
  0
LINE
  5
1878
  8
247
 10
-59.726575003774791
 20
2.278981065573169
 30
0.0
 11
-58.92712505622783
 21
3.0784310131201451
 31
0.0
  0
LINE
  5
1879
  8
247
 10
-58.340949741938893
 20
4.0013659319491799
 30
0.0
 11
-58.113967237404147
 21
4.2283484364839188
 31
0.0
  0
LINE
  5
187A
  8
247
 10
-59.780148428770062
 20
2.5621672451180109
 30
0.0
 11
-58.791738555153749
 21
3.5505771187343171
 31
0.0
  0
LINE
  5
187B
  8
247
 10
-59.732431336587247
 20
2.9466439418409101
 30
0.0
 11
-58.359085606817601
 21
4.319989671610549
 31
0.0
  0
LINE
  5
187C
  8
247
 10
-59.620629565218408
 20
3.3952053177498409
 30
0.0
 11
-58.675942413135203
 21
4.3398924698330532
 31
0.0
  0
LINE
  5
187D
  8
240
  6
CONTINUOUS
 10
-148.50000000000011
 20
-5.9999999999999991
 30
0.0
 11
-14.25000000000011
 21
-5.9999999999999991
 31
0.0
  0
LINE
  5
187E
  8
240
  6
CONTINUOUS
 10
-148.50000000000011
 20
6.0
 30
0.0
 11
-14.25000000000011
 21
6.0
 31
0.0
  0
POLYLINE
  8
241
  5
19C4
  66
     1
 10
0.000000
 20
0.000000
 30
0.000000
  70
     8
  0
VERTEX
  8
241
  5
19C5
 10
-0.213847
 20
0.272594
 30
0.000000
  70
    32
  0
VERTEX
  8
241
  5
19C6
 10
-0.273259
 20
0.266341
 30
0.000000
  70
    32
  0
VERTEX
  8
241
  5
19C7
 10
-0.332666
 20
0.260118
 30
0.000000
  70
    32
  0
VERTEX
  8
241
  5
19C8
 10
-0.392067
 20
0.253952
 30
0.000000
  70
    32
  0
VERTEX
  8
241
  5
19C9
 10
-0.451457
 20
0.247872
 30
0.000000
  70
    32
  0
VERTEX
  8
241
  5
19CA
 10
-0.510834
 20
0.241908
 30
0.000000
  70
    32
  0
VERTEX
  8
241
  5
19CB
 10
-0.570192
 20
0.236088
 30
0.000000
  70
    32
  0
VERTEX
  8
241
  5
19CC
 10
-0.629530
 20
0.230441
 30
0.000000
  70
    32
  0
VERTEX
  8
241
  5
19CD
 10
-0.688843
 20
0.224996
 30
0.000000
  70
    32
  0
VERTEX
  8
241
  5
19CE
 10
-0.748129
 20
0.219781
 30
0.000000
  70
    32
  0
VERTEX
  8
241
  5
19CF
 10
-0.807383
 20
0.214826
 30
0.000000
  70
    32
  0
VERTEX
  8
241
  5
19D0
 10
-0.866602
 20
0.210159
 30
0.000000
  70
    32
  0
VERTEX
  8
241
  5
19D1
 10
-0.925782
 20
0.205809
 30
0.000000
  70
    32
  0
VERTEX
  8
241
  5
19D2
 10
-0.984921
 20
0.201806
 30
0.000000
  70
    32
  0
VERTEX
  8
241
  5
19D3
 10
-1.04401
 20
0.198177
 30
0.000000
  70
    32
  0
VERTEX
  8
241
  5
19D4
 10
-1.10306
 20
0.194952
 30
0.000000
  70
    32
  0
VERTEX
  8
241
  5
19D5
 10
-1.16205
 20
0.192159
 30
0.000000
  70
    32
  0
VERTEX
  8
241
  5
19D6
 10
-1.22099
 20
0.189827
 30
0.000000
  70
    32
  0
VERTEX
  8
241
  5
19D7
 10
-1.27986
 20
0.187986
 30
0.000000
  70
    32
  0
VERTEX
  8
241
  5
19D8
 10
-1.33868
 20
0.186663
 30
0.000000
  70
    32
  0
VERTEX
  8
241
  5
19D9
 10
-1.39742
 20
0.185889
 30
0.000000
  70
    32
  0
VERTEX
  8
241
  5
19DA
 10
-1.45610
 20
0.185691
 30
0.000000
  70
    32
  0
VERTEX
  8
241
  5
19DB
 10
-1.51470
 20
0.186098
 30
0.000000
  70
    32
  0
VERTEX
  8
241
  5
19DC
 10
-1.57323
 20
0.187140
 30
0.000000
  70
    32
  0
VERTEX
  8
241
  5
19DD
 10
-1.63168
 20
0.188844
 30
0.000000
  70
    32
  0
VERTEX
  8
241
  5
19DE
 10
-1.69004
 20
0.191241
 30
0.000000
  70
    32
  0
VERTEX
  8
241
  5
19DF
 10
-1.74832
 20
0.194358
 30
0.000000
  70
    32
  0
VERTEX
  8
241
  5
19E0
 10
-1.80650
 20
0.198225
 30
0.000000
  70
    32
  0
VERTEX
  8
241
  5
19E1
 10
-1.86459
 20
0.202871
 30
0.000000
  70
    32
  0
VERTEX
  8
241
  5
19E2
 10
-1.92258
 20
0.208324
 30
0.000000
  70
    32
  0
VERTEX
  8
241
  5
19E3
 10
-1.98047
 20
0.214604
 30
0.000000
  70
    32
  0
VERTEX
  8
241
  5
19E4
 10
-2.03826
 20
0.221708
 30
0.000000
  70
    32
  0
VERTEX
  8
241
  5
19E5
 10
-2.09594
 20
0.229625
 30
0.000000
  70
    32
  0
VERTEX
  8
241
  5
19E6
 10
-2.15351
 20
0.238348
 30
0.000000
  70
    32
  0
VERTEX
  8
241
  5
19E7
 10
-2.21097
 20
0.247867
 30
0.000000
  70
    32
  0
VERTEX
  8
241
  5
19E8
 10
-2.26831
 20
0.258172
 30
0.000000
  70
    32
  0
VERTEX
  8
241
  5
19E9
 10
-2.32554
 20
0.269254
 30
0.000000
  70
    32
  0
VERTEX
  8
241
  5
19EA
 10
-2.38264
 20
0.281105
 30
0.000000
  70
    32
  0
VERTEX
  8
241
  5
19EB
 10
-2.43962
 20
0.293715
 30
0.000000
  70
    32
  0
VERTEX
  8
241
  5
19EC
 10
-2.49648
 20
0.307075
 30
0.000000
  70
    32
  0
VERTEX
  8
241
  5
19ED
 10
-2.55321
 20
0.321176
 30
0.000000
  70
    32
  0
VERTEX
  8
241
  5
19EE
 10
-2.60980
 20
0.336009
 30
0.000000
  70
    32
  0
VERTEX
  8
241
  5
19EF
 10
-2.66627
 20
0.351564
 30
0.000000
  70
    32
  0
VERTEX
  8
241
  5
19F0
 10
-2.72259
 20
0.367833
 30
0.000000
  70
    32
  0
VERTEX
  8
241
  5
19F1
 10
-2.77878
 20
0.384806
 30
0.000000
  70
    32
  0
VERTEX
  8
241
  5
19F2
 10
-2.83482
 20
0.402475
 30
0.000000
  70
    32
  0
VERTEX
  8
241
  5
19F3
 10
-2.89072
 20
0.420829
 30
0.000000
  70
    32
  0
VERTEX
  8
241
  5
19F4
 10
-2.94647
 20
0.439860
 30
0.000000
  70
    32
  0
VERTEX
  8
241
  5
19F5
 10
-3.00207
 20
0.459559
 30
0.000000
  70
    32
  0
VERTEX
  8
241
  5
19F6
 10
-3.05752
 20
0.479916
 30
0.000000
  70
    32
  0
VERTEX
  8
241
  5
19F7
 10
-3.11281
 20
0.500923
 30
0.000000
  70
    32
  0
VERTEX
  8
241
  5
19F8
 10
-3.16794
 20
0.522570
 30
0.000000
  70
    32
  0
VERTEX
  8
241
  5
19F9
 10
-3.22291
 20
0.544848
 30
0.000000
  70
    32
  0
VERTEX
  8
241
  5
19FA
 10
-3.27771
 20
0.567748
 30
0.000000
  70
    32
  0
VERTEX
  8
241
  5
19FB
 10
-3.33235
 20
0.591261
 30
0.000000
  70
    32
  0
VERTEX
  8
241
  5
19FC
 10
-3.38682
 20
0.615378
 30
0.000000
  70
    32
  0
VERTEX
  8
241
  5
19FD
 10
-3.44112
 20
0.640089
 30
0.000000
  70
    32
  0
VERTEX
  8
241
  5
19FE
 10
-3.49524
 20
0.665385
 30
0.000000
  70
    32
  0
VERTEX
  8
241
  5
19FF
 10
-3.54918
 20
0.691258
 30
0.000000
  70
    32
  0
VERTEX
  8
241
  5
1A00
 10
-3.60295
 20
0.717698
 30
0.000000
  70
    32
  0
VERTEX
  8
241
  5
1A01
 10
-3.65653
 20
0.744695
 30
0.000000
  70
    32
  0
VERTEX
  8
241
  5
1A02
 10
-3.70992
 20
0.772242
 30
0.000000
  70
    32
  0
VERTEX
  8
241
  5
1A03
 10
-3.76313
 20
0.800328
 30
0.000000
  70
    32
  0
VERTEX
  8
241
  5
1A04
 10
-3.81614
 20
0.828944
 30
0.000000
  70
    32
  0
VERTEX
  8
241
  5
1A05
 10
-3.86896
 20
0.858082
 30
0.000000
  70
    32
  0
VERTEX
  8
241
  5
1A06
 10
-3.92158
 20
0.887732
 30
0.000000
  70
    32
  0
VERTEX
  8
241
  5
1A07
 10
-3.97400
 20
0.917885
 30
0.000000
  70
    32
  0
VERTEX
  8
241
  5
1A08
 10
-4.02622
 20
0.948532
 30
0.000000
  70
    32
  0
VERTEX
  8
241
  5
1A09
 10
-4.07824
 20
0.979664
 30
0.000000
  70
    32
  0
VERTEX
  8
241
  5
1A0A
 10
-4.13004
 20
1.01127
 30
0.000000
  70
    32
  0
VERTEX
  8
241
  5
1A0B
 10
-4.18164
 20
1.04335
 30
0.000000
  70
    32
  0
VERTEX
  8
241
  5
1A0C
 10
-4.23302
 20
1.07588
 30
0.000000
  70
    32
  0
VERTEX
  8
241
  5
1A0D
 10
-4.28419
 20
1.10886
 30
0.000000
  70
    32
  0
VERTEX
  8
241
  5
1A0E
 10
-4.33513
 20
1.14227
 30
0.000000
  70
    32
  0
VERTEX
  8
241
  5
1A0F
 10
-4.38586
 20
1.17612
 30
0.000000
  70
    32
  0
VERTEX
  8
241
  5
1A10
 10
-4.43636
 20
1.21039
 30
0.000000
  70
    32
  0
VERTEX
  8
241
  5
1A11
 10
-4.48663
 20
1.24507
 30
0.000000
  70
    32
  0
VERTEX
  8
241
  5
1A12
 10
-4.53668
 20
1.28015
 30
0.000000
  70
    32
  0
VERTEX
  8
241
  5
1A13
 10
-4.58649
 20
1.31563
 30
0.000000
  70
    32
  0
VERTEX
  8
241
  5
1A14
 10
-4.63606
 20
1.35149
 30
0.000000
  70
    32
  0
VERTEX
  8
241
  5
1A15
 10
-4.68540
 20
1.38772
 30
0.000000
  70
    32
  0
VERTEX
  8
241
  5
1A16
 10
-4.73450
 20
1.42432
 30
0.000000
  70
    32
  0
VERTEX
  8
241
  5
1A17
 10
-4.78335
 20
1.46128
 30
0.000000
  70
    32
  0
VERTEX
  8
241
  5
1A18
 10
-4.83196
 20
1.49859
 30
0.000000
  70
    32
  0
VERTEX
  8
241
  5
1A19
 10
-4.88031
 20
1.53623
 30
0.000000
  70
    32
  0
VERTEX
  8
241
  5
1A1A
 10
-4.92842
 20
1.57420
 30
0.000000
  70
    32
  0
VERTEX
  8
241
  5
1A1B
 10
-4.97627
 20
1.61250
 30
0.000000
  70
    32
  0
VERTEX
  8
241
  5
1A1C
 10
-5.02387
 20
1.65110
 30
0.000000
  70
    32
  0
VERTEX
  8
241
  5
1A1D
 10
-5.07120
 20
1.69000
 30
0.000000
  70
    32
  0
VERTEX
  8
241
  5
1A1E
 10
-5.11827
 20
1.72920
 30
0.000000
  70
    32
  0
VERTEX
  8
241
  5
1A1F
 10
-5.16508
 20
1.76868
 30
0.000000
  70
    32
  0
VERTEX
  8
241
  5
1A20
 10
-5.21162
 20
1.80844
 30
0.000000
  70
    32
  0
VERTEX
  8
241
  5
1A21
 10
-5.25788
 20
1.84846
 30
0.000000
  70
    32
  0
VERTEX
  8
241
  5
1A22
 10
-5.30388
 20
1.88874
 30
0.000000
  70
    32
  0
VERTEX
  8
241
  5
1A23
 10
-5.34959
 20
1.92926
 30
0.000000
  70
    32
  0
VERTEX
  8
241
  5
1A24
 10
-5.39503
 20
1.97002
 30
0.000000
  70
    32
  0
VERTEX
  8
241
  5
1A25
 10
-5.44019
 20
2.01101
 30
0.000000
  70
    32
  0
VERTEX
  8
241
  5
1A26
 10
-5.48506
 20
2.05222
 30
0.000000
  70
    32
  0
VERTEX
  8
241
  5
1A27
 10
-5.52964
 20
2.09364
 30
0.000000
  70
    32
  0
VERTEX
  8
241
  5
1A28
 10
-5.57393
 20
2.13526
 30
0.000000
  70
    32
  0
VERTEX
  8
241
  5
1A29
 10
-5.61794
 20
2.17707
 30
0.000000
  70
    32
  0
VERTEX
  8
241
  5
1A2A
 10
-5.66164
 20
2.21907
 30
0.000000
  70
    32
  0
VERTEX
  8
241
  5
1A2B
 10
-5.70506
 20
2.26125
 30
0.000000
  70
    32
  0
VERTEX
  8
241
  5
1A2C
 10
-5.74819
 20
2.30361
 30
0.000000
  70
    32
  0
VERTEX
  8
241
  5
1A2D
 10
-5.79103
 20
2.34615
 30
0.000000
  70
    32
  0
VERTEX
  8
241
  5
1A2E
 10
-5.83360
 20
2.38887
 30
0.000000
  70
    32
  0
VERTEX
  8
241
  5
1A2F
 10
-5.87588
 20
2.43176
 30
0.000000
  70
    32
  0
VERTEX
  8
241
  5
1A30
 10
-5.91789
 20
2.47482
 30
0.000000
  70
    32
  0
VERTEX
  8
241
  5
1A31
 10
-5.95963
 20
2.51806
 30
0.000000
  70
    32
  0
VERTEX
  8
241
  5
1A32
 10
-6.00110
 20
2.56146
 30
0.000000
  70
    32
  0
VERTEX
  8
241
  5
1A33
 10
-6.04231
 20
2.60503
 30
0.000000
  70
    32
  0
VERTEX
  8
241
  5
1A34
 10
-6.08325
 20
2.64876
 30
0.000000
  70
    32
  0
VERTEX
  8
241
  5
1A35
 10
-6.12394
 20
2.69265
 30
0.000000
  70
    32
  0
VERTEX
  8
241
  5
1A36
 10
-6.16437
 20
2.73671
 30
0.000000
  70
    32
  0
VERTEX
  8
241
  5
1A37
 10
-6.20454
 20
2.78092
 30
0.000000
  70
    32
  0
VERTEX
  8
241
  5
1A38
 10
-6.24447
 20
2.82529
 30
0.000000
  70
    32
  0
VERTEX
  8
241
  5
1A39
 10
-6.28416
 20
2.86981
 30
0.000000
  70
    32
  0
VERTEX
  8
241
  5
1A3A
 10
-6.32360
 20
2.91449
 30
0.000000
  70
    32
  0
VERTEX
  8
241
  5
1A3B
 10
-6.36280
 20
2.95931
 30
0.000000
  70
    32
  0
VERTEX
  8
241
  5
1A3C
 10
-6.40176
 20
3.00429
 30
0.000000
  70
    32
  0
VERTEX
  8
241
  5
1A3D
 10
-6.44050
 20
3.04940
 30
0.000000
  70
    32
  0
VERTEX
  8
241
  5
1A3E
 10
-6.47900
 20
3.09467
 30
0.000000
  70
    32
  0
VERTEX
  8
241
  5
1A3F
 10
-6.51728
 20
3.14007
 30
0.000000
  70
    32
  0
VERTEX
  8
241
  5
1A40
 10
-6.55533
 20
3.18562
 30
0.000000
  70
    32
  0
VERTEX
  8
241
  5
1A41
 10
-6.59317
 20
3.23130
 30
0.000000
  70
    32
  0
VERTEX
  8
241
  5
1A42
 10
-6.63079
 20
3.27712
 30
0.000000
  70
    32
  0
VERTEX
  8
241
  5
1A43
 10
-6.66819
 20
3.32307
 30
0.000000
  70
    32
  0
VERTEX
  8
241
  5
1A44
 10
-6.70539
 20
3.36916
 30
0.000000
  70
    32
  0
VERTEX
  8
241
  5
1A45
 10
-6.74237
 20
3.41537
 30
0.000000
  70
    32
  0
VERTEX
  8
241
  5
1A46
 10
-6.77916
 20
3.46172
 30
0.000000
  70
    32
  0
VERTEX
  8
241
  5
1A47
 10
-6.81574
 20
3.50818
 30
0.000000
  70
    32
  0
VERTEX
  8
241
  5
1A48
 10
-6.85213
 20
3.55478
 30
0.000000
  70
    32
  0
VERTEX
  8
241
  5
1A49
 10
-6.88832
 20
3.60149
 30
0.000000
  70
    32
  0
VERTEX
  8
241
  5
1A4A
 10
-6.92432
 20
3.64832
 30
0.000000
  70
    32
  0
VERTEX
  8
241
  5
1A4B
 10
-6.96014
 20
3.69527
 30
0.000000
  70
    32
  0
VERTEX
  8
241
  5
1A4C
 10
-6.99577
 20
3.74234
 30
0.000000
  70
    32
  0
VERTEX
  8
241
  5
1A4D
 10
-7.03122
 20
3.78952
 30
0.000000
  70
    32
  0
VERTEX
  8
241
  5
1A4E
 10
-7.06649
 20
3.83681
 30
0.000000
  70
    32
  0
VERTEX
  8
241
  5
1A4F
 10
-7.10159
 20
3.88421
 30
0.000000
  70
    32
  0
VERTEX
  8
241
  5
1A50
 10
-7.13651
 20
3.93172
 30
0.000000
  70
    32
  0
VERTEX
  8
241
  5
1A51
 10
-7.17127
 20
3.97934
 30
0.000000
  70
    32
  0
VERTEX
  8
241
  5
1A52
 10
-7.20586
 20
4.02705
 30
0.000000
  70
    32
  0
VERTEX
  8
241
  5
1A53
 10
-7.24029
 20
4.07487
 30
0.000000
  70
    32
  0
VERTEX
  8
241
  5
1A54
 10
-7.27457
 20
4.12279
 30
0.000000
  70
    32
  0
VERTEX
  8
241
  5
1A55
 10
-7.30869
 20
4.17081
 30
0.000000
  70
    32
  0
VERTEX
  8
241
  5
1A56
 10
-7.34265
 20
4.21892
 30
0.000000
  70
    32
  0
VERTEX
  8
241
  5
1A57
 10
-7.37647
 20
4.26712
 30
0.000000
  70
    32
  0
VERTEX
  8
241
  5
1A58
 10
-7.41014
 20
4.31542
 30
0.000000
  70
    32
  0
VERTEX
  8
241
  5
1A59
 10
-7.44367
 20
4.36380
 30
0.000000
  70
    32
  0
VERTEX
  8
241
  5
1A5A
 10
-7.47706
 20
4.41228
 30
0.000000
  70
    32
  0
VERTEX
  8
241
  5
1A5B
 10
-7.51032
 20
4.46083
 30
0.000000
  70
    32
  0
VERTEX
  8
241
  5
1A5C
 10
-7.54344
 20
4.50947
 30
0.000000
  70
    32
  0
VERTEX
  8
241
  5
1A5D
 10
-7.57643
 20
4.55820
 30
0.000000
  70
    32
  0
VERTEX
  8
241
  5
1A5E
 10
-7.60930
 20
4.60700
 30
0.000000
  70
    32
  0
VERTEX
  8
241
  5
1A5F
 10
-7.64204
 20
4.65587
 30
0.000000
  70
    32
  0
VERTEX
  8
241
  5
1A60
 10
-7.67467
 20
4.70483
 30
0.000000
  70
    32
  0
VERTEX
  8
241
  5
1A61
 10
-7.70718
 20
4.75385
 30
0.000000
  70
    32
  0
VERTEX
  8
241
  5
1A62
 10
-7.73957
 20
4.80295
 30
0.000000
  70
    32
  0
VERTEX
  8
241
  5
1A63
 10
-7.77186
 20
4.85212
 30
0.000000
  70
    32
  0
VERTEX
  8
241
  5
1A64
 10
-7.80403
 20
4.90135
 30
0.000000
  70
    32
  0
VERTEX
  8
241
  5
1A65
 10
-7.83611
 20
4.95065
 30
0.000000
  70
    32
  0
VERTEX
  8
241
  5
1A66
 10
-7.86808
 20
5.00001
 30
0.000000
  70
    32
  0
VERTEX
  8
241
  5
1A67
 10
-7.89996
 20
5.04943
 30
0.000000
  70
    32
  0
VERTEX
  8
241
  5
1A68
 10
-7.93175
 20
5.09891
 30
0.000000
  70
    32
  0
VERTEX
  8
241
  5
1A69
 10
-7.96344
 20
5.14845
 30
0.000000
  70
    32
  0
VERTEX
  8
241
  5
1A6A
 10
-7.99505
 20
5.19804
 30
0.000000
  70
    32
  0
VERTEX
  8
241
  5
1A6B
 10
-8.02657
 20
5.24768
 30
0.000000
  70
    32
  0
VERTEX
  8
241
  5
1A6C
 10
-8.05801
 20
5.29738
 30
0.000000
  70
    32
  0
VERTEX
  8
241
  5
1A6D
 10
-8.08938
 20
5.34712
 30
0.000000
  70
    32
  0
VERTEX
  8
241
  5
1A6E
 10
-8.12067
 20
5.39691
 30
0.000000
  70
    32
  0
VERTEX
  8
241
  5
1A6F
 10
-8.15188
 20
5.44675
 30
0.000000
  70
    32
  0
VERTEX
  8
241
  5
1A70
 10
-8.18304
 20
5.49662
 30
0.000000
  70
    32
  0
VERTEX
  8
241
  5
1A71
 10
-8.21412
 20
5.54654
 30
0.000000
  70
    32
  0
VERTEX
  8
241
  5
1A72
 10
-8.24515
 20
5.59650
 30
0.000000
  70
    32
  0
VERTEX
  8
241
  5
1A73
 10
-8.27611
 20
5.64649
 30
0.000000
  70
    32
  0
VERTEX
  8
241
  5
1A74
 10
-8.30703
 20
5.69652
 30
0.000000
  70
    32
  0
VERTEX
  8
241
  5
1A75
 10
-8.33789
 20
5.74658
 30
0.000000
  70
    32
  0
VERTEX
  8
241
  5
1A76
 10
-8.36870
 20
5.79667
 30
0.000000
  70
    32
  0
VERTEX
  8
241
  5
1A77
 10
-8.39946
 20
5.84679
 30
0.000000
  70
    32
  0
VERTEX
  8
241
  5
1A78
 10
-8.43019
 20
5.89694
 30
0.000000
  70
    32
  0
VERTEX
  8
241
  5
1A79
 10
-8.46087
 20
5.94711
 30
0.000000
  70
    32
  0
VERTEX
  8
241
  5
1A7A
 10
-8.49152
 20
5.99730
 30
0.000000
  70
    32
  0
VERTEX
  8
241
  5
1A7B
 10
-8.52214
 20
6.04751
 30
0.000000
  70
    32
  0
VERTEX
  8
241
  5
1A7C
 10
-8.55273
 20
6.09774
 30
0.000000
  70
    32
  0
VERTEX
  8
241
  5
1A7D
 10
-8.58329
 20
6.14799
 30
0.000000
  70
    32
  0
VERTEX
  8
241
  5
1A7E
 10
-8.61383
 20
6.19825
 30
0.000000
  70
    32
  0
VERTEX
  8
241
  5
1A7F
 10
-8.64435
 20
6.24852
 30
0.000000
  70
    32
  0
VERTEX
  8
241
  5
1A80
 10
-8.67486
 20
6.29881
 30
0.000000
  70
    32
  0
VERTEX
  8
241
  5
1A81
 10
-8.70535
 20
6.34910
 30
0.000000
  70
    32
  0
VERTEX
  8
241
  5
1A82
 10
-8.73583
 20
6.39939
 30
0.000000
  70
    32
  0
VERTEX
  8
241
  5
1A83
 10
-8.76631
 20
6.44970
 30
0.000000
  70
    32
  0
VERTEX
  8
241
  5
1A84
 10
-8.79678
 20
6.50000
 30
0.000000
  70
    32
  0
SEQEND
  8
241
  5
1A85
  0
LINE
  5
1880
  8
240
  6
CONTINUOUS
 10
0.0
 20
0.0
 30
0.0
 11
-6.5000000000003411
 21
6.5
 31
0.0
  0
LINE
  5
1881
  8
245
  6
CENTER2
 10
2.6152947498772501
 20
0.0
 30
0.0
 11
-153.53767618427781
 21
0.0
 31
0.0
  0
LINE
  5
1882
  8
240
  6
CONTINUOUS
 10
0.0
 20
0.0
 30
0.0
 11
-6.5000000000003411
 21
-6.5
 31
0.0
  0
LINE
  5
1883
  8
240
  6
CONTINUOUS
 10
-6.5000000000003411
 20
-6.5
 30
0.0
 11
-13.600000000000129
 21
-6.5
 31
0.0
  0
LINE
  5
1884
  8
240
  6
CONTINUOUS
 10
-14.00000000000011
 20
-5.8071796769726207
 30
0.0
 11
-13.600000000000129
 21
-6.5
 31
0.0
  0
LINE
  5
1885
  8
240
  6
CONTINUOUS
 10
-6.5000000000003411
 20
6.5
 30
0.0
 11
-13.600000000000129
 21
6.5
 31
0.0
  0
LINE
  5
1886
  8
240
  6
CONTINUOUS
 10
-13.600000000000129
 20
6.5
 30
0.0
 11
-14.00000000000011
 21
5.8071796769724511
 31
0.0
  0
LINE
  5
1887
  8
240
  6
CONTINUOUS
 10
-150.00000000000011
 20
4.8452994616207636
 30
0.0
 11
-150.00000000000011
 21
-4.8452994616207441
 31
0.0
  0
LINE
  5
1888
  8
240
  6
CONTINUOUS
 10
-149.75000000000011
 20
5.278312163512985
 30
0.0
 11
-148.50000000000011
 21
6.0
 31
0.0
  0
LINE
  5
1889
  8
240
  6
CONTINUOUS
 10
-148.50000000000011
 20
-5.9999999999999991
 30
0.0
 11
-149.75000000000011
 21
-5.2783121635129628
 31
0.0
  0
ARC
  5
188A
  8
240
  6
CONTINUOUS
 10
-149.50000000000011
 20
-4.8452994616207441
 30
0.0
 40
0.5
 50
180.0
 51
240.00000000000031
1001
GENIUS_GENOBJ-N-FIL_13
1002
{
1000
OWNER
1000
GEN
1002
}
1001
GENIUS_GENODEF_13
1002
{
1000
HIER
1070
     0
1002
}
1002
{
1000
MANEDIT
1070
     0
1002
}
1002
{
1000
NOSEL
1070
     0
1002
}
1002
{
1000
BEHIND
1070
     0
1002
}
1002
{
1000
OTHER
1070
     0
1002
}
1002
{
1000
REACTOR
1002
}
  0
ARC
  5
188B
  8
240
  6
CONTINUOUS
 10
-149.50000000000011
 20
4.8452994616207636
 30
0.0
 40
0.5
 50
119.9999999999997
 51
180.0
1001
GENIUS_GENOBJ-N-FIL_13
1002
{
1000
OWNER
1000
GEN
1002
}
1001
GENIUS_GENODEF_13
1002
{
1000
HIER
1070
     0
1002
}
1002
{
1000
MANEDIT
1070
     0
1002
}
1002
{
1000
NOSEL
1070
     0
1002
}
1002
{
1000
BEHIND
1070
     0
1002
}
1002
{
1000
OTHER
1070
     0
1002
}
1002
{
1000
REACTOR
1002
}
  0
TEXT
  5
188C
  8
247
 10
-54.63185548466933
 20
1.5940666815083
 30
0.0
 40
2.5
  1
ST12-CBY09013
  7
YOKO
 11
-54.63185548466933
 21
1.5940666815083
 31
0.0
 73
     1
  0
LINE
  5
188D
  8
247
 10
-57.68958124336617
 20
3.9570565768675721
 30
0.0
 11
-57.780870763629864
 21
4.246557767053118
 31
0.0
  0
ARC
  5
188E
  8
247
 10
-57.230581609577122
 20
2.7532983371214841
 30
0.0
 40
1.2882993221282939
 50
110.8721834020772
 51
132.54194893738571
  0
ARC
  5
188F
  8
247
 10
-58.419782964557577
 20
3.6929956027464841
 30
0.0
 40
0.3182875066995621
 50
1.7101213820643839
 51
163.99839835444851
  0
LINE
  5
1890
  8
247
 10
-59.134271947711881
 20
2.356028134484772
 30
0.0
 11
-58.725740758747037
 21
3.7807374545531331
 31
0.0
  0
ARC
  5
1891
  8
247
 10
-58.82831415352242
 20
2.2682977267699211
 30
0.0
 40
0.3182872831821442
 50
164.00027305718399
 51
344.00027305718402
  0
LINE
  5
1892
  8
247
 10
-58.522356359332967
 20
2.1805673190550858
 30
0.0
 11
-58.32770380195992
 21
2.8593965121703189
 31
0.0
  0
LINE
  5
1893
  8
247
 10
-58.579977361530233
 20
2.8593965121703189
 30
0.0
 11
-58.32770380195992
 21
2.8593965121703189
 31
0.0
  0
LINE
  5
1894
  8
247
 10
-58.579977361530233
 20
2.8593965121703189
 30
0.0
 11
-58.493059484332967
 21
3.1625276156859439
 31
0.0
  0
LINE
  5
1895
  8
247
 10
-58.493059484332967
 20
3.1625276156859439
 30
0.0
 11
-57.610090581745077
 21
3.162527615685931
 31
0.0
  0
LINE
  5
1896
  8
247
 10
-58.053388921588827
 20
1.616567785401825
 30
0.0
 11
-57.610090581745077
 21
3.162527615685931
 31
0.0
  0
LINE
  5
1897
  8
247
 10
-58.231207219928677
 20
1.7943746396498721
 30
0.0
 11
-58.053388921588827
 21
1.616567785401825
 31
0.0
  0
ARC
  5
1898
  8
247
 10
-58.795767156452108
 20
2.6017327853636711
 30
0.0
 40
0.9851760864257813
 50
163.99975070172741
 51
304.96387329163082
  0
ARC
  5
1899
  8
247
 10
-57.185057012409139
 20
2.5499368258910158
 30
0.0
 40
2.5780792236328121
 50
155.20517736984209
 51
172.79482596205051
  0
ARC
  5
189A
  8
247
 10
-58.578466741413052
 20
3.3595605441527341
 30
0.0
 40
0.9851660728454588
 50
53.444012197055507
 51
164.00018438768529
  0
ARC
  5
189B
  8
247
 10
-57.230581609577122
 20
2.7532983371214841
 30
0.0
 40
1.5914275646209699
 50
110.22964506332001
 51
118.57168892371671
  0
LINE
  5
189C
  8
247
 10
-62.758100835651327
 20
4.344725186486726
 30
0.0
 11
-62.845018712848592
 21
4.041594082971101
 31
0.0
  0
LINE
  5
189D
  8
247
 10
-63.384104101032193
 20
4.344725186486726
 30
0.0
 11
-62.758100835651327
 21
4.344725186486726
 31
0.0
  0
LINE
  5
189E
  8
247
 10
-63.384104101032193
 20
4.041594082971101
 30
0.0
 11
-62.845018712848592
 21
4.041594082971101
 31
0.0
  0
ARC
  5
189F
  8
247
 10
-63.384104101032193
 20
2.7532983371214841
 30
0.0
 40
1.2882957458496089
 50
90.0
 51
270.0
  0
ARC
  5
18A0
  8
247
 10
-63.384104101032193
 20
2.7532983371214841
 30
0.0
 40
1.5914268493652339
 50
90.0
 51
270.0
  0
LINE
  5
18A1
  8
247
 10
-63.384104101032193
 20
1.161871137929807
 30
0.0
 11
-57.230581609577122
 21
1.161871137929793
 31
0.0
  0
LINE
  5
18A2
  8
247
 10
-63.384104101032193
 20
1.4650022336440141
 30
0.0
 11
-57.230581609577122
 21
1.4650022336440001
 31
0.0
  0
ARC
  5
18A3
  8
247
 10
-57.230581609577122
 20
2.7532983371214841
 30
0.0
 40
1.5914268493652339
 50
270.0
 51
104.7707939660941
  0
ARC
  5
18A4
  8
247
 10
-57.230581609577122
 20
2.7532983371214841
 30
0.0
 40
1.2882957458496089
 50
270.0
 51
104.1274364964119
  0
LINE
  5
18A5
  8
247
 10
-57.545030919879842
 20
4.0026383944945252
 30
0.0
 11
-57.636320440143528
 21
4.2921395846800721
 31
0.0
  0
LINE
  5
18A6
  8
247
 10
-60.371172277301717
 20
1.616567785401825
 30
0.0
 11
-59.588888494342733
 21
4.344725186486726
 31
0.0
  0
LINE
  5
18A7
  8
247
 10
-63.225042669147399
 20
1.616567785401825
 30
0.0
 11
-62.52967676338605
 21
4.0415940829702199
 31
0.0
  0
LINE
  5
18A8
  8
247
 10
-61.861082318170048
 20
2.5017909829585951
 30
0.0
 11
-60.867102642238613
 21
3.4957706588900228
 31
0.0
  0
LINE
  5
18A9
  8
247
 10
-63.011349883126819
 20
2.3618022316221068
 30
0.0
 11
-61.95026067886694
 21
3.42289143588195
 31
0.0
  0
ARC
  5
18AA
  8
247
 10
-61.957609502643528
 20
3.6172128268675778
 30
0.0
 40
0.4546839594841005
 50
261.66260168792928
 51
66.338155095189776
  0
LINE
  5
18AB
  8
247
 10
-61.978635167988529
 20
2.720997737680193
 30
0.0
 11
-60.893886960388812
 21
3.8057459452799089
 31
0.0
  0
ARC
  5
18AC
  8
247
 10
-61.619425145954061
 20
3.5869088717894528
 30
0.0
 40
0.7578227519989014
 50
287.66957754739792
 51
90.236159842671626
  0
LINE
  5
18AD
  8
247
 10
-62.87596426144983
 20
2.833947457839173
 30
0.0
 11
-61.814879525897091
 21
3.8950321933919261
 31
0.0
  0
LINE
  5
18AE
  8
247
 10
-61.775126377075452
 20
4.0336710023126434
 30
0.0
 11
-62.023538908590432
 21
3.1673341582872458
 31
0.0
  0
LINE
  5
18AF
  8
247
 10
-61.04916605171578
 20
1.616567785401825
 30
0.0
 11
-60.36248621162791
 21
4.011290127892976
 31
0.0
  0
LINE
  5
18B0
  8
247
 10
-60.377249090045872
 20
4.344725186486726
 30
0.0
 11
-59.588888494342733
 21
4.344725186486726
 31
0.0
  0
LINE
  5
18B1
  8
247
 10
-61.71081923972725
 20
3.9990924795617659
 30
0.0
 11
-61.398191760092899
 21
4.3117199591960951
 31
0.0
  0
LINE
  5
18B2
  8
247
 10
-61.551485953578961
 20
3.8216661611699561
 30
0.0
 11
-61.17350387003593
 21
4.1996482447129884
 31
0.0
  0
LINE
  5
18B3
  8
247
 10
-62.600435582965623
 20
4.344725186486726
 30
0.0
 11
-61.622548705781043
 21
4.3447251864866132
 31
0.0
  0
LINE
  5
18B4
  8
247
 10
-62.605193018095903
 20
3.778237910273333
 30
0.0
 11
-62.038705741882517
 21
4.3447251864866701
 31
0.0
  0
LINE
  5
18B5
  8
247
 10
-62.687353460163393
 20
4.041594082971101
 30
0.0
 11
-62.52967676338605
 21
4.0415940829702199
 31
0.0
  0
LINE
  5
18B6
  8
247
 10
-62.600435582965623
 20
4.344725186486726
 30
0.0
 11
-62.687353460163393
 21
4.041594082971101
 31
0.0
  0
LINE
  5
18B7
  8
247
 10
-62.678596449938233
 20
4.0415940829710726
 30
0.0
 11
-62.375465346422608
 21
4.3447251864866976
 31
0.0
  0
LINE
  5
18B8
  8
247
 10
-61.512633152603449
 20
3.5237593576053978
 30
0.0
 11
-61.00537251503745
 21
4.0310199951713912
 31
0.0
  0
LINE
  5
18B9
  8
247
 10
-62.740578639772863
 20
3.3060926840562379
 30
0.0
 11
-61.701946137342468
 21
4.3447251864866132
 31
0.0
  0
LINE
  5
18BA
  8
247
 10
-60.472864477008763
 20
4.011290127892976
 30
0.0
 11
-60.36248621162791
 21
4.011290127892976
 31
0.0
  0
LINE
  5
18BB
  8
247
 10
-60.472864477008763
 20
4.011290127892976
 30
0.0
 11
-60.377249090045872
 21
4.344725186486726
 31
0.0
  0
LINE
  5
18BC
  8
247
 10
-62.40954591118674
 20
1.616567785401825
 30
0.0
 11
-61.297288971329039
 21
2.7288247252595279
 31
0.0
  0
ARC
  5
18BD
  8
247
 10
-61.967108098834927
 20
2.3743844577269542
 30
0.0
 40
0.7578163146972659
 50
270.0
 51
40.329840654168343
  0
LINE
  5
18BE
  8
247
 10
-62.072786306646641
 20
1.6165677854017979
 30
0.0
 11
-61.215807589287643
 21
2.4735465027608252
 31
0.0
  0
LINE
  5
18BF
  8
247
 10
-63.146735504803779
 20
1.889657005405041
 30
0.0
 11
-61.864156033381327
 21
3.1722364768274911
 31
0.0
  0
ARC
  5
18C0
  8
247
 10
-62.305292455524388
 20
2.404699856896876
 30
0.0
 40
0.4546969681978227
 50
261.66285421114878
 51
66.338192159110037
  0
LINE
  5
18C1
  8
247
 10
-62.122805712031131
 20
2.821170649795361
 30
0.0
 11
-62.371222330246177
 21
1.954808109353706
 31
0.0
  0
LINE
  5
18C2
  8
247
 10
-63.08306512026693
 20
1.616567785401825
 30
0.0
 11
-62.22103271358327
 21
2.4786001920854801
 31
0.0
  0
LINE
  5
18C3
  8
247
 10
-61.679209144594353
 20
1.6733853429140011
 30
0.0
 11
-61.266108984021997
 21
2.0864855034863581
 31
0.0
  0
LINE
  5
18C4
  8
247
 10
-63.225042669147399
 20
1.616567785401825
 30
0.0
 11
-61.967108098834927
 21
1.616567785401825
 31
0.0
  0
LINE
  5
18C5
  8
247
 10
-62.746305515726839
 20
1.616567785401825
 30
0.0
 11
-62.356411359355192
 21
2.0064619417734941
 31
0.0
  0
LINE
  5
18C6
  8
247
 10
-61.04916605171578
 20
1.616567785401825
 30
0.0
 11
-60.371172277301717
 21
1.616567785401825
 31
0.0
  0
ENDBLK
  5
18C9
  8
0
  0
ENDSEC
  0
SECTION
  2
ENTITIES
  0
TEXT
  5
1461
  8
241
 10
-147.0
 20
42.0
 30
0.0
 40
5.0
  1
ST12-CBY09013
  7
YOKO
  0
LINE
  5
1743
  8
250
 10
16.333333333333329
 20
-21.0
 30
0.0
 11
-7.0
 21
-21.0
 31
0.0
  0
LINE
  5
1744
  8
250
 10
-7.0
 20
-21.0
 30
0.0
 11
-9.7455422765516424
 21
-8.6766343806006532
 31
0.0
  0
LINE
  5
1745
  8
250
 10
-9.7455422765516424
 20
-8.6766343806006532
 30
0.0
 11
-10.230478120955009
 21
-6.5
 31
0.0
  0
LINE
  5
1746
  8
250
 10
-9.458982925289515
 20
-8.6127913658001454
 30
0.0
 11
-10.230478120955009
 21
-6.5
 31
0.0
  0
LINE
  5
1747
  8
250
 10
-10.230478120955009
 20
-6.5
 30
0.0
 11
-10.032101627813759
 21
-8.7404773954011592
 31
0.0
  0
LINE
  5
1749
  8
250
 10
0.3535533905932831
 20
-0.3535533905932644
 30
0.0
 11
10.60660171779849
 21
-10.606601717797931
 31
0.0
  0
LINE
  5
174A
  8
250
 10
0.3535533905932829
 20
0.3535533905932645
 30
0.0
 11
10.60660171779849
 21
10.606601717797931
 31
0.0
  0
ARC
  5
174B
  8
250
 10
0.0
 20
0.0
 30
0.0
 40
14.0
 50
324.13607491042171
 51
35.863925089578387
  0
LINE
  5
174F
  8
250
 10
-6.0000000000003411
 20
6.5
 30
0.0
 11
22.0
 21
6.499999999999992
 31
0.0
  0
LINE
  5
1750
  8
250
 10
-6.0000000000004103
 20
-6.5000000000000711
 30
0.0
 11
22.0
 21
-6.500000000000079
 31
0.0
  0
LINE
  5
1751
  8
250
 10
21.0
 20
4.2699999999999898
 30
0.0
 11
21.0
 21
-4.2700000000000768
 31
0.0
  0
LINE
  5
1755
  8
250
 10
-150.00000000000011
 20
5.3452994616207636
 30
0.0
 11
-150.00000000000011
 21
29.0
 31
0.0
  0
LINE
  5
1756
  8
250
 10
-0.0000000000000017
 20
0.4999999999999984
 30
0.0
 11
0.0000000000000001
 21
29.0
 31
0.0
  0
LINE
  5
1757
  8
250
 10
-147.7700000000001
 20
28.0
 30
0.0
 11
-2.2299999999999991
 21
28.0
 31
0.0
  0
LINE
  5
175B
  8
250
 10
-149.00000000000011
 20
6.0
 30
0.0
 11
-162.0
 21
6.0000000000000044
 31
0.0
  0
LINE
  5
175C
  8
250
 10
-149.00000000000011
 20
-5.9999999999999991
 30
0.0
 11
-162.0
 21
-5.9999999999999929
 31
0.0
  0
LINE
  5
175D
  8
250
 10
-161.0
 20
3.770000000000004
 30
0.0
 11
-161.0
 21
-3.7699999999999951
 31
0.0
  0
TEXT
  5
1761
  8
250
 10
-162.0
 20
-3.800000000000018
 30
0.0
 40
2.799999999999998
  1
\U+220512
 50
90.0
1001
ACAD
1000
MTEXTBEGIN
1070
    73
1070
     1
1070
    44
1040
1.0
1070
    74
1070
     0
1000
MTEXTEND
  0
LINE
  5
1762
  8
250
 10
-160.6283333333333
 20
-3.769999999999996
 30
0.0
 11
-161.0
 21
-5.9999999999999947
 31
0.0
  0
LINE
  5
1763
  8
250
 10
-161.37166666666661
 20
-3.769999999999996
 30
0.0
 11
-161.0
 21
-5.9999999999999947
 31
0.0
  0
LINE
  5
1764
  8
250
 10
-161.0
 20
-5.9999999999999947
 30
0.0
 11
-161.0
 21
-3.769999999999996
 31
0.0
  0
LINE
  5
1765
  8
250
 10
-161.37166666666661
 20
3.770000000000004
 30
0.0
 11
-161.0
 21
6.0000000000000027
 31
0.0
  0
LINE
  5
1766
  8
250
 10
-160.6283333333333
 20
3.770000000000004
 30
0.0
 11
-161.0
 21
6.0000000000000027
 31
0.0
  0
LINE
  5
1767
  8
250
 10
-161.0
 20
6.0000000000000027
 30
0.0
 11
-161.0
 21
3.770000000000004
 31
0.0
  0
TEXT
  5
1768
  8
250
 10
-79.20000000000006
 20
29.0
 30
0.0
 40
2.799999999999998
  1
150
1001
ACAD
1000
MTEXTBEGIN
1070
    73
1070
     1
1070
    44
1040
1.0
1070
    74
1070
     0
1000
MTEXTEND
  0
LINE
  5
1769
  8
250
 10
-2.2299999999999991
 20
28.371666666666659
 30
0.0
 11
0.0
 21
28.0
 31
0.0
  0
LINE
  5
176A
  8
250
 10
-2.2299999999999991
 20
27.62833333333333
 30
0.0
 11
0.0
 21
28.0
 31
0.0
  0
LINE
  5
176B
  8
250
 10
0.0
 20
28.0
 30
0.0
 11
-2.2299999999999991
 21
28.0
 31
0.0
  0
LINE
  5
176C
  8
250
 10
-147.7700000000001
 20
27.62833333333333
 30
0.0
 11
-150.00000000000011
 21
28.0
 31
0.0
  0
LINE
  5
176D
  8
250
 10
-147.7700000000001
 20
28.371666666666659
 30
0.0
 11
-150.00000000000011
 21
28.0
 31
0.0
  0
LINE
  5
176E
  8
250
 10
-150.00000000000011
 20
28.0
 30
0.0
 11
-147.7700000000001
 21
28.0
 31
0.0
  0
TEXT
  5
176F
  8
250
 10
20.000000000000011
 20
-3.800000000000038
 30
0.0
 40
2.799999999999998
  1
\U+220513
 50
90.0
1001
ACAD
1000
MTEXTBEGIN
1070
    73
1070
     1
1070
    44
1040
1.0
1070
    74
1070
     0
1000
MTEXTEND
  0
LINE
  5
1770
  8
250
 10
21.37166666666667
 20
-4.2700000000000786
 30
0.0
 11
21.0
 21
-6.500000000000079
 31
0.0
  0
LINE
  5
1771
  8
250
 10
20.62833333333333
 20
-4.2700000000000786
 30
0.0
 11
21.0
 21
-6.500000000000079
 31
0.0
  0
LINE
  5
1772
  8
250
 10
21.0
 20
-6.500000000000079
 30
0.0
 11
21.0
 21
-4.2700000000000786
 31
0.0
  0
LINE
  5
1773
  8
250
 10
20.62833333333333
 20
4.2699999999999916
 30
0.0
 11
21.0
 21
6.499999999999992
 31
0.0
  0
LINE
  5
1774
  8
250
 10
21.37166666666667
 20
4.2699999999999916
 30
0.0
 11
21.0
 21
6.499999999999992
 31
0.0
  0
LINE
  5
1775
  8
250
 10
21.0
 20
6.499999999999992
 30
0.0
 11
21.0
 21
4.2699999999999916
 31
0.0
  0
TEXT
  5
1776
  8
250
 10
12.999999999999989
 20
-4.5466666666666669
 30
0.0
 40
2.799999999999998
  1
90üï
 50
90.0
1001
ACAD
1000
MTEXTBEGIN
1070
    73
1070
     1
1070
    44
1040
1.0
1070
    74
1070
     0
1000
MTEXTEND
  0
LINE
  5
1777
  8
250
 10
11.062845469261591
 20
7.9610286229255447
 30
0.0
 11
9.8994949366119247
 21
9.899494936611406
 31
0.0
  0
LINE
  5
1778
  8
250
 10
11.62865343409756
 20
8.4431134612814294
 30
0.0
 11
9.8994949366119247
 21
9.899494936611406
 31
0.0
  0
LINE
  5
1779
  8
250
 10
9.8994949366119247
 20
9.899494936611406
 30
0.0
 11
11.34574945167957
 21
8.202071042103487
 31
0.0
  0
LINE
  5
177A
  8
250
 10
11.62865343409756
 20
-8.4431134612814311
 30
0.0
 11
9.8994949366119247
 21
-9.8994949366114042
 31
0.0
  0
LINE
  5
177B
  8
250
 10
11.062845469261591
 20
-7.9610286229255456
 30
0.0
 11
9.8994949366119247
 21
-9.8994949366114042
 31
0.0
  0
LINE
  5
177C
  8
250
 10
9.8994949366119247
 20
-9.8994949366114042
 30
0.0
 11
11.34574945167958
 21
-8.2020710421034888
 31
0.0
  0
TEXT
  5
177D
  8
250
 10
-4.5999999999999996
 20
-19.600000000000001
 30
0.0
 40
2.799999999999998
  1
CBY09013
  7
ACJISTS
1001
ACAD
1000
MTEXTBEGIN
1070
    73
1070
     1
1070
    44
1040
1.0
1070
    74
1070
     0
1000
MTEXTEND
  0
INSERT
  5
18CA
  8
240
  2
A$C7D440B5C
 10
0.0
 20
0.0
 30
0.0
  0
VIEWPORT
  5
22
 67
     1
  8
0
 10
261.51769911504419
 20
148.5
 30
0.0
 40
523.0353982300885
 41
297.0
 68
     1
 69
     1
1001
ACAD
1000
MVIEW
1002
{
1070
    16
1010
0.0
1020
0.0
1030
0.0
1010
0.0
1020
0.0
1030
1.0
1040
0.0
1040
297.0
1040
261.51769911504419
1040
148.5
1040
50.0
1040
0.0
1040
0.0
1070
     0
1070
   100
1070
     1
1070
     1
1070
     0
1070
     0
1070
     0
1070
     0
1040
0.0
1040
0.0
1040
0.0
1040
1.0
1040
1.0
1040
10.0
1040
10.0
1070
     0
1002
{
1002
}
1002
}
1001
GENIUS_GENODEF_13
1002
{
1000
HIER
1070
     0
1002
}
1002
{
1000
MANEDIT
1070
     0
1002
}
1002
{
1000
NOSEL
1070
     0
1002
}
1002
{
1000
BEHIND
1070
     0
1002
}
1002
{
1000
OTHER
1070
     0
1002
}
1002
{
1000
REACTOR
1002
}
1001
GENIUS_GENOBJ-N-SDF_13
1002
{
1000
OWNER
1000
GEN
1002
}
1001
GENIUS_GENSCREG_15
1000
PF
1040
1.0
1000
DF
1040
1.0
1000
MIN
1011
0.0
1021
0.0
1031
0.0
1021
0.0
1031
0.0
1000
MAX
1011
523.0353982300885
1021
0.0
1031
0.0
1021
297.0
1031
0.0
1000
FLAGS
1070
     2
  0
ENDSEC
  0
EOF
