  0
SECTION
  2
HEADER
  9
$ACADVER
  1
AC1009
  9
$INSBASE
 10
0.0
 20
0.0
 30
0.0
  9
$EXTMIN
 10
-124.0
 20
-29.0
 30
0.0
  9
$EXTMAX
 10
16.002216386855789
 20
25.78757907315202
 30
0.0
  9
$LIMMIN
 10
0.0
 20
0.0
  9
$LIMMAX
 10
297.0
 20
210.0
  9
$ORTHOMODE
 70
     0
  9
$REGENMODE
 70
     1
  9
$FILLMODE
 70
     1
  9
$QTEXTMODE
 70
     0
  9
$MIRRTEXT
 70
     1
  9
$DRAGMODE
 70
     2
  9
$LTSCALE
 40
10.0
  9
$OSMODE
 70
  2799
  9
$ATTMODE
 70
     1
  9
$TEXTSIZE
 40
3.0
  9
$TRACEWID
 40
1.0
  9
$TEXTSTYLE
  7
YOKO
  9
$CLAYER
  8
240
  9
$CELTYPE
  6
BYLAYER
  9
$CECOLOR
 62
   256
  9
$DIMSCALE
 40
1.0
  9
$DIMASZ
 40
2.2299999999999991
  9
$DIMEXO
 40
0.5
  9
$DIMDLI
 40
7.0
  9
$DIMRND
 40
0.0
  9
$DIMDLE
 40
0.0
  9
$DIMEXE
 40
1.0
  9
$DIMTP
 40
0.0
  9
$DIMTM
 40
0.01
  9
$DIMTXT
 40
2.799999999999998
  9
$DIMCEN
 40
0.0
  9
$DIMTSZ
 40
0.0
  9
$DIMTOL
 70
     0
  9
$DIMLIM
 70
     0
  9
$DIMTIH
 70
     0
  9
$DIMTOH
 70
     0
  9
$DIMSE1
 70
     0
  9
$DIMSE2
 70
     0
  9
$DIMTAD
 70
     3
  9
$DIMZIN
 70
     9
  9
$DIMBLK
  1
OPEN
  9
$DIMASO
 70
     1
  9
$DIMSHO
 70
     1
  9
$DIMPOST
  1

  9
$DIMAPOST
  1

  9
$DIMALT
 70
     0
  9
$DIMALTD
 70
     2
  9
$DIMALTF
 40
25.399999999999999
  9
$DIMLFAC
 40
1.0
  9
$DIMTOFL
 70
     1
  9
$DIMTVP
 40
0.0
  9
$DIMTIX
 70
     1
  9
$DIMSOXD
 70
     0
  9
$DIMSAH
 70
     0
  9
$DIMBLK1
  1

  9
$DIMBLK2
  1

  9
$DIMSTYLE
  2
BIGT
  9
$DIMCLRD
 70
   256
  9
$DIMCLRE
 70
   256
  9
$DIMCLRT
 70
    40
  9
$DIMTFAC
 40
1.0
  9
$DIMGAP
 40
1.0
  9
$LUNITS
 70
     2
  9
$LUPREC
 70
     3
  9
$SKETCHINC
 40
1.0
  9
$FILLETRAD
 40
0.0
  9
$AUNITS
 70
     0
  9
$AUPREC
 70
     3
  9
$MENU
  1
.
  9
$ELEVATION
 40
0.0
  9
$PELEVATION
 40
0.0
  9
$THICKNESS
 40
0.0
  9
$LIMCHECK
 70
     0
  9
$BLIPMODE
 70
     0
  9
$CHAMFERA
 40
0.25
  9
$CHAMFERB
 40
0.25
  9
$SKPOLY
 70
     0
  9
$TDCREATE
 40
2454089.7845382062
  9
$TDUPDATE
 40
2454809.4338302892
  9
$TDINDWG
 40
0.0361606597
  9
$TDUSRTIMER
 40
0.0361601157
  9
$USRTIMER
 70
     1
  9
$ANGBASE
 50
0.0
  9
$ANGDIR
 70
     0
  9
$PDMODE
 70
     1
  9
$PDSIZE
 40
0.0
  9
$PLINEWID
 40
0.0
  9
$COORDS
 70
     0
  9
$SPLFRAME
 70
     0
  9
$SPLINETYPE
 70
     6
  9
$SPLINESEGS
 70
     4
  9
$ATTDIA
 70
     1
  9
$ATTREQ
 70
     1
  9
$HANDLING
 70
     1
  9
$HANDSEED
  5
1DF3
  9
$SURFTAB1
 70
     6
  9
$SURFTAB2
 70
     6
  9
$SURFTYPE
 70
     6
  9
$SURFU
 70
     6
  9
$SURFV
 70
     6
  9
$UCSNAME
  2

  9
$UCSORG
 10
0.0
 20
0.0
 30
0.0
  9
$UCSXDIR
 10
1.0
 20
0.0
 30
0.0
  9
$UCSYDIR
 10
0.0
 20
1.0
 30
0.0
  9
$PUCSNAME
  2

  9
$PUCSORG
 10
0.0
 20
0.0
 30
0.0
  9
$PUCSXDIR
 10
1.0
 20
0.0
 30
0.0
  9
$PUCSYDIR
 10
0.0
 20
1.0
 30
0.0
  9
$USERI1
 70
     1
  9
$USERI2
 70
     0
  9
$USERI3
 70
     0
  9
$USERI4
 70
     0
  9
$USERI5
 70
     0
  9
$USERR1
 40
0.0
  9
$USERR2
 40
0.0
  9
$USERR3
 40
0.0
  9
$USERR4
 40
0.0
  9
$USERR5
 40
0.0
  9
$WORLDVIEW
 70
     1
  9
$SHADEDGE
 70
     3
  9
$SHADEDIF
 70
    70
  9
$TILEMODE
 70
     1
  9
$MAXACTVP
 70
    16
  9
$PLIMCHECK
 70
     0
  9
$PEXTMIN
 10
1.0000000000000000E+020
 20
1.0000000000000000E+020
 30
1.0000000000000000E+020
  9
$PEXTMAX
 10
-1.0000000000000000E+020
 20
-1.0000000000000000E+020
 30
-1.0000000000000000E+020
  9
$PLIMMIN
 10
0.0
 20
0.0
  9
$PLIMMAX
 10
420.0
 20
297.0
  9
$UNITMODE
 70
     0
  9
$VISRETAIN
 70
     1
  9
$PLINEGEN
 70
     0
  9
$PSLTSCALE
 70
     1
  0
ENDSEC
  0
SECTION
  2
TABLES
  0
TABLE
  2
VPORT
 70
     3
  0
VPORT
  2
*ACTIVE
 70
     0
 10
0.0
 20
0.0
 11
1.0
 21
1.0
 12
-53.99566838986749
 22
-1.6036298750772671
 13
0.0
 23
0.0
 14
7.0
 24
7.0
 15
7.0
 25
7.0
 16
0.0
 26
0.0
 36
1.0
 17
0.0
 27
0.0
 37
0.0
 40
90.827266895510689
 41
1.5487804878048781
 42
50.0
 43
0.0
 44
0.0
 50
0.0
 51
0.0
 71
     0
 72
  2000
 73
     1
 74
     0
 75
     0
 76
     0
 77
     0
 78
     0
  0
ENDTAB
  0
TABLE
  2
LTYPE
 70
    16
  0
LTYPE
  2
CONTINUOUS
 70
     0
  3
Solid line
 72
    65
 73
     0
 40
0.0
  0
LTYPE
  2
CENTER2
 70
     0
  3
___ _ ___ _ ___ _ ___ _ ___ _ ___ _ ___ _ ___ _
 72
    65
 73
     4
 40
1.125
 49
0.75
 49
-0.125
 49
0.125
 49
-0.125
  0
LTYPE
  2
HIDDEN2
 70
     0
  3
_ _ _ _ _ _ _ _ _ _ _ _ _ _ _ _ _ _ _ _ _ _ _ _
 72
    65
 73
     2
 40
0.1875
 49
0.125
 49
-0.0625
  0
LTYPE
  2
PHANTOM2
 70
     0
  3
___ _ _ ___ _ _ ___ _ _ ___ _ _ ___ _ _ ___ _ _
 72
    65
 73
     6
 40
1.25
 49
0.625
 49
-0.125
 49
0.125
 49
-0.125
 49
0.125
 49
-0.125
  0
LTYPE
  2
CENTER
 70
     0
  3
____ _ ____ _ ____ _ ____ _ ____ _ ____ _ ____ 
 72
    65
 73
     4
 40
2.0
 49
1.25
 49
-0.25
 49
0.25
 49
-0.25
  0
LTYPE
  2
AMCONSTR
 70
     0
  3
_______________________
 72
    65
 73
     2
 40
9999.0
 49
9999.0
 49
0.0
  0
LTYPE
  2
HIDDEN
 70
     0
  3
Hidden __ __ __ __ __ __ __ __ __ __ __ __ __ _
 72
    65
 73
     2
 40
9.5249999999999986
 49
6.3499999999999979
 49
-3.174999999999998
  0
LTYPE
  2
AMZIGZAG2
 70
     0
  3
/\/-/\/-/\/-/\/-/\/-/\/
 72
    65
 73
     2
 40
0.4401
 49
0.0001
 49
-0.4400000000000001
  0
LTYPE
  2
ACANSTGB
 70
     0
  3
__ . . __ . .
 72
    65
 73
     6
 40
0.35433070866
 49
0.15748031496
 49
-0.03937007874
 49
0.03937007874
 49
-0.03937007874
 49
0.03937007874
 49
-0.03937007874
  0
LTYPE
  2
ACANSTGL
 70
     0
  3
_ _ _ _ _
 72
    65
 73
     2
 40
0.11811023622
 49
0.07874015748
 49
-0.03937007874
  0
ENDTAB
  0
TABLE
  2
LAYER
 70
     8
  0
LAYER
  2
0
 70
     0
 62
     7
  6
CONTINUOUS
  0
LAYER
  2
240
 70
     0
 62
     4
  6
CONTINUOUS
  0
LAYER
  2
DEFPOINTS
 70
     0
 62
     7
  6
CONTINUOUS
  0
LAYER
  2
245
 70
     0
 62
     2
  6
CENTER2
  0
LAYER
  2
241
 70
     0
 62
   211
  6
CONTINUOUS
  0
LAYER
  2
246
 70
     0
 62
     3
  6
PHANTOM2
  0
LAYER
  2
247
 70
     0
 62
    60
  6
CONTINUOUS
  0
LAYER
  2
250
 70
     0
 62
     3
  6
CONTINUOUS
  0
ENDTAB
  0
TABLE
  2
STYLE
 70
     5
  0
STYLE
  2
STANDARD
 70
     0
 40
0.0
 41
1.0
 50
0.0
 71
     0
 42
3.0
  3
romans.shx
  4
extfont.shx
  0
STYLE
  2
YOKO
 70
     0
 40
0.0
 41
1.0
 50
0.0
 71
     0
 42
3.0
  3
romans.shx
  4
extfont.shx
  0
STYLE
  2

 70
     1
 40
0.0
 41
1.0
 50
0.0
 71
     0
 42
3.0
  3
ltypeshp.shx
  4

  0
STYLE
  2
ACANSTS
 70
     0
 40
1.0
 41
1.0
 50
0.0
 71
     0
 42
3.0
  3
romans.shx
  4
extfont.shx
  0
STYLE
  2
ACANSGDT
 70
     0
 40
0.0
 41
1.0
 50
0.0
 71
     0
 42
3.0
  3
amgdtans.shx
  4

  0
ENDTAB
  0
TABLE
  2
VIEW
 70
     0
  0
ENDTAB
  0
TABLE
  2
UCS
 70
     0
  0
ENDTAB
  0
TABLE
  2
APPID
 70
    30
  0
APPID
  2
ACAD
 70
     0
  0
APPID
  2
GLOBAL
 70
     0
  0
APPID
  2
DETAIL
 70
     0
  0
APPID
  2
GRPNAME
 70
     0
  0
APPID
  2
GPARA
 70
     0
  0
APPID
  2
MCAD_NO_VIS
 70
     0
  0
APPID
  2
ACAD_TEMP_GRAPHIC
 70
     0
  0
APPID
  2
ACATTRIBSERVICES
 70
     0
  0
APPID
  2
GENIUS_GENSCREG_15
 70
     0
  0
APPID
  2
GENIUS_GENODEF_13
 70
     0
  0
APPID
  2
GENIUS_GENOBJ-N-SDF_13
 70
     0
  0
APPID
  2
GENIUS_GENREC_14
 70
     0
  0
APPID
  2
GENIUS_GENOBJ-N-REC_13
 70
     0
  0
APPID
  2
GENIUS_GENDIMSH_14
 70
     0
  0
APPID
  2
GENIUS_GENOBJ-N-DIM_13
 70
     0
  0
APPID
  2
GENIUS_GENDIM_13
 70
     0
  0
APPID
  2
GENIUS_GENDTOL_13
 70
     0
  0
APPID
  2
GENIUS_GENOLIS_13
 70
     0
  0
APPID
  2
GENIUS_GENOENT_13
 70
     0
  0
APPID
  2
GENIUS_GENOBJ-F-FEM_13
 70
     0
  0
APPID
  2
GENIUS_GENOREF_13
 70
     0
  0
APPID
  2
GENIUS_GEFFEM_13
 70
     0
  0
APPID
  2
GENIUS_GEFFEMP_13
 70
     0
  0
APPID
  2
AD_DRAW
 70
     0
  0
APPID
  2
DESIGNERASSEMBLIES
 70
     0
  0
APPID
  2
ACADM_DIM_EDIT
 70
     0
  0
APPID
  2
AMDT_DM_ADJ
 70
     0
  0
APPID
  2
HATCH_TYPE
 70
     0
  0
APPID
  2
HATCH_DISPLAY
 70
     0
  0
APPID
  2
HATCH_DISTANCE
 70
     0
  0
ENDTAB
  0
TABLE
  2
DIMSTYLE
 70
     7
  0
DIMSTYLE
  2
BIGT
 70
     0
  3

  4

  5

  6

  7

 40
1.0
 41
2.2299999999999991
 42
0.5
 43
7.0
 44
1.0
 45
0.0
 46
0.0
 47
0.0
 48
0.01
140
2.799999999999998
141
0.0
142
0.0
143
25.399999999999999
144
1.0
145
0.0
146
1.0
147
1.0
 71
     0
 72
     0
 73
     0
 74
     0
 75
     0
 76
     0
 77
     3
 78
     9
170
     0
171
     2
172
     1
173
     0
174
     1
175
     0
176
   256
177
   256
178
    40
  0
DIMSTYLE
  2
AM_ANSI
 70
     0
  3

  4
mm
  5

  6

  7

 40
1.0
 41
0.1
 42
0.05
 43
0.5
 44
0.1
 45
0.0
 46
0.0
 47
0.1
 48
0.1
140
0.12
141
0.0
142
0.0
143
25.399999999999999
144
1.0
145
0.0
146
0.71
147
0.06
 71
     0
 72
     0
 73
     1
 74
     1
 75
     0
 76
     0
 77
     0
 78
     7
170
     0
171
     2
172
     0
173
     0
174
     0
175
     0
176
   256
177
   256
178
     2
  0
DIMSTYLE
  2
AM_ANSI$3
 70
     0
  3

  4
mm
  5

  6

  7

 40
1.0
 41
0.1
 42
0.05
 43
0.5
 44
0.1
 45
0.0
 46
0.0
 47
0.1
 48
0.1
140
0.12
141
0.0
142
0.0
143
25.399999999999999
144
1.0
145
0.0
146
0.71
147
0.06
 71
     0
 72
     0
 73
     1
 74
     1
 75
     0
 76
     0
 77
     0
 78
     7
170
     0
171
     2
172
     0
173
     0
174
     0
175
     0
176
   256
177
   256
178
     2
  0
DIMSTYLE
  2
AM_ANSI$4
 70
     0
  3

  4
mm
  5

  6

  7

 40
1.0
 41
0.1
 42
0.05
 43
0.5
 44
0.1
 45
0.0
 46
0.0
 47
0.1
 48
0.1
140
0.12
141
0.0
142
0.0
143
25.399999999999999
144
1.0
145
0.0
146
0.71
147
0.06
 71
     0
 72
     0
 73
     1
 74
     1
 75
     0
 76
     0
 77
     0
 78
     7
170
     0
171
     2
172
     0
173
     0
174
     0
175
     0
176
   256
177
   256
178
     2
  0
DIMSTYLE
  2
AM_ANSI$7
 70
     0
  3

  4
mm
  5

  6

  7

 40
1.0
 41
0.1
 42
0.05
 43
0.5
 44
0.1
 45
0.0
 46
0.0
 47
0.1
 48
0.1
140
0.24
141
0.0
142
0.0
143
25.399999999999999
144
1.0
145
0.0
146
0.71
147
0.06
 71
     0
 72
     0
 73
     1
 74
     1
 75
     0
 76
     0
 77
     0
 78
     7
170
     0
171
     2
172
     0
173
     0
174
     0
175
     0
176
   256
177
   256
178
     2
  0
DIMSTYLE
  2
AM_ANSI$SF
 70
     0
  3

  4
mm
  5

  6

  7

 40
1.0
 41
0.1
 42
0.05
 43
0.5
 44
0.1
 45
0.0
 46
0.0
 47
0.1
 48
0.1
140
0.12
141
0.0
142
0.0
143
25.399999999999999
144
1.0
145
0.0
146
0.71
147
0.06
 71
     0
 72
     0
 73
     1
 74
     1
 75
     1
 76
     1
 77
     0
 78
     7
170
     0
171
     2
172
     0
173
     0
174
     0
175
     0
176
   256
177
   256
178
     2
  0
DIMSTYLE
  2
AM_ANSI$SH
 70
     0
  3

  4
mm
  5

  6
GENAXEH
  7

 40
1.0
 41
0.1
 42
0.05
 43
0.5
 44
0.1
 45
0.0
 46
0.0
 47
0.1
 48
0.1
140
0.12
141
0.0
142
0.0
143
25.399999999999999
144
1.0
145
0.0
146
0.71
147
0.06
 71
     0
 72
     0
 73
     1
 74
     1
 75
     1
 76
     1
 77
     0
 78
     7
170
     0
171
     2
172
     0
173
     1
174
     0
175
     0
176
   256
177
   256
178
     2
  0
ENDTAB
  0
ENDSEC
  0
SECTION
  2
BLOCKS
  0
BLOCK
  8
0
  2
$MODEL_SPACE
 70
     0
 10
0.0
 20
0.0
 30
0.0
  3
$MODEL_SPACE
  1

  0
ENDBLK
  5
1936
  8
0
  0
BLOCK
 67
     1
  8
0
  2
$PAPER_SPACE
 70
     0
 10
0.0
 20
0.0
 30
0.0
  3
$PAPER_SPACE
  1

  0
ENDBLK
  5
1932
 67
     1
  8
0
  0
BLOCK
  8
0
  2
_OPEN
 70
     0
 10
0.0
 20
0.0
 30
0.0
  3
_OPEN
  1

  0
LINE
  5
189E
  8
0
  6
BYBLOCK
 62
     0
 10
-1.0
 20
0.1666666666666666
 30
0.0
 11
0.0
 21
0.0
 31
0.0
  0
LINE
  5
189F
  8
0
  6
BYBLOCK
 62
     0
 10
-1.0
 20
-0.1666666666666666
 30
0.0
 11
0.0
 21
0.0
 31
0.0
  0
LINE
  5
18A0
  8
0
  6
BYBLOCK
 62
     0
 10
0.0
 20
0.0
 30
0.0
 11
-1.0
 21
0.0
 31
0.0
  0
ENDBLK
  5
18A1
  8
0
  0
BLOCK
  8
0
  2
GENAXEH
 70
     0
 10
0.0
 20
0.0
 30
0.0
  3
GENAXEH
  1

  0
LINE
  5
18C9
  8
0
 10
-1.0
 20
0.0
 30
0.0
 11
1.0
 21
0.0
 31
0.0
  0
ENDBLK
  5
18CA
  8
0
  0
BLOCK
  8
0
  2
A$C58B51809
 70
     0
 10
0.0
 20
0.0
 30
0.0
  3
A$C58B51809
  1

  0
LINE
  5
1B66
  8
247
 10
-107.4296146576735
 20
-3.0178953863100562
 30
0.0
 11
-106.5402426493909
 21
-2.1285233780273942
 31
0.0
  0
LINE
  5
1B67
  8
247
 10
-107.466090443187
 20
-3.3130025481102598
 30
0.0
 11
-107.1950893122149
 21
-3.0420014171381782
 31
0.0
  0
LINE
  5
1B68
  8
247
 10
-106.5161366185628
 20
-2.3630487234860489
 30
0.0
 11
-106.2451354875907
 21
-2.0920475925139681
 31
0.0
  0
LINE
  5
1B69
  8
247
 10
-107.44335708306249
 20
-3.5489005642725608
 30
0.0
 11
-107.23298870629669
 21
-3.3385321875067331
 31
0.0
  0
LINE
  5
1B6A
  8
247
 10
-106.2193081491059
 20
-2.3248516303159739
 30
0.0
 11
-105.98650346160591
 21
-2.0920469428159798
 31
0.0
  0
LINE
  5
1B6B
  8
247
 10
-107.3857918862826
 20
-3.7499667437794151
 30
0.0
 11
-107.2009543733345
 21
-3.5651292308314222
 31
0.0
  0
LINE
  5
1B6C
  8
247
 10
-105.9606767728191
 20
-2.3248516303159752
 30
0.0
 11
-105.7772683280031
 21
-2.1414431854999778
 31
0.0
  0
LINE
  5
1B6D
  8
247
 10
-107.3024254533794
 20
-3.9252316871630031
 30
0.0
 11
-107.1305270851542
 21
-3.7533333189378948
 31
0.0
  0
LINE
  5
1B6E
  8
247
 10
-107.1974079765176
 20
-4.078845586587998
 30
0.0
 11
-107.0315613498671
 21
-3.9129989599375938
 31
0.0
  0
LINE
  5
1B6F
  8
247
 10
-107.0725690509051
 20
-4.2126380372623
 30
0.0
 11
-106.9077857802359
 21
-4.0478547665931801
 31
0.0
  0
LINE
  5
1B70
  8
247
 10
-106.92822247247609
 20
-4.326922835120155
 30
0.0
 11
-106.75980696270921
 21
-4.1585073253531961
 31
0.0
  0
LINE
  5
1B71
  8
247
 10
-106.763286822742
 20
-4.4206185616728089
 30
0.0
 11
-106.5854947222479
 21
-4.2428264611787343
 31
0.0
  0
LINE
  5
1B72
  8
247
 10
-106.5748488425475
 20
-4.4908119577651302
 30
0.0
 11
-106.3785080022126
 21
-4.2944711174302377
 31
0.0
  0
LINE
  5
1B73
  8
247
 10
-106.3566683659196
 20
-4.531262857424017
 30
0.0
 11
-106.1290796790948
 21
-4.3036741705991837
 31
0.0
  0
LINE
  5
1B74
  8
247
 10
-106.1032529843165
 20
-4.5364788521076758
 30
0.0
 11
-105.870448302808
 21
-4.3036741705991837
 31
0.0
  0
LINE
  5
1B75
  8
247
 10
-105.8446216080297
 20
-4.5364788521076758
 30
0.0
 11
-105.6118169265212
 21
-4.3036741705991837
 31
0.0
  0
LINE
  5
1B76
  8
247
 10
-105.5859902317429
 20
-4.5364788521076758
 30
0.0
 11
-105.3531855502344
 21
-4.3036741705991837
 31
0.0
  0
LINE
  5
1B77
  8
247
 10
-105.3273588554561
 20
-4.5364788521076829
 30
0.0
 11
-105.0945541739476
 21
-4.3036741705991908
 31
0.0
  0
LINE
  5
1B78
  8
247
 10
-105.0687274791693
 20
-4.5364788521076829
 30
0.0
 11
-104.8359227976608
 21
-4.3036741705991837
 31
0.0
  0
LINE
  5
1B79
  8
247
 10
-104.8100961028825
 20
-4.5364788521076758
 30
0.0
 11
-104.577291421374
 21
-4.3036741705991837
 31
0.0
  0
LINE
  5
1B7A
  8
247
 10
-104.5514647265957
 20
-4.5364788521076758
 30
0.0
 11
-104.3186600450872
 21
-4.3036741705991837
 31
0.0
  0
LINE
  5
1B7B
  8
247
 10
-104.2928333503089
 20
-4.5364788521076758
 30
0.0
 11
-104.0600286688004
 21
-4.3036741705991837
 31
0.0
  0
LINE
  5
1B7C
  8
247
 10
-104.0342019740222
 20
-4.5364788521076758
 30
0.0
 11
-103.8013972925136
 21
-4.3036741705991837
 31
0.0
  0
LINE
  5
1B7D
  8
247
 10
-101.7817687350807
 20
-2.2840456131661981
 30
0.0
 11
-101.59201504846889
 21
-2.0942919265543831
 31
0.0
  0
LINE
  5
1B7E
  8
247
 10
-103.7755705977354
 20
-4.5364788521076829
 30
0.0
 11
-103.5427659162269
 21
-4.3036741705991837
 31
0.0
  0
LINE
  5
1B7F
  8
247
 10
-101.5650648419512
 20
-2.3259730963235361
 30
0.0
 11
-101.3436358924389
 21
-2.104544146811191
 31
0.0
  0
LINE
  5
1B80
  8
247
 10
-103.5169392214486
 20
-4.5364788521076758
 30
0.0
 11
-103.2841345399401
 21
-4.3036741705991837
 31
0.0
  0
LINE
  5
1B81
  8
247
 10
-101.3244266079639
 20
-2.343966238623052
 30
0.0
 11
-101.1342912580846
 21
-2.1538308887437179
 31
0.0
  0
LINE
  5
1B82
  8
247
 10
-103.2583078451618
 20
-4.5364788521076758
 30
0.0
 11
-103.0255031636533
 21
-4.3036741705991837
 31
0.0
  0
LINE
  5
1B83
  8
247
 10
-101.1271426902872
 20
-2.4053136972330962
 30
0.0
 11
-100.9525351427216
 21
-2.2307061496675309
 31
0.0
  0
LINE
  5
1B84
  8
247
 10
-102.99967646887499
 20
-4.5364788521076829
 30
0.0
 11
-102.7668717873665
 21
-4.3036741705991766
 31
0.0
  0
LINE
  5
1B85
  8
247
 10
-100.960231822124
 20
-2.4970342053566901
 30
0.0
 11
-100.7932727155687
 21
-2.3300750988013381
 31
0.0
  0
LINE
  5
1B86
  8
247
 10
-102.74104509258819
 20
-4.5364788521076829
 30
0.0
 11
-102.5082404110797
 21
-4.3036741705991917
 31
0.0
  0
LINE
  5
1B87
  8
247
 10
-100.8187803118164
 20
-2.614214071335851
 30
0.0
 11
-100.654162513481
 21
-2.449596273000493
 31
0.0
  0
LINE
  5
1B88
  8
247
 10
-102.48241371630139
 20
-4.5364788521076838
 30
0.0
 11
-102.2496090347929
 21
-4.3036741705991846
 31
0.0
  0
LINE
  5
1B89
  8
247
 10
-100.7014388859957
 20
-2.7555040218019751
 30
0.0
 11
-100.5345113430462
 21
-2.5885764788525241
 31
0.0
  0
LINE
  5
1B8A
  8
247
 10
-102.22378234001459
 20
-4.5364788521076767
 30
0.0
 11
-101.9909776585061
 21
-4.3036741705991846
 31
0.0
  0
LINE
  5
1B8B
  8
247
 10
-100.6095381756797
 20
-2.9222346877728191
 30
0.0
 11
-100.4350029779383
 21
-2.7476994900313789
 31
0.0
  0
LINE
  5
1B8C
  8
247
 10
-101.96515096372779
 20
-4.5364788521076767
 30
0.0
 11
-101.7323462822193
 21
-4.3036741705991846
 31
0.0
  0
LINE
  5
1B8D
  8
247
 10
-100.5479600903324
 20
-3.119287978712292
 30
0.0
 11
-100.3579656120037
 21
-2.929293500383586
 31
0.0
  0
LINE
  5
1B8E
  8
247
 10
-101.70651958744099
 20
-4.5364788521076838
 30
0.0
 11
-101.4726774005064
 21
-4.302636665173031
 31
0.0
  0
LINE
  5
1B8F
  8
247
 10
-100.5295960970905
 20
-3.359555361757101
 30
0.0
 11
-100.30846861248961
 21
-3.138427877156202
 31
0.0
  0
LINE
  5
1B90
  8
247
 10
-101.4457525069204
 20
-4.5343431478738463
 30
0.0
 11
-101.1400723312351
 21
-4.2286629721885776
 31
0.0
  0
LINE
  5
1B91
  8
247
 10
-100.6035697900749
 20
-3.6921604310283631
 30
0.0
 11
-100.2978896143897
 21
-3.3864802553431002
 31
0.0
  0
LINE
  5
1B92
  8
247
 10
-101.1240291182562
 20
-4.4712511354963951
 30
0.0
 11
-100.3609816267671
 21
-3.7082036440073329
 31
0.0
  0
LINE
  5
1B93
  8
247
 10
-103.9415090666517
 20
-2.1161035581561038
 30
0.0
 11
-103.9174524513116
 21
-2.0920469428159811
 31
0.0
  0
LINE
  5
1B94
  8
247
 10
-103.9266391231792
 20
-2.3598649909703568
 30
0.0
 11
-103.6588210750248
 21
-2.0920469428159891
 31
0.0
  0
LINE
  5
1B95
  8
247
 10
-104.0306160159441
 20
-2.72247326002209
 30
0.0
 11
-103.400189698738
 21
-2.0920469428159811
 31
0.0
  0
LINE
  5
1B96
  8
247
 10
-104.1345929087091
 20
-3.0850815290738161
 30
0.0
 11
-103.4045655207658
 21
-2.3550541411305992
 31
0.0
  0
LINE
  5
1B97
  8
247
 10
-104.238569801474
 20
-3.4476897981255501
 30
0.0
 11
-103.5085409945833
 21
-2.7176609912348502
 31
0.0
  0
LINE
  5
1B98
  8
247
 10
-104.34254669423891
 20
-3.810298067177269
 30
0.0
 11
-103.6125164684007
 21
-3.0802678413390931
 31
0.0
  0
LINE
  5
1B99
  8
247
 10
-104.4465235870038
 20
-4.1729063362289889
 30
0.0
 11
-103.7164919422182
 21
-3.4428746914433348
 31
0.0
  0
LINE
  5
1B9A
  8
247
 10
-104.2022577013372
 20
-4.1872718268491544
 30
0.0
 11
-103.8204674160356
 21
-3.805481541547584
 31
0.0
  0
LINE
  5
1B9B
  8
247
 10
-103.9436263250504
 20
-4.1872718268491544
 30
0.0
 11
-103.9244428898531
 21
-4.1680883916518177
 31
0.0
  0
LINE
  5
1B9C
  8
247
 10
-103.3535268290675
 20
-2.821278202005876
 30
0.0
 11
-102.62800709626759
 21
-2.0957584692060029
 31
0.0
  0
LINE
  5
1B9D
  8
247
 10
-103.4393905894788
 20
-3.1657733387039348
 30
0.0
 11
-102.38466106901571
 21
-2.1110438182408711
 31
0.0
  0
LINE
  5
1B9E
  8
247
 10
-103.4760373162752
 20
-3.4610514417871121
 30
0.0
 11
-102.7169385333378
 21
-2.701952658849768
 31
0.0
  0
LINE
  5
1B9F
  8
247
 10
-102.37073272478889
 20
-2.3557468503008092
 30
0.0
 11
-102.1964101613062
 21
-2.1814242868181188
 31
0.0
  0
LINE
  5
1BA0
  8
247
 10
-103.4348929258788
 20
-3.678538427677557
 30
0.0
 11
-102.82091536616269
 21
-3.064560867961446
 31
0.0
  0
LINE
  5
1BA1
  8
247
 10
-102.22223009583639
 20
-2.4658755976351672
 30
0.0
 11
-101.9365649597737
 21
-2.1802104615724631
 31
0.0
  0
LINE
  5
1BA2
  8
247
 10
-103.3489772445155
 20
-3.851254122601075
 30
0.0
 11
-102.92489219898761
 21
-3.4271690770731298
 31
0.0
  0
LINE
  5
1BA3
  8
247
 10
-101.8988001178366
 20
-2.4010769959221081
 30
0.0
 11
-101.87456151898991
 21
-2.3768383970754732
 31
0.0
  0
LINE
  5
1BA4
  8
247
 10
-103.22931155081911
 20
-3.990219805191408
 30
0.0
 11
-102.98275405859511
 21
-3.7436623129673872
 31
0.0
  0
LINE
  5
1BA5
  8
247
 10
-102.4718711103187
 20
-3.232779364690975
 30
0.0
 11
-102.23906642281869
 21
-2.9999746771909752
 31
0.0
  0
LINE
  5
1BA6
  8
247
 10
-103.0778068854361
 20
-4.0973465160952038
 30
0.0
 11
-102.87452751913391
 21
-3.8940671497930501
 31
0.0
  0
LINE
  5
1BA7
  8
247
 10
-102.4197866494342
 20
-3.4393262800933022
 30
0.0
 11
-101.98043504653189
 21
-2.9999746771909832
 31
0.0
  0
LINE
  5
1BA8
  8
247
 10
-102.88981412116441
 20
-4.1679851281103497
 30
0.0
 11
-102.6164976069914
 21
-3.8946686139372542
 31
0.0
  0
LINE
  5
1BA9
  8
247
 10
-102.5371032108262
 20
-3.8152742177721271
 30
0.0
 11
-101.8446620946153
 21
-3.1228331015611821
 31
0.0
  0
LINE
  5
1BAA
  8
247
 10
-102.6469390553433
 20
-4.183741438575999
 30
0.0
 11
-101.94863857400939
 21
-3.4854409572420821
 31
0.0
  0
LINE
  5
1BAB
  8
247
 10
-102.2708659340787
 20
-4.0662996935981717
 30
0.0
 11
-102.0526150534035
 21
-3.8480488129229879
 31
0.0
  0
LINE
  5
1BAC
  8
247
 10
-103.32914968663501
 20
-2.0920469428159838
 30
0.0
 11
-103.934610624135
 21
-2.0920469428159838
 31
0.0
1001
HATCH_DISTANCE
1040
1.0
1001
HATCH_DISPLAY
1070
     0
1001
HATCH_TYPE
1070
     7
  0
LINE
  5
1BAD
  8
247
 10
-103.9299436319474
 20
-4.1872718268491562
 30
0.0
 11
-103.32914968663501
 21
-2.0920469428159838
 31
0.0
1001
HATCH_DISTANCE
1040
1.0
1001
HATCH_DISPLAY
1070
     0
1001
HATCH_TYPE
1070
     7
  0
LINE
  5
1BAE
  8
247
 10
-104.45064285069751
 20
-4.1872718268491509
 30
0.0
 11
-103.9299436319474
 21
-4.1872718268491562
 31
0.0
1001
HATCH_DISTANCE
1040
1.0
1001
HATCH_DISPLAY
1070
     0
1001
HATCH_TYPE
1070
     7
  0
LINE
  5
1BAF
  8
247
 10
-103.92327273351
 20
-2.3481250678159711
 30
0.0
 11
-104.45064285069751
 21
-4.1872718268491509
 31
0.0
1001
HATCH_DISTANCE
1040
1.0
1001
HATCH_DISPLAY
1070
     0
1001
HATCH_TYPE
1070
     7
  0
LINE
  5
1BB0
  8
247
 10
-104.0080432413225
 20
-2.3481250678159711
 30
0.0
 11
-103.92327273351
 21
-2.3481250678159711
 31
0.0
1001
HATCH_DISTANCE
1040
1.0
1001
HATCH_DISPLAY
1070
     0
1001
HATCH_TYPE
1070
     7
  0
LINE
  5
1BB1
  8
247
 10
-103.934610624135
 20
-2.0920469428159838
 30
0.0
 11
-104.0080432413225
 21
-2.3481250678159711
 31
0.0
1001
HATCH_DISTANCE
1040
1.0
1001
HATCH_DISPLAY
1070
     0
1001
HATCH_TYPE
1070
     7
  0
LINE
  5
1BB2
  8
247
 10
-103.32914968663501
 20
-2.0920469428159838
 30
0.0
 11
-103.934610624135
 21
-2.0920469428159838
 31
0.0
  0
LINE
  5
1BB3
  8
247
 10
-103.9299436319474
 20
-4.1872718268491562
 30
0.0
 11
-103.32914968663501
 21
-2.0920469428159838
 31
0.0
  0
LINE
  5
1BB4
  8
247
 10
-104.45064285069751
 20
-4.1872718268491509
 30
0.0
 11
-103.9299436319474
 21
-4.1872718268491562
 31
0.0
  0
LINE
  5
1BB5
  8
247
 10
-103.92327273351
 20
-2.3481250678159711
 30
0.0
 11
-104.45064285069751
 21
-4.1872718268491509
 31
0.0
  0
LINE
  5
1BB6
  8
247
 10
-104.0080432413225
 20
-2.3481250678159711
 30
0.0
 11
-103.92327273351
 21
-2.3481250678159711
 31
0.0
  0
LINE
  5
1BB7
  8
247
 10
-103.934610624135
 20
-2.0920469428159838
 30
0.0
 11
-104.0080432413225
 21
-2.3481250678159711
 31
0.0
  0
LINE
  5
1BB8
  8
247
 10
-101.7594670694475
 20
-2.3547695990659681
 30
0.0
 11
-101.7594670694475
 21
-2.3547695990659681
 31
0.0
1001
HATCH_DISTANCE
1040
1.0
1001
HATCH_DISPLAY
1070
     0
1001
HATCH_TYPE
1070
     7
  0
LINE
  5
1BB9
  8
247
 10
-101.82957742101
 20
-2.132432685003494
 30
0.0
 11
-101.7594670694475
 21
-2.3547695990659681
 31
0.0
1001
HATCH_DISTANCE
1040
1.0
1001
HATCH_DISPLAY
1070
     0
1001
HATCH_TYPE
1070
     7
  0
LINE
  5
1BBA
  8
247
 10
-101.82957742101
 20
-2.132432685003494
 30
0.0
 11
-101.82957742101
 21
-2.132432685003494
 31
0.0
1001
HATCH_DISTANCE
1040
1.0
1001
HATCH_DISPLAY
1070
     0
1001
HATCH_TYPE
1070
     7
  0
LINE
  5
1BBB
  8
247
 10
-101.7594670694475
 20
-2.3547695990659681
 30
0.0
 11
-101.82957742101
 21
-2.132432685003494
 31
0.0
1001
HATCH_DISTANCE
1040
1.0
1001
HATCH_DISPLAY
1070
     0
1001
HATCH_TYPE
1070
     7
  0
LINE
  5
1BBC
  8
247
 10
-101.7594670694475
 20
-2.3547695990659681
 30
0.0
 11
-101.7594670694475
 21
-2.3547695990659681
 31
0.0
  0
LINE
  5
1BBD
  8
247
 10
-101.82957742101
 20
-2.132432685003494
 30
0.0
 11
-101.7594670694475
 21
-2.3547695990659681
 31
0.0
  0
LINE
  5
1BBE
  8
247
 10
-101.82957742101
 20
-2.132432685003494
 30
0.0
 11
-101.82957742101
 21
-2.132432685003494
 31
0.0
  0
LINE
  5
1BBF
  8
247
 10
-101.7594670694475
 20
-2.3547695990659681
 30
0.0
 11
-101.82957742101
 21
-2.132432685003494
 31
0.0
  0
LINE
  5
1BC0
  8
247
 10
-101.7594670694475
 20
-2.3547695990659681
 30
0.0
 11
-101.7594670694475
 21
-2.3547695990659681
 31
0.0
1001
HATCH_DISTANCE
1040
1.0
1001
HATCH_DISPLAY
1070
     0
1001
HATCH_TYPE
1070
     7
  0
LINE
  5
1BC1
  8
247
 10
-101.82957742101
 20
-2.132432685003494
 30
0.0
 11
-101.7594670694475
 21
-2.3547695990659681
 31
0.0
1001
HATCH_DISTANCE
1040
1.0
1001
HATCH_DISPLAY
1070
     0
1001
HATCH_TYPE
1070
     7
  0
LINE
  5
1BC2
  8
247
 10
-101.82957742101
 20
-2.132432685003494
 30
0.0
 11
-101.82957742101
 21
-2.132432685003494
 31
0.0
1001
HATCH_DISTANCE
1040
1.0
1001
HATCH_DISPLAY
1070
     0
1001
HATCH_TYPE
1070
     7
  0
LINE
  5
1BC3
  8
247
 10
-101.7594670694475
 20
-2.3547695990659681
 30
0.0
 11
-101.82957742101
 21
-2.132432685003494
 31
0.0
1001
HATCH_DISTANCE
1040
1.0
1001
HATCH_DISPLAY
1070
     0
1001
HATCH_TYPE
1070
     7
  0
LINE
  5
1BC4
  8
247
 10
-101.7594670694475
 20
-2.3547695990659681
 30
0.0
 11
-101.7594670694475
 21
-2.3547695990659681
 31
0.0
  0
LINE
  5
1BC5
  8
247
 10
-101.82957742101
 20
-2.132432685003494
 30
0.0
 11
-101.7594670694475
 21
-2.3547695990659681
 31
0.0
  0
LINE
  5
1BC6
  8
247
 10
-101.82957742101
 20
-2.132432685003494
 30
0.0
 11
-101.82957742101
 21
-2.132432685003494
 31
0.0
  0
LINE
  5
1BC7
  8
247
 10
-101.7594670694475
 20
-2.3547695990659681
 30
0.0
 11
-101.82957742101
 21
-2.132432685003494
 31
0.0
  0
LINE
  5
1BC8
  8
241
 10
-4.396074036381945
 20
-7.3089729994534869
 30
0.0
 11
-3.7031588649971341
 21
-8.0060549080371288
 31
0.0
  0
LINE
  5
1BC9
  8
241
 10
-6.6602682268841118
 20
-5.0231423228978542
 30
0.0
 11
-4.396074036381945
 21
-7.3089729994534869
 31
0.0
  0
LINE
  5
1BCA
  8
241
 10
-1.2420868075115541
 20
-6.0307066887616543
 30
0.0
 11
-0.3996086812240946
 21
-5.1085576415061649
 31
0.0
  0
LINE
  5
1BCB
  8
241
 10
-3.2031615770084709
 20
-8.0060549080371288
 30
0.0
 11
-1.2420868075115541
 21
-6.0307066887616543
 31
0.0
  0
LINE
  5
1BCC
  8
241
 10
-0.0327905214054454
 20
-0.7499828934668927
 30
0.0
 11
-0.0585099256260264
 21
-0.7499996572732357
 31
0.0
  0
LINE
  5
1BCD
  8
241
 10
-0.0144211149437297
 20
-0.7499707862734227
 30
0.0
 11
-0.0327905214054454
 21
-0.7499828934668927
 31
0.0
  0
LINE
  5
1BCE
  8
241
 10
-0.0000265932304728
 20
-0.7499996572732357
 30
0.0
 11
-0.0144211149437297
 21
-0.7499707862734227
 31
0.0
  0
CIRCLE
  5
1BCF
  8
246
 10
-3.4531611523252361
 20
5.0639058463276267
 30
0.0
 40
2.499999753065393
  0
LINE
  5
1BD0
  8
240
 10
-6.8146079275176703
 20
-4.8898206756124249
 30
0.0
 11
-6.8478105163795799
 21
-4.9230232834814274
 31
0.0
  0
LINE
  5
1BD1
  8
240
 10
-6.9531598782760948
 20
-4.8898206756124107
 30
0.0
 11
-6.8086672898872651
 21
-4.8898206756124107
 31
0.0
  0
LINE
  5
1BD2
  8
240
 10
-6.9531598782764359
 20
4.8898205902105474
 30
0.0
 11
-6.8146083125283772
 21
4.889820590210574
 31
0.0
  0
LINE
  5
1BD3
  8
240
 10
-3.5940451121551842
 20
1.669255085289534
 30
0.0
 11
-6.8478105163795799
 21
4.9230228178203683
 31
0.0
  0
ARC
  5
1BD4
  8
240
 10
-3.4532824225949241
 20
1.8099483325497641
 30
0.0
 40
0.1991897072091868
 50
270.61249512415009
 51
315.06307697767261
  0
ARC
  5
1BD5
  8
240
 10
-3.4528417000927041
 20
1.810358283431809
 30
0.0
 40
0.1996209310269265
 50
224.97966099897801
 51
268.9636405053626
  0
LINE
  5
1BD6
  8
240
 10
-0.2531600690109599
 20
4.728372758007195
 30
0.0
 11
-3.3122790551407202
 21
1.669255085289534
 31
0.0
  0
ARC
  5
1BD7
  8
240
 10
-3.4529322074158402
 20
8.3175874689461864
 30
0.0
 40
0.1994621514741417
 50
89.488946148543477
 51
135.02920144280509
  0
ARC
  5
1BD8
  8
240
 10
-3.4532824225949241
 20
8.3178633601054344
 30
0.0
 40
0.1991897072091868
 50
44.936923022327349
 51
89.387504875849842
  0
LINE
  5
1BD9
  8
240
 10
-0.2531600690109599
 20
4.7283730210939421
 30
0.0
 11
-0.0585099256260264
 21
4.9230228178203683
 31
0.0
  0
LINE
  5
1BDA
  8
240
 10
-0.2531600690109599
 20
4.1218660771847331
 30
0.0
 11
-0.2531600690109599
 21
4.7283730211000252
 31
0.0
  0
ARC
  5
1BDB
  8
240
 10
-0.1995475693647393
 20
5.0636236684700862
 30
0.0
 40
0.1995475693647346
 50
0.0810213110976544
 51
45.025899099155268
  0
ARC
  5
1BDC
  8
240
 10
-0.1992158294239914
 20
5.0640269787718353
 30
0.0
 40
0.1991992087565049
 50
314.93933880306707
 51
359.96515860537812
  0
ARC
  5
1BDD
  8
240
 10
-7.3673742185958124
 20
5.7999999572991774
 30
0.0
 40
1.0000000000000271
 50
270.0
 51
294.46984949239931
  0
LINE
  5
1BDE
  8
241
 10
-6.9531598782760948
 20
-4.8898206756124107
 30
0.0
 11
-6.9531598782764359
 21
4.8898205902105474
 31
0.0
  0
ARC
  5
1BDF
  8
240
 10
-6.7067640737654131
 20
5.0641951925952071
 30
0.0
 40
0.1995588594216547
 50
180.08307486727691
 51
225.0255666184874
  0
ARC
  5
1BE0
  8
240
 10
-6.7070807598022091
 20
5.0637706110588852
 30
0.0
 40
0.1992260402274086
 50
134.94132970645359
 51
179.96110743995629
  0
LINE
  5
1BE1
  8
240
 10
-0.2531600690109599
 20
-2.5007557123898878
 30
0.0
 11
-0.2531600690109599
 21
-0.7499996572732357
 31
0.0
  0
LINE
  5
1BE2
  8
240
 10
-0.2531600690109599
 20
-2.5187022984027281
 30
0.0
 11
-0.2531600690109599
 21
-4.7770477831363101
 31
0.0
  0
LINE
  5
1BE3
  8
241
 10
-0.2531600690109599
 20
-4.194823093712273
 30
0.0
 11
-0.2531600690109599
 21
-4.1900146752595324
 31
0.0
  0
LINE
  5
1BE4
  8
241
 10
-0.2531600690109599
 20
-4.1900146752595324
 30
0.0
 11
-0.2531600690109599
 21
-4.1218660771846203
 31
0.0
  0
LINE
  5
1BE5
  8
241
 10
-0.7154499685985912
 20
0.8399998769164652
 30
0.0
 11
-0.461396346114384
 21
0.8399998769164652
 31
0.0
  0
LINE
  5
1BE6
  8
241
 10
-0.1967521418005447
 20
0.8399998769164652
 30
0.0
 11
-6.7095683002113162
 21
0.8399998769164652
 31
0.0
  0
ARC
  5
1BE7
  8
240
 10
-0.026030166745926
 20
-10.12644873527017
 30
0.0
 40
9.3765053323190521
 50
89.841080449411393
 51
91.388028624284232
  0
LINE
  5
1BE8
  8
240
 10
-0.0000257544002125
 20
-0.7499794628016617
 30
0.0
 11
-0.1967521418005447
 21
0.8399998769164652
 31
0.0
  0
LINE
  5
1BE9
  8
241
 10
-3.3122790551407202
 20
-0.7499996572732357
 30
0.0
 11
-0.2531600690109599
 21
-0.7499996572732357
 31
0.0
  0
LINE
  5
1BEA
  8
241
 10
-3.4560718575146709
 20
-0.7499996572732357
 30
0.0
 11
-6.9062971862381328
 21
-0.7499996572732357
 31
0.0
  0
LINE
  5
1BEB
  8
241
 10
-6.7095683002113162
 20
0.8399998769164652
 30
0.0
 11
-6.9062971862381328
 21
-0.7499996572732357
 31
0.0
  0
ARC
  5
1BEC
  8
241
 10
-3.506222977655681
 20
-144.37221050835481
 30
0.0
 40
143.62223770182609
 50
89.964964771125423
 51
90.035035228874534
  0
ARC
  5
1BED
  8
241
 10
-3.384175456326572
 20
-82.695526878610494
 30
0.0
 40
81.945558761139893
 50
89.949730516931197
 51
90.050269483068774
  0
LINE
  5
1BEE
  8
240
 10
-0.2531600690109599
 20
4.1948230937123849
 30
0.0
 11
-0.2531600690095104
 21
0.8399998769164652
 31
0.0
  0
LINE
  5
1BEF
  8
240
 10
-0.0585099256260264
 20
-5.2047893404960064
 30
0.0
 11
-3.3122790551407202
 21
-8.4585566073655496
 31
0.0
  0
ARC
  5
1BF0
  8
240
 10
-0.1992215764822447
 20
-5.0640285590055774
 30
0.0
 40
0.1992047164500774
 50
0.0351610076522103
 51
45.059906777167512
  0
ARC
  5
1BF1
  8
240
 10
-0.1995475693645119
 20
-5.0636241341692312
 30
0.0
 40
0.1995475693376718
 50
314.97410090851878
 51
359.91897869981301
  0
LINE
  5
1BF2
  8
240
 10
-3.5940451121551842
 20
-8.4585566073655496
 30
0.0
 11
-6.8478105163795799
 21
-5.2047893404960064
 31
0.0
  0
ARC
  5
1BF3
  8
240
 10
-3.452847710119356
 20
-8.3174630523833457
 30
0.0
 40
0.1996098634817131
 50
224.97892246468029
 51
268.98835900707189
  0
ARC
  5
1BF4
  8
240
 10
-6.707077883253616
 20
-5.063770052127551
 30
0.0
 40
0.1992287974126443
 50
180.0391866822051
 51
225.0582928762804
  0
ARC
  5
1BF5
  8
240
 10
-6.70676634431865
 20
-5.0641928771069598
 30
0.0
 40
0.1995559460062307
 50
134.9743475915725
 51
179.91772243424671
  0
LINE
  5
1BF6
  8
241
 10
-6.6602682268841118
 20
-5.0231423228978542
 30
0.0
 11
-6.8086672898872651
 21
-4.8898206756124107
 31
0.0
  0
ARC
  5
1BF7
  8
240
 10
-3.4532853193911421
 20
-8.3178560119690701
 30
0.0
 40
0.199196948025817
 50
270.60643392642078
 51
315.06216933591372
  0
LINE
  5
1BF8
  8
241
 10
-3.7031588649971341
 20
-8.0060549080371288
 30
0.0
 11
-3.2031615770084709
 21
-8.0060549080371288
 31
0.0
  0
ARC
  5
1BF9
  8
240
 10
-7.3673742185958124
 20
-5.8000000427008427
 30
0.0
 40
1.0000000000000031
 50
65.530150507577403
 51
90.0
  0
LINE
  5
1BFA
  8
240
 10
-0.2531600690109599
 20
-4.7283722087740321
 30
0.0
 11
-0.0585099256260264
 21
-4.9230223521589664
 31
0.0
  0
ARC
  5
1BFB
  8
241
 10
-0.6956657813947234
 20
-4.779668047996763
 30
0.0
 40
0.4425134701681082
 50
311.9926468002941
 51
0.339268757127561
  0
LINE
  5
1BFC
  8
240
 10
-3.5940451121551842
 20
8.4585566073656651
 30
0.0
 11
-6.8478105163795799
 21
5.204788874834831
 31
0.0
  0
LINE
  5
1BFD
  8
240
 10
-0.0585099256260264
 20
5.204788874834831
 30
0.0
 11
-3.3122790551407202
 21
8.4585566073656651
 31
0.0
  0
ARC
  5
1BFE
  8
240
 10
-40.124733531476551
 20
6.7999999572991943
 30
0.0
 40
2.0000000000000271
 50
224.9999999999994
 51
270.0
  0
LINE
  5
1BFF
  8
240
 10
-41.53894718202185
 20
5.3857862949372057
 30
0.0
 11
-42.153160939238781
 21
6.000000052154137
 31
0.0
  0
LINE
  5
1C00
  8
241
 10
-42.153160939238781
 20
0.0000000000000734
 30
0.0
 11
-42.153160939238781
 21
6.000000052154137
 31
0.0
  0
LINE
  5
1C01
  8
240
 10
-42.153160939238781
 20
-5.9999991208314141
 30
0.0
 11
-41.53894718202185
 21
-5.3857862949370592
 31
0.0
  0
LINE
  5
1C02
  8
241
 10
-42.153160939238781
 20
-5.9999991208314141
 30
0.0
 11
-42.153160939238781
 21
0.0000000000000734
 31
0.0
  0
LINE
  5
1C03
  8
241
 10
-40.124733852468232
 20
-4.8000002279876908
 30
0.0
 11
-40.124733531476551
 21
4.7999999572991641
 31
0.0
  0
ARC
  5
1C04
  8
240
 10
-40.124733531476551
 20
-6.8000000427008258
 30
0.0
 40
2.0
 50
90.0
 51
135.0000000000006
  0
LINE
  5
1C05
  8
240
 10
-40.124733852468232
 20
-4.8000002279876908
 30
0.0
 11
-7.3673730290157664
 21
-4.8000002279877076
 31
0.0
  0
LINE
  5
1C06
  8
240
 10
-7.3673730290157664
 20
4.799999762326534
 30
0.0
 11
-40.124733852468232
 21
4.7999997623265509
 31
0.0
  0
LINE
  5
1C07
  8
240
 10
-112.953159878276
 20
0.0000000000000734
 30
0.0
 11
-112.953159878276
 21
4.9999998882413621
 31
0.0
  0
LINE
  5
1C08
  8
240
 10
-112.953159878276
 20
-4.9999998882412164
 30
0.0
 11
-112.953159878276
 21
0.0000000000000734
 31
0.0
  0
ARC
  5
1C09
  8
240
 10
-111.95316065622271
 20
4.9999999572991261
 30
0.0
 40
1.0
 50
90.0
 51
180.0
  0
ARC
  5
1C0A
  8
240
 10
-111.95316065622271
 20
-5.0000000427008713
 30
0.0
 40
1.0
 50
180.0
 51
270.0
  0
LINE
  5
1C0B
  8
245
 10
-115.5093957566723
 20
0.0000000000001303
 30
0.0
 11
2.0486595553072671
 21
0.0
 31
0.0
  0
LINE
  5
1C0C
  8
240
 10
-111.9531615770084
 20
-5.9999991208314141
 30
0.0
 11
-42.153160939238781
 21
-5.9999991208314141
 31
0.0
  0
LINE
  5
1C0D
  8
240
 10
-42.153160939238781
 20
6.000000052154137
 30
0.0
 11
-111.9531615770084
 21
6.000000052154137
 31
0.0
  0
ARC
  5
1C0E
  8
247
 10
-102.55314578038499
 20
-2.8486533881284681
 30
0.0
 40
0.7566075439453125
 50
53.444012197057717
 51
164.00018438768541
  0
LINE
  5
1C0F
  8
247
 10
-102.9800041788225
 20
-3.619366278753489
 30
0.0
 11
-102.66625222569751
 21
-2.5251895209409838
 31
0.0
  0
ARC
  5
1C10
  8
247
 10
-102.74502859288501
 20
-3.686743231878495
 30
0.0
 40
0.2444446334838867
 50
164.00027305718231
 51
344.00027305718248
  0
ARC
  5
1C11
  8
247
 10
-101.48300710850999
 20
-3.4704444037534761
 30
0.0
 40
1.9799648437499999
 50
155.20517736984061
 51
172.79482596205199
  0
ARC
  5
1C12
  8
247
 10
-101.517969999135
 20
-3.3142627631284829
 30
0.0
 40
0.9894138793945311
 50
110.8721834020734
 51
132.54194893738719
  0
ARC
  5
1C13
  8
247
 10
-102.43127663976
 20
-2.5925752631284822
 30
0.0
 40
0.2444448051452637
 50
1.7101213820627339
 51
163.998398354447
  0
ARC
  5
1C14
  8
247
 10
-101.517969999135
 20
-3.3142627631284829
 30
0.0
 40
1.222216369628905
 50
110.22964506332001
 51
118.57168892371639
  0
LINE
  5
1C15
  8
247
 10
-101.870481717885
 20
-2.3897764350034771
 30
0.0
 11
-101.9405920694475
 21
-2.1674395209409392
 31
0.0
  0
LINE
  5
1C16
  8
247
 10
-101.7594670694475
 20
-2.3547695990659681
 30
0.0
 11
-101.82957742101
 21
-2.132432685003494
 31
0.0
  0
LINE
  5
1C17
  8
247
 10
-102.14988601476
 20
-4.1872718268491562
 30
0.0
 11
-101.80943288976
 21
-2.9999746771909761
 31
0.0
  0
LINE
  5
1C18
  8
247
 10
-102.48755300694749
 20
-2.9999746771909761
 30
0.0
 11
-101.80943288976
 21
-2.9999746771909761
 31
0.0
  0
LINE
  5
1C19
  8
247
 10
-102.554305936635
 20
-3.2327793646909702
 30
0.0
 11
-102.48755300694749
 21
-2.9999746771909761
 31
0.0
  0
LINE
  5
1C1A
  8
247
 10
-102.286450467885
 20
-4.0507161627866921
 30
0.0
 11
-102.14988601476
 21
-4.1872718268491562
 31
0.0
  0
LINE
  5
1C1B
  8
247
 10
-102.554305936635
 20
-3.2327793646909702
 30
0.0
 11
-102.360559842885
 21
-3.2327793646909702
 31
0.0
  0
LINE
  5
1C1C
  8
247
 10
-102.5100530069475
 20
-3.7541201850034658
 30
0.0
 11
-102.360559842885
 21
-3.2327793646909702
 31
0.0
  0
ARC
  5
1C1D
  8
247
 10
-101.517969999135
 20
-3.3142627631284829
 30
0.0
 40
0.9894111328124999
 50
270.0
 51
104.12743649641099
  0
ARC
  5
1C1E
  8
247
 10
-101.517969999135
 20
-3.3142627631284829
 30
0.0
 40
1.2222158203124971
 50
270.0
 51
104.77079396609309
  0
LINE
  5
1C1F
  8
247
 10
-106.12171609288499
 20
-4.1872718268491562
 30
0.0
 11
-105.5876750772602
 21
-2.324851630316715
 31
0.0
  0
LINE
  5
1C20
  8
247
 10
-105.8536238757732
 20
-3.2523242384172879
 30
0.0
 11
-105.03871079886871
 21
-2.4374111615128129
 31
0.0
  0
ARC
  5
1C21
  8
247
 10
-105.14832742100999
 20
-2.6507764350035039
 30
0.0
 40
0.349197280883789
 50
261.66260168792928
 51
66.338155095189919
  0
LINE
  5
1C22
  8
247
 10
-105.00818038057371
 20
-2.3309365562616851
 30
0.0
 11
-105.19896120477721
 21
-2.9962832524732339
 31
0.0
  0
LINE
  5
1C23
  8
247
 10
-104.45064285069751
 20
-4.1872718268491562
 30
0.0
 11
-103.92327273351
 21
-2.3481250678159711
 31
0.0
  0
LINE
  5
1C24
  8
247
 10
-105.16447513199491
 20
-3.339069623499427
 30
0.0
 11
-104.33138850855831
 21
-2.5059830000627912
 31
0.0
  0
LINE
  5
1C25
  8
247
 10
-105.74964771832531
 20
-2.8897167046825989
 30
0.0
 11
-104.9519779564588
 21
-2.0920469428160691
 31
0.0
  0
ARC
  5
1C26
  8
247
 10
-104.88860183507251
 20
-2.6740498725034709
 30
0.0
 40
0.5820078735351563
 50
287.669577547399
 51
90.236159842671412
  0
LINE
  5
1C27
  8
247
 10
-104.8065855841792
 20
-2.7225486993968602
 30
0.0
 11
-104.41700941452849
 21
-2.3329725297461441
 31
0.0
  0
LINE
  5
1C28
  8
247
 10
-105.6456715608774
 20
-2.527109170947853
 30
0.0
 11
-105.21060933274551
 21
-2.0920469428160331
 31
0.0
  0
LINE
  5
1C29
  8
247
 10
-106.2438752725725
 20
-2.3248516303159761
 30
0.0
 11
-105.8298576944474
 21
-2.3248516303159761
 31
0.0
  0
LINE
  5
1C2A
  8
247
 10
-105.70877078038519
 20
-2.3248516303159761
 30
0.0
 11
-105.5876750772602
 21
-2.324851630316715
 31
0.0
  0
LINE
  5
1C2B
  8
247
 10
-104.8364245353284
 20
-2.493756274259312
 30
0.0
 11
-104.54613429516731
 21
-2.2034660340981631
 31
0.0
  0
LINE
  5
1C2C
  8
247
 10
-106.2438752725725
 20
-2.0920469428159838
 30
0.0
 11
-105.7631047647599
 21
-2.0920469428159838
 31
0.0
  0
LINE
  5
1C2D
  8
247
 10
-105.6420178506973
 20
-2.0920469428159838
 30
0.0
 11
-104.89100072901959
 21
-2.0920469428160691
 31
0.0
  0
LINE
  5
1C2E
  8
247
 10
-105.6420178506973
 20
-2.0920469428159838
 30
0.0
 11
-105.70877078038519
 21
-2.3248516303159761
 31
0.0
  0
LINE
  5
1C2F
  8
247
 10
-105.7631047647599
 20
-2.0920469428159838
 30
0.0
 11
-105.8298576944474
 21
-2.3248516303159761
 31
0.0
  0
LINE
  5
1C30
  8
247
 10
-105.7020453965323
 20
-2.3248516303160329
 30
0.0
 11
-105.46924070903231
 21
-2.0920469428160331
 31
0.0
  0
LINE
  5
1C31
  8
247
 10
-104.95879249909029
 20
-2.3574928617343511
 30
0.0
 11
-104.7186945947311
 21
-2.1173949573751831
 31
0.0
  0
LINE
  5
1C32
  8
247
 10
-104.0080432413225
 20
-2.3481250678159711
 30
0.0
 11
-103.92327273351
 21
-2.3481250678159711
 31
0.0
  0
LINE
  5
1C33
  8
247
 10
-104.0080432413225
 20
-2.3481250678159711
 30
0.0
 11
-103.934610624135
 21
-2.0920469428159838
 31
0.0
  0
LINE
  5
1C34
  8
247
 10
-105.0741945433343
 20
-3.5074204111255942
 30
0.0
 11
-104.310818152219
 21
-2.7440440200102429
 31
0.0
  0
ARC
  5
1C35
  8
247
 10
-105.155622342885
 20
-3.6052686225034982
 30
0.0
 40
0.5820029296875
 50
270.0
 51
40.329840654167469
  0
LINE
  5
1C36
  8
247
 10
-105.9576000332211
 20
-3.6149317721520342
 30
0.0
 11
-105.14268352434959
 21
-2.8000152632804149
 31
0.0
  0
LINE
  5
1C37
  8
247
 10
-106.061576190669
 20
-3.9775393058867232
 30
0.0
 11
-105.07655515661661
 21
-2.9925182718342782
 31
0.0
  0
LINE
  5
1C38
  8
247
 10
-106.12171609288499
 20
-4.1872718268491562
 30
0.0
 11
-105.155622342885
 21
-4.1872718268491562
 31
0.0
  0
LINE
  5
1C39
  8
247
 10
-105.4954145827711
 20
-4.1872718268491562
 30
0.0
 11
-104.6412012529604
 21
-3.333058497038508
 31
0.0
  0
ARC
  5
1C3A
  8
247
 10
-105.4153479288225
 20
-3.5819863959409481
 30
0.0
 40
0.3492072715759277
 50
261.66285421114787
 51
66.338192159113575
  0
LINE
  5
1C3B
  8
247
 10
-105.2751981098197
 20
-3.2621368269949471
 30
0.0
 11
-105.4659820726088
 21
-3.9275032580541449
 31
0.0
  0
LINE
  5
1C3C
  8
247
 10
-105.2367832064844
 20
-4.1872718268491758
 30
0.0
 11
-104.5786235515526
 21
-3.5291121719174541
 31
0.0
  0
LINE
  5
1C3D
  8
247
 10
-105.7540459590579
 20
-4.1872718268491562
 30
0.0
 11
-105.4546072469645
 21
-3.8878331147557428
 31
0.0
  0
LINE
  5
1C3E
  8
247
 10
-106.0126773353447
 20
-4.1872718268491562
 30
0.0
 11
-105.35063644701169
 21
-3.525230938516188
 31
0.0
  0
LINE
  5
1C3F
  8
247
 10
-104.9345159460282
 20
-4.143635942679821
 30
0.0
 11
-104.6172550227086
 21
-3.8263750193602561
 31
0.0
  0
LINE
  5
1C40
  8
247
 10
-104.45064285069751
 20
-4.1872718268491562
 30
0.0
 11
-103.9299436319474
 21
-4.1872718268491562
 31
0.0
  0
ARC
  5
1C41
  8
247
 10
-106.2438752725725
 20
-3.3142627631284789
 30
0.0
 40
1.2222158203124971
 50
89.999999999999986
 51
270.0
  0
ARC
  5
1C42
  8
247
 10
-106.2438752725725
 20
-3.3142627631284789
 30
0.0
 40
0.9894111328124999
 50
89.999999999999986
 51
270.0
  0
ARC
  5
1C43
  8
247
 10
-102.720032499135
 20
-3.4306651068784788
 30
0.0
 40
0.756615234375
 50
163.99975070172911
 51
304.96387329163008
  0
LINE
  5
1C44
  8
247
 10
-106.2438752725725
 20
-4.303674170599173
 30
0.0
 11
-101.517969999135
 21
-4.303674170599173
 31
0.0
  0
LINE
  5
1C45
  8
247
 10
-106.2438752725725
 20
-4.5364788521076784
 30
0.0
 11
-101.517969999135
 21
-4.5364788521076784
 31
0.0
  0
LINE
  5
1C46
  8
247
 10
-103.9299436319474
 20
-4.1872718268491562
 30
0.0
 11
-103.32914968663501
 21
-2.0920469428159838
 31
0.0
  0
LINE
  5
1C47
  8
247
 10
-103.934610624135
 20
-2.0920469428159838
 30
0.0
 11
-103.32914968663501
 21
-2.0920469428159838
 31
0.0
  0
TEXT
  5
1C48
  8
247
 10
-99.266862097109225
 20
-4.2396901281834412
 30
0.0
 40
2.0
  1
ST12-C1116-45B-40
 41
0.7
  7
YOKO
 11
-99.266862097109225
 21
-4.2396901281834412
 31
0.0
 73
     1
  0
ENDBLK
  5
1C4A
  8
0
  0
ENDSEC
  0
SECTION
  2
ENTITIES
  0
TEXT
  5
143D
  8
241
 10
-115.0316175580345
 20
22.78757907315201
 30
0.0
 40
3.0
  1
ST12-C1116-45B-40
  7
YOKO
 11
-115.0316175580345
 21
22.78757907315201
 31
0.0
 73
     1
  0
LINE
  5
155D
  8
250
 10
-112.95316065622271
 20
-5.5000000427008722
 30
0.0
 11
-112.95316065622271
 21
-28.999999999999979
 31
0.0
  0
LINE
  5
155E
  8
250
 10
-0.0000001995390733
 20
-5.5639063119887151
 30
0.0
 11
-0.0000001995390747
 21
-29.0
 31
0.0
  0
LINE
  5
155F
  8
250
 10
-110.7231606562227
 20
-27.999999999999979
 30
0.0
 11
-2.2300001995390741
 21
-28.0
 31
0.0
  0
LINE
  5
1563
  8
250
 10
-40.124733852468232
 20
-5.3000002279876908
 30
0.0
 11
-40.124733852468232
 21
-21.999999999999979
 31
0.0
  0
LINE
  5
1564
  8
250
 10
-0.0000001995390733
 20
-5.5639063119887151
 30
0.0
 11
-0.0000001995390743
 21
-22.0
 31
0.0
  0
LINE
  5
1565
  8
250
 10
-37.894733852468242
 20
-20.999999999999979
 30
0.0
 11
-2.2300001995390741
 21
-21.0
 31
0.0
  0
LINE
  5
1569
  8
250
 10
-0.0000001995391132
 20
5.6462791738686731
 30
0.0
 11
-0.000000199539151
 21
15.98572589939201
 31
0.0
  0
LINE
  5
156A
  8
250
 10
-3.6658325216318839
 20
8.8121099220610262
 30
0.0
 11
-7.6646481288492758
 21
12.81092381241389
 31
0.0
  0
ARC
  5
156B
  8
250
 10
-0.0000001995391112
 20
5.1462791738686731
 30
0.0
 40
9.8394467255233362
 50
103.01339785279281
 51
121.9866144469885
  0
LINE
  5
156F
  8
250
 10
-112.4531615770084
 20
-5.9999991208314141
 30
0.0
 11
-121.0
 21
-5.9999991208314123
 31
0.0
  0
LINE
  5
1570
  8
250
 10
-112.4531615770084
 20
6.000000052154137
 30
0.0
 11
-121.0
 21
6.0000000521541397
 31
0.0
  0
LINE
  5
1571
  8
250
 10
-120.0
 20
-3.7699991208314119
 30
0.0
 11
-120.0
 21
3.7700000521541401
 31
0.0
  0
LINE
  5
1575
  8
250
 10
-2.353722250896765
 20
8.0
 30
0.0
 11
16.002216386855789
 21
7.9999999999999929
 31
0.0
  0
LINE
  5
1576
  8
250
 10
-2.3537221852707542
 20
-7.9999999999999849
 30
0.0
 11
16.002216386855789
 21
-7.9999999999999902
 31
0.0
  0
LINE
  5
1577
  8
250
 10
15.002216386855791
 20
5.7699999999999934
 30
0.0
 11
15.002216386855791
 21
-5.7699999999999889
 31
0.0
  0
LINE
  5
157B
  8
250
 10
0.1462788224618237
 20
5.5000000000000284
 30
0.0
 11
9.0022163868558245
 21
5.500000000000024
 31
0.0
  0
LINE
  5
157C
  8
250
 10
0.1462792458742683
 20
-5.5
 30
0.0
 11
9.0022163868558192
 21
-5.5000000000000009
 31
0.0
  0
LINE
  5
157D
  8
250
 10
8.0022163868558227
 20
3.270000000000024
 30
0.0
 11
8.0022163868558227
 21
-3.2700000000000009
 31
0.0
  0
LINE
  5
1581
  8
250
 10
-7.0525996024593081
 20
5.5000000000000284
 30
0.0
 11
-10.379449493265041
 21
5.5000000000000284
 31
0.0
  0
LINE
  5
1582
  8
250
 10
-7.0526000258713282
 20
-5.499999999999984
 30
0.0
 11
-10.379449493265041
 21
-5.4999999999999831
 31
0.0
  0
LINE
  5
1583
  8
250
 10
-9.3794494932650405
 20
3.270000000000028
 30
0.0
 11
-9.3794494932650405
 21
-3.269999999999984
 31
0.0
  0
TEXT
  5
1587
  8
250
 10
-6.7531242178585451
 20
14.97883090577751
 30
0.0
 40
2.799999999999998
  1
45üï
 50
12.07578768366186
  0
LINE
  5
1588
  8
250
 10
-4.9808290162140612
 20
13.200924775706319
 30
0.0
 11
-6.9575411958669484
 21
12.10381718302316
 31
0.0
  0
LINE
  5
1589
  8
250
 10
-5.4434970019303774
 20
13.782717504637899
 30
0.0
 11
-6.9575411958669484
 21
12.10381718302316
 31
0.0
  0
LINE
  5
158A
  8
250
 10
-6.9575411958669484
 20
12.10381718302316
 30
0.0
 11
-5.2121630090722171
 21
13.49182114017211
 31
0.0
  0
LINE
  5
158B
  8
250
 10
-2.2577529434622878
 20
15.10229630051783
 30
0.0
 11
-0.0000001995391474
 21
14.98572589939201
 31
0.0
  0
LINE
  5
158C
  8
250
 10
-2.1735188711829241
 20
14.363751064589991
 30
0.0
 11
-0.0000001995391474
 21
14.98572589939201
 31
0.0
  0
LINE
  5
158D
  8
250
 10
-0.0000001995391474
 20
14.98572589939201
 30
0.0
 11
-2.2156359073226071
 21
14.73302368255392
 31
0.0
  0
TEXT
  5
158E
  8
250
 10
7.0022163868558209
 20
-3.642857142857129
 30
0.0
 40
3.0
  1
\U+2205
 50
90.0
  0
TEXT
  5
158F
  8
250
 10
7.0022163868558209
 20
-0.9285714285714156
 30
0.0
 40
3.0
  1
11
 50
90.0
  0
LINE
  5
1590
  8
250
 10
8.3738830535224871
 20
-3.2700000000000009
 30
0.0
 11
8.0022163868558192
 21
-5.5000000000000009
 31
0.0
  0
LINE
  5
1591
  8
250
 10
7.6305497201891539
 20
-3.2700000000000009
 30
0.0
 11
8.0022163868558192
 21
-5.5000000000000009
 31
0.0
  0
LINE
  5
1592
  8
250
 10
8.0022163868558192
 20
-5.5000000000000009
 30
0.0
 11
8.0022163868558192
 21
-3.2700000000000009
 31
0.0
  0
LINE
  5
1593
  8
250
 10
7.6305497201891539
 20
3.270000000000024
 30
0.0
 11
8.0022163868558245
 21
5.500000000000024
 31
0.0
  0
LINE
  5
1594
  8
250
 10
8.3738830535224889
 20
3.270000000000024
 30
0.0
 11
8.0022163868558245
 21
5.500000000000024
 31
0.0
  0
LINE
  5
1595
  8
250
 10
8.0022163868558245
 20
5.500000000000024
 30
0.0
 11
8.0022163868558245
 21
3.270000000000024
 31
0.0
  0
TEXT
  5
1596
  8
250
 10
14.002216386855791
 20
-4.071428571428565
 30
0.0
 40
3.0
  1
\U+2205
 50
90.0
  0
TEXT
  5
1597
  8
250
 10
14.002216386855791
 20
-1.3571428571428521
 30
0.0
 40
3.0
  1
16
 50
90.0
  0
LINE
  5
1598
  8
250
 10
15.37388305352246
 20
-5.7699999999999889
 30
0.0
 11
15.002216386855791
 21
-7.9999999999999902
 31
0.0
  0
LINE
  5
1599
  8
250
 10
14.630549720189119
 20
-5.7699999999999889
 30
0.0
 11
15.002216386855791
 21
-7.9999999999999902
 31
0.0
  0
LINE
  5
159A
  8
250
 10
15.002216386855791
 20
-7.9999999999999902
 30
0.0
 11
15.002216386855791
 21
-5.7699999999999889
 31
0.0
  0
LINE
  5
159B
  8
250
 10
14.63054972018913
 20
5.7699999999999934
 30
0.0
 11
15.002216386855791
 21
7.9999999999999929
 31
0.0
  0
LINE
  5
159C
  8
250
 10
15.37388305352246
 20
5.7699999999999934
 30
0.0
 11
15.002216386855791
 21
7.9999999999999929
 31
0.0
  0
LINE
  5
159D
  8
250
 10
15.002216386855791
 20
7.9999999999999929
 30
0.0
 11
15.002216386855791
 21
5.7699999999999934
 31
0.0
  0
TEXT
  5
159E
  8
250
 10
-10.379449493265041
 20
-3.642857142857121
 30
0.0
 40
3.0
  1
\U+2205
 50
90.0
  0
TEXT
  5
159F
  8
250
 10
-10.379449493265041
 20
-0.9285714285714083
 30
0.0
 40
3.0
  1
11
 50
90.0
  0
LINE
  5
15A0
  8
250
 10
-9.0077828265983761
 20
-3.269999999999984
 30
0.0
 11
-9.3794494932650423
 21
-5.499999999999984
 31
0.0
  0
LINE
  5
15A1
  8
250
 10
-9.7511161599317084
 20
-3.269999999999984
 30
0.0
 11
-9.3794494932650423
 21
-5.499999999999984
 31
0.0
  0
LINE
  5
15A2
  8
250
 10
-9.3794494932650423
 20
-5.499999999999984
 30
0.0
 11
-9.3794494932650423
 21
-3.269999999999984
 31
0.0
  0
LINE
  5
15A3
  8
250
 10
-9.7511161599317049
 20
3.270000000000028
 30
0.0
 11
-9.3794494932650387
 21
5.5000000000000284
 31
0.0
  0
LINE
  5
15A4
  8
250
 10
-9.0077828265983708
 20
3.270000000000028
 30
0.0
 11
-9.3794494932650387
 21
5.5000000000000284
 31
0.0
  0
LINE
  5
15A5
  8
250
 10
-9.3794494932650387
 20
5.5000000000000284
 30
0.0
 11
-9.3794494932650387
 21
3.270000000000028
 31
0.0
  0
TEXT
  5
15A6
  8
250
 10
-23.239113258941519
 20
-19.999999999999989
 30
0.0
 40
3.0
  1
40
  0
LINE
  5
15A7
  8
250
 10
-2.2300001995390741
 20
-20.62833333333333
 30
0.0
 11
-0.0000001995390742
 21
-21.0
 31
0.0
  0
LINE
  5
15A8
  8
250
 10
-2.2300001995390741
 20
-21.37166666666667
 30
0.0
 11
-0.0000001995390742
 21
-21.0
 31
0.0
  0
LINE
  5
15A9
  8
250
 10
-0.0000001995390742
 20
-21.0
 30
0.0
 11
-2.2300001995390741
 21
-21.0
 31
0.0
  0
LINE
  5
15AA
  8
250
 10
-37.894733852468242
 20
-21.371666666666648
 30
0.0
 11
-40.124733852468232
 21
-20.999999999999979
 31
0.0
  0
LINE
  5
15AB
  8
250
 10
-37.894733852468242
 20
-20.628333333333309
 30
0.0
 11
-40.124733852468232
 21
-20.999999999999979
 31
0.0
  0
LINE
  5
15AC
  8
250
 10
-40.124733852468232
 20
-20.999999999999979
 30
0.0
 11
-37.894733852468242
 21
-20.999999999999979
 31
0.0
  0
TEXT
  5
15AD
  8
250
 10
-61.031549013460811
 20
-26.999999999999979
 30
0.0
 40
3.0
  1
113
  0
LINE
  5
15AE
  8
250
 10
-2.2300001995390741
 20
-27.62833333333333
 30
0.0
 11
-0.0000001995390747
 21
-28.0
 31
0.0
  0
LINE
  5
15AF
  8
250
 10
-2.2300001995390741
 20
-28.371666666666659
 30
0.0
 11
-0.0000001995390747
 21
-28.0
 31
0.0
  0
LINE
  5
15B0
  8
250
 10
-0.0000001995390747
 20
-28.0
 30
0.0
 11
-2.2300001995390741
 21
-28.0
 31
0.0
  0
LINE
  5
15B1
  8
250
 10
-110.7231606562227
 20
-28.371666666666641
 30
0.0
 11
-112.95316065622271
 21
-27.999999999999979
 31
0.0
  0
LINE
  5
15B2
  8
250
 10
-110.7231606562227
 20
-27.628333333333309
 30
0.0
 11
-112.95316065622271
 21
-27.999999999999979
 31
0.0
  0
LINE
  5
15B3
  8
250
 10
-112.95316065622271
 20
-27.999999999999979
 30
0.0
 11
-110.7231606562227
 21
-27.999999999999979
 31
0.0
  0
TEXT
  5
15B4
  8
250
 10
-121.0
 20
-4.0714281057672244
 30
0.0
 40
3.0
  1
\U+2205
 50
90.0
  0
TEXT
  5
15B5
  8
250
 10
-121.0
 20
-1.3571423914815091
 30
0.0
 40
3.0
  1
12
 50
90.0
  0
LINE
  5
15B6
  8
250
 10
-120.3716666666666
 20
3.7700000521541379
 30
0.0
 11
-120.0
 21
6.0000000521541388
 31
0.0
  0
LINE
  5
15B7
  8
250
 10
-119.6283333333333
 20
3.7700000521541379
 30
0.0
 11
-120.0
 21
6.0000000521541388
 31
0.0
  0
LINE
  5
15B8
  8
250
 10
-120.0
 20
6.0000000521541388
 30
0.0
 11
-120.0
 21
3.7700000521541379
 31
0.0
  0
LINE
  5
15B9
  8
250
 10
-119.6283333333333
 20
-3.7699991208314141
 30
0.0
 11
-120.0
 21
-5.9999991208314132
 31
0.0
  0
LINE
  5
15BA
  8
250
 10
-120.3716666666666
 20
-3.7699991208314141
 30
0.0
 11
-120.0
 21
-5.9999991208314132
 31
0.0
  0
LINE
  5
15BB
  8
250
 10
-120.0
 20
-5.9999991208314132
 30
0.0
 11
-120.0
 21
-3.7699991208314141
 31
0.0
  0
INSERT
  5
1C4C
  8
240
  2
A$C58B51809
 10
0.0
 20
0.0
 30
0.0
  0
VIEWPORT
  5
22
 67
     1
  8
0
 10
261.51769911504419
 20
148.5
 30
0.0
 40
523.0353982300885
 41
297.0
 68
     1
 69
     1
1001
ACAD
1000
MVIEW
1002
{
1070
    16
1010
0.0
1020
0.0
1030
0.0
1010
0.0
1020
0.0
1030
1.0
1040
0.0
1040
297.0
1040
261.51769911504419
1040
148.5
1040
50.0
1040
0.0
1040
0.0
1070
     0
1070
   100
1070
     1
1070
     1
1070
     0
1070
     0
1070
     0
1070
     0
1040
0.0
1040
0.0
1040
0.0
1040
1.0
1040
1.0
1040
10.0
1040
10.0
1070
     0
1002
{
1002
}
1002
}
1001
GENIUS_GENODEF_13
1002
{
1000
HIER
1070
     0
1002
}
1002
{
1000
MANEDIT
1070
     0
1002
}
1002
{
1000
NOSEL
1070
     0
1002
}
1002
{
1000
BEHIND
1070
     0
1002
}
1002
{
1000
OTHER
1070
     0
1002
}
1002
{
1000
REACTOR
1002
}
1001
GENIUS_GENOBJ-N-SDF_13
1002
{
1000
OWNER
1000
GEN
1002
}
1001
GENIUS_GENSCREG_15
1000
PF
1040
1.0
1000
DF
1040
1.0
1000
MIN
1011
0.0
1021
-1.6998353200487308E+084
1031
-0.0
1021
0.0
1031
0.0
1000
MAX
1011
523.0353982300885
1021
-1.6998353200487308E+084
1031
-0.0
1021
297.0
1031
0.0
1000
FLAGS
1070
     2
  0
ENDSEC
  0
EOF
