  0
SECTION
  2
HEADER
  9
$ACADVER
  1
AC1009
  9
$INSBASE
 10
0.0
 20
0.0
 30
0.0
  9
$EXTMIN
 10
-109.0126938119032
 20
-29.013030169286822
 30
-0.0000000349181948
  9
$EXTMAX
 10
16.0038791497667
 20
25.80044960969548
 30
0.0000000814935746
  9
$LIMMIN
 10
0.0
 20
0.0
  9
$LIMMAX
 10
297.0
 20
210.0
  9
$ORTHOMODE
 70
     0
  9
$REGENMODE
 70
     1
  9
$FILLMODE
 70
     1
  9
$QTEXTMODE
 70
     0
  9
$MIRRTEXT
 70
     1
  9
$DRAGMODE
 70
     2
  9
$LTSCALE
 40
10.0
  9
$OSMODE
 70
  2597
  9
$ATTMODE
 70
     1
  9
$TEXTSIZE
 40
3.0
  9
$TRACEWID
 40
1.0
  9
$TEXTSTYLE
  7
YOKO
  9
$CLAYER
  8
240
  9
$CELTYPE
  6
BYLAYER
  9
$CECOLOR
 62
   256
  9
$DIMSCALE
 40
1.0
  9
$DIMASZ
 40
2.2299999999999991
  9
$DIMEXO
 40
0.5
  9
$DIMDLI
 40
7.0
  9
$DIMRND
 40
0.0
  9
$DIMDLE
 40
0.0
  9
$DIMEXE
 40
1.0
  9
$DIMTP
 40
0.0
  9
$DIMTM
 40
0.01
  9
$DIMTXT
 40
2.7999999999999989
  9
$DIMCEN
 40
0.0
  9
$DIMTSZ
 40
0.0
  9
$DIMTOL
 70
     0
  9
$DIMLIM
 70
     0
  9
$DIMTIH
 70
     0
  9
$DIMTOH
 70
     0
  9
$DIMSE1
 70
     0
  9
$DIMSE2
 70
     0
  9
$DIMTAD
 70
     3
  9
$DIMZIN
 70
     9
  9
$DIMBLK
  1
OPEN
  9
$DIMASO
 70
     1
  9
$DIMSHO
 70
     1
  9
$DIMPOST
  1

  9
$DIMAPOST
  1

  9
$DIMALT
 70
     0
  9
$DIMALTD
 70
     2
  9
$DIMALTF
 40
25.399999999999999
  9
$DIMLFAC
 40
1.0
  9
$DIMTOFL
 70
     1
  9
$DIMTVP
 40
0.0
  9
$DIMTIX
 70
     1
  9
$DIMSOXD
 70
     0
  9
$DIMSAH
 70
     0
  9
$DIMBLK1
  1

  9
$DIMBLK2
  1

  9
$DIMSTYLE
  2
BIGT
  9
$DIMCLRD
 70
   256
  9
$DIMCLRE
 70
   256
  9
$DIMCLRT
 70
    40
  9
$DIMTFAC
 40
1.0
  9
$DIMGAP
 40
1.0
  9
$LUNITS
 70
     2
  9
$LUPREC
 70
     3
  9
$SKETCHINC
 40
1.0
  9
$FILLETRAD
 40
0.0
  9
$AUNITS
 70
     0
  9
$AUPREC
 70
     3
  9
$MENU
  1
.
  9
$ELEVATION
 40
0.0
  9
$PELEVATION
 40
0.0
  9
$THICKNESS
 40
0.0
  9
$LIMCHECK
 70
     0
  9
$BLIPMODE
 70
     0
  9
$CHAMFERA
 40
0.25
  9
$CHAMFERB
 40
0.25
  9
$SKPOLY
 70
     0
  9
$TDCREATE
 40
2454089.7845382062
  9
$TDUPDATE
 40
2454090.375778357
  9
$TDINDWG
 40
0.0243616204
  9
$TDUSRTIMER
 40
0.0243614352
  9
$USRTIMER
 70
     1
  9
$ANGBASE
 50
0.0
  9
$ANGDIR
 70
     0
  9
$PDMODE
 70
     1
  9
$PDSIZE
 40
0.0
  9
$PLINEWID
 40
0.0
  9
$COORDS
 70
     0
  9
$SPLFRAME
 70
     0
  9
$SPLINETYPE
 70
     6
  9
$SPLINESEGS
 70
     4
  9
$ATTDIA
 70
     1
  9
$ATTREQ
 70
     1
  9
$HANDLING
 70
     1
  9
$HANDSEED
  5
1915
  9
$SURFTAB1
 70
     6
  9
$SURFTAB2
 70
     6
  9
$SURFTYPE
 70
     6
  9
$SURFU
 70
     6
  9
$SURFV
 70
     6
  9
$UCSNAME
  2

  9
$UCSORG
 10
0.0
 20
0.0
 30
0.0
  9
$UCSXDIR
 10
1.0
 20
0.0
 30
0.0
  9
$UCSYDIR
 10
0.0
 20
1.0
 30
0.0
  9
$PUCSNAME
  2

  9
$PUCSORG
 10
0.0
 20
0.0
 30
0.0
  9
$PUCSXDIR
 10
1.0
 20
0.0
 30
0.0
  9
$PUCSYDIR
 10
0.0
 20
1.0
 30
0.0
  9
$USERI1
 70
     1
  9
$USERI2
 70
     0
  9
$USERI3
 70
     0
  9
$USERI4
 70
     0
  9
$USERI5
 70
     0
  9
$USERR1
 40
0.0
  9
$USERR2
 40
0.0
  9
$USERR3
 40
0.0
  9
$USERR4
 40
0.0
  9
$USERR5
 40
0.0
  9
$WORLDVIEW
 70
     1
  9
$SHADEDGE
 70
     3
  9
$SHADEDIF
 70
    70
  9
$TILEMODE
 70
     1
  9
$MAXACTVP
 70
    16
  9
$PLIMCHECK
 70
     0
  9
$PEXTMIN
 10
1.0000000000000000E+020
 20
1.0000000000000000E+020
 30
1.0000000000000000E+020
  9
$PEXTMAX
 10
-1.0000000000000000E+020
 20
-1.0000000000000000E+020
 30
-1.0000000000000000E+020
  9
$PLIMMIN
 10
0.0
 20
0.0
  9
$PLIMMAX
 10
420.0
 20
297.0
  9
$UNITMODE
 70
     0
  9
$VISRETAIN
 70
     1
  9
$PLINEGEN
 70
     0
  9
$PSLTSCALE
 70
     1
  0
ENDSEC
  0
SECTION
  2
TABLES
  0
TABLE
  2
VPORT
 70
     3
  0
VPORT
  2
*ACTIVE
 70
     0
 10
0.0
 20
0.0
 11
1.0
 21
1.0
 12
-46.504407331068251
 22
-1.606290279795672
 13
0.0
 23
0.0
 14
7.0
 24
7.0
 15
7.0
 25
7.0
 16
0.0
 26
0.0
 36
1.0
 17
0.0
 27
0.0
 37
0.0
 40
84.937872675013779
 41
1.4791666666666661
 42
50.0
 43
0.0
 44
0.0
 50
0.0
 51
0.0
 71
     0
 72
  2000
 73
     1
 74
     0
 75
     0
 76
     0
 77
     0
 78
     0
  0
ENDTAB
  0
TABLE
  2
LTYPE
 70
    15
  0
LTYPE
  2
CONTINUOUS
 70
     0
  3
Solid line
 72
    65
 73
     0
 40
0.0
  0
LTYPE
  2
CENTER2
 70
     0
  3
___ _ ___ _ ___ _ ___ _ ___ _ ___ _ ___ _ ___ _
 72
    65
 73
     4
 40
1.125
 49
0.75
 49
-0.125
 49
0.125
 49
-0.125
  0
LTYPE
  2
HIDDEN2
 70
     0
  3
_ _ _ _ _ _ _ _ _ _ _ _ _ _ _ _ _ _ _ _ _ _ _ _
 72
    65
 73
     2
 40
0.1875
 49
0.125
 49
-0.0625
  0
LTYPE
  2
PHANTOM2
 70
     0
  3
___ _ _ ___ _ _ ___ _ _ ___ _ _ ___ _ _ ___ _ _
 72
    65
 73
     6
 40
1.25
 49
0.625
 49
-0.125
 49
0.125
 49
-0.125
 49
0.125
 49
-0.125
  0
LTYPE
  2
CENTER
 70
     0
  3
____ _ ____ _ ____ _ ____ _ ____ _ ____ _ ____ 
 72
    65
 73
     4
 40
2.0
 49
1.25
 49
-0.25
 49
0.25
 49
-0.25
  0
LTYPE
  2
AM_ISO02W050
 70
     0
  3
__ __ __ __ __ __ __ __ __ __ __ __ __ __ __
 72
    65
 73
     2
 40
7.5
 49
6.0
 49
-1.5
  0
LTYPE
  2
AMCONSTR
 70
     0
  3
_______________________
 72
    65
 73
     2
 40
9999.0
 49
9999.0
 49
0.0
  0
LTYPE
  2
ACISOWELD
 70
     0
  3
_ _ _ _ _
 72
    65
 73
     2
 40
2.0
 49
2.0
 49
-1.0
  0
LTYPE
  2
ACISOTGB
 70
     0
  3
__ . . __ . .
 72
    65
 73
     6
 40
9.0
 49
4.0
 49
-1.0
 49
1.0
 49
-1.0
 49
1.0
 49
-1.0
  0
LTYPE
  2
ACISOTGL
 70
     0
  3
_ _ _ _ _
 72
    65
 73
     2
 40
3.0
 49
2.0
 49
-1.0
  0
LTYPE
  2
ACJISTGB
 70
     0
  3
__ . . __ . .
 72
    65
 73
     6
 40
9.0
 49
4.0
 49
-1.0
 49
1.0
 49
-1.0
 49
1.0
 49
-1.0
  0
LTYPE
  2
ACJISTGL
 70
     0
  3
_ _ _ _ _
 72
    65
 73
     2
 40
3.0
 49
2.0
 49
-1.0
  0
LTYPE
  2
HIDDEN
 70
     0
  3
Hidden __ __ __ __ __ __ __ __ __ __ __ __ __ _
 72
    65
 73
     2
 40
9.5249999999999986
 49
6.3499999999999988
 49
-3.1749999999999989
  0
ENDTAB
  0
TABLE
  2
LAYER
 70
     8
  0
LAYER
  2
0
 70
     0
 62
     7
  6
CONTINUOUS
  0
LAYER
  2
DEFPOINTS
 70
     0
 62
     7
  6
CONTINUOUS
  0
LAYER
  2
245
 70
     0
 62
     2
  6
CENTER2
  0
LAYER
  2
240
 70
     0
 62
     4
  6
CONTINUOUS
  0
LAYER
  2
241
 70
     0
 62
   211
  6
CONTINUOUS
  0
LAYER
  2
246
 70
     0
 62
     3
  6
PHANTOM2
  0
LAYER
  2
247
 70
     0
 62
    60
  6
CONTINUOUS
  0
LAYER
  2
250
 70
     0
 62
     3
  6
CONTINUOUS
  0
ENDTAB
  0
TABLE
  2
STYLE
 70
     8
  0
STYLE
  2
STANDARD
 70
     0
 40
0.0
 41
1.0
 50
0.0
 71
     0
 42
3.0
  3
romans.shx
  4
extfont.shx
  0
STYLE
  2
ACISOTS
 70
     0
 40
1.0
 41
1.0
 50
0.0
 71
     0
 42
3.0
  3
amgdt.shx
  4
extfont.shx
  0
STYLE
  2
ACISOGDT
 70
     0
 40
0.0
 41
1.0
 50
0.0
 71
     0
 42
3.0
  3
amgdt.shx
  4
extfont.shx
  0
STYLE
  2
ACJISTS
 70
     0
 40
1.0
 41
1.0
 50
0.0
 71
     0
 42
3.0
  3
amgdt.shx
  4
extfont.shx
  0
STYLE
  2
ACJISGDT
 70
     0
 40
0.0
 41
1.0
 50
0.0
 71
     0
 42
3.0
  3
amgdt.shx
  4
extfont.shx
  0
STYLE
  2
YOKO
 70
     0
 40
0.0
 41
1.0
 50
0.0
 71
     0
 42
3.0
  3
romans.shx
  4
extfont.shx
  0
ENDTAB
  0
TABLE
  2
VIEW
 70
     0
  0
ENDTAB
  0
TABLE
  2
UCS
 70
     0
  0
ENDTAB
  0
TABLE
  2
APPID
 70
    30
  0
APPID
  2
ACAD
 70
     0
  0
APPID
  2
GLOBAL
 70
     0
  0
APPID
  2
DETAIL
 70
     0
  0
APPID
  2
GRPNAME
 70
     0
  0
APPID
  2
GPARA
 70
     0
  0
APPID
  2
MCAD_NO_VIS
 70
     0
  0
APPID
  2
ACAD_TEMP_GRAPHIC
 70
     0
  0
APPID
  2
ACATTRIBSERVICES
 70
     0
  0
APPID
  2
GENIUS_GENSCREG_15
 70
     0
  0
APPID
  2
GENIUS_GENODEF_13
 70
     0
  0
APPID
  2
GENIUS_GENOBJ-N-SDF_13
 70
     0
  0
APPID
  2
GENIUS_GENREC_14
 70
     0
  0
APPID
  2
GENIUS_GENOBJ-N-REC_13
 70
     0
  0
APPID
  2
GENIUS_GENDIMSH_14
 70
     0
  0
APPID
  2
GENIUS_GENOBJ-N-DIM_13
 70
     0
  0
APPID
  2
GENIUS_GENDIM_13
 70
     0
  0
APPID
  2
GENIUS_GENDTOL_13
 70
     0
  0
APPID
  2
GENIUS_GENOLIS_13
 70
     0
  0
APPID
  2
GENIUS_GENOENT_13
 70
     0
  0
APPID
  2
GENIUS_GENOBJ-F-FEM_13
 70
     0
  0
APPID
  2
GENIUS_GENOREF_13
 70
     0
  0
APPID
  2
GENIUS_GEFFEM_13
 70
     0
  0
APPID
  2
GENIUS_GEFFEMP_13
 70
     0
  0
APPID
  2
AD_DRAW
 70
     0
  0
APPID
  2
DESIGNERASSEMBLIES
 70
     0
  0
APPID
  2
ACADM_DIM_EDIT
 70
     0
  0
APPID
  2
AMDT_DM_ADJ
 70
     0
  0
APPID
  2
HATCH_TYPE
 70
     0
  0
APPID
  2
HATCH_DISPLAY
 70
     0
  0
APPID
  2
HATCH_DISTANCE
 70
     0
  0
ENDTAB
  0
TABLE
  2
DIMSTYLE
 70
    29
  0
DIMSTYLE
  2
BIGT
 70
     0
  3

  4

  5
OPEN
  6

  7

 40
1.0
 41
2.2299999999999991
 42
0.5
 43
7.0
 44
1.0
 45
0.0
 46
0.0
 47
0.0
 48
0.01
140
2.7999999999999989
141
0.0
142
0.0
143
25.399999999999999
144
1.0
145
0.0
146
1.0
147
1.0
 71
     0
 72
     0
 73
     0
 74
     0
 75
     0
 76
     0
 77
     3
 78
     9
170
     0
171
     2
172
     1
173
     0
174
     1
175
     0
176
   256
177
   256
178
    40
  0
DIMSTYLE
  2
AM_ISO
 70
     0
  3

  4
"
  5

  6

  7

 40
1.0
 41
2.5
 42
1.0
 43
10.0
 44
1.0
 45
0.0
 46
0.0
 47
0.1
 48
0.1
140
3.5
141
0.0
142
0.0
143
0.0393701
144
1.0
145
0.0
146
0.71
147
1.5
 71
     0
 72
     0
 73
     0
 74
     0
 75
     0
 76
     0
 77
     1
 78
     8
170
     0
171
     2
172
     1
173
     0
174
     0
175
     0
176
   256
177
   256
178
     2
  0
DIMSTYLE
  2
AM_ISO$3
 70
     0
  3

  4
"
  5

  6

  7

 40
1.0
 41
2.5
 42
1.0
 43
10.0
 44
1.0
 45
0.0
 46
0.0
 47
0.1
 48
0.1
140
3.5
141
0.0
142
0.0
143
0.0393701
144
1.0
145
0.0
146
0.71
147
1.5
 71
     0
 72
     0
 73
     0
 74
     1
 75
     0
 76
     0
 77
     1
 78
     8
170
     0
171
     2
172
     0
173
     0
174
     0
175
     0
176
   256
177
   256
178
     2
  0
DIMSTYLE
  2
AM_ISO$4
 70
     0
  3

  4
"
  5

  6

  7

 40
1.0
 41
2.5
 42
1.0
 43
10.0
 44
1.0
 45
0.0
 46
0.0
 47
0.1
 48
0.1
140
3.5
141
0.0
142
0.0
143
0.0393701
144
1.0
145
0.0
146
0.71
147
1.5
 71
     0
 72
     0
 73
     0
 74
     1
 75
     0
 76
     0
 77
     1
 78
     8
170
     0
171
     2
172
     0
173
     0
174
     0
175
     0
176
   256
177
   256
178
     2
  0
DIMSTYLE
  2
AM_ISO$6
 70
     0
  3

  4
"
  5

  6

  7

 40
1.0
 41
2.5
 42
1.0
 43
10.0
 44
1.0
 45
0.0
 46
0.0
 47
0.1
 48
0.1
140
3.5
141
0.0
142
0.0
143
0.0393701
144
1.0
145
0.0
146
0.71
147
1.5
 71
     0
 72
     0
 73
     0
 74
     0
 75
     0
 76
     0
 77
     0
 78
     8
170
     0
171
     2
172
     1
173
     0
174
     0
175
     0
176
   256
177
   256
178
     2
  0
DIMSTYLE
  2
AM_ISO$7
 70
     0
  3

  4
"
  5

  6

  7

 40
1.0
 41
2.5
 42
1.0
 43
10.0
 44
1.0
 45
0.0
 46
0.0
 47
0.1
 48
0.1
140
5.0
141
0.0
142
0.0
143
0.0393701
144
1.0
145
0.0
146
0.71
147
1.5
 71
     0
 72
     0
 73
     0
 74
     0
 75
     0
 76
     0
 77
     1
 78
     8
170
     0
171
     2
172
     1
173
     0
174
     0
175
     0
176
   256
177
   256
178
     2
  0
DIMSTYLE
  2
AM_ISO$SF
 70
     0
  3

  4
"
  5

  6

  7

 40
1.0
 41
2.5
 42
1.0
 43
10.0
 44
1.0
 45
0.0
 46
0.0
 47
0.1
 48
0.1
140
3.5
141
0.0
142
0.0
143
0.0393701
144
1.0
145
0.0
146
0.71
147
1.5
 71
     0
 72
     0
 73
     0
 74
     0
 75
     1
 76
     1
 77
     1
 78
     8
170
     0
171
     2
172
     1
173
     0
174
     0
175
     0
176
   256
177
   256
178
     2
  0
DIMSTYLE
  2
AM_ISO$SH
 70
     0
  3

  4
"
  5

  6
GENAXEH
  7

 40
1.0
 41
2.5
 42
1.0
 43
10.0
 44
1.0
 45
0.0
 46
0.0
 47
0.1
 48
0.1
140
3.5
141
0.0
142
0.0
143
0.0393701
144
2.0
145
0.0
146
0.71
147
1.5
 71
     0
 72
     0
 73
     0
 74
     0
 75
     1
 76
     1
 77
     1
 78
     8
170
     0
171
     2
172
     1
173
     1
174
     0
175
     0
176
   256
177
   256
178
     2
  0
DIMSTYLE
  2
BIGT$2
 70
     0
  3

  4

  5
OPEN
  6

  7

 40
1.0
 41
2.2299999999999991
 42
0.5
 43
7.0
 44
1.0
 45
0.0
 46
0.0
 47
0.0
 48
0.01
140
2.7999999999999989
141
0.0
142
0.0
143
25.399999999999999
144
1.0
145
0.0
146
1.0
147
1.0
 71
     0
 72
     0
 73
     0
 74
     0
 75
     0
 76
     0
 77
     3
 78
     9
170
     0
171
     2
172
     1
173
     0
174
     0
175
     0
176
   256
177
   256
178
    40
  0
DIMSTYLE
  2
BIGT$3
 70
     0
  3

  4

  5
OPEN
  6

  7

 40
1.0
 41
2.2299999999999991
 42
0.5
 43
2.5
 44
1.0
 45
0.0
 46
0.0
 47
0.0
 48
0.01
140
2.7999999999999989
141
0.0
142
0.0
143
25.399999999999999
144
1.0
145
0.0
146
1.0
147
1.0
 71
     0
 72
     0
 73
     0
 74
     0
 75
     0
 76
     0
 77
     3
 78
     9
170
     0
171
     2
172
     1
173
     0
174
     0
175
     0
176
   256
177
   256
178
    40
  0
DIMSTYLE
  2
BIGT$7
 70
     0
  3

  4

  5
OPEN
  6

  7

 40
0.0
 41
2.2299999999999991
 42
0.5
 43
7.0
 44
1.0
 45
0.0
 46
0.0
 47
0.0
 48
0.01
140
2.7999999999999989
141
0.0
142
0.0
143
25.399999999999999
144
1.0
145
0.0
146
1.0
147
1.0
 71
     0
 72
     0
 73
     0
 74
     0
 75
     0
 76
     0
 77
     3
 78
     9
170
     0
171
     2
172
     0
173
     0
174
     0
175
     0
176
   256
177
   256
178
    40
  0
DIMSTYLE
  2
BIGT$6
 70
     0
  3

  4

  5
OPEN
  6

  7

 40
1.0
 41
2.2299999999999991
 42
0.5
 43
2.5
 44
1.0
 45
0.0
 46
0.0
 47
0.0
 48
0.01
140
2.7999999999999989
141
0.0
142
0.0
143
25.399999999999999
144
1.0
145
0.0
146
1.0
147
1.0
 71
     0
 72
     0
 73
     0
 74
     0
 75
     0
 76
     0
 77
     3
 78
     9
170
     0
171
     2
172
     1
173
     0
174
     0
175
     0
176
   256
177
   256
178
    40
  0
DIMSTYLE
  2
BIGT$0
 70
     0
  3

  4

  5
OPEN
  6

  7

 40
1.0
 41
2.2299999999999991
 42
0.5
 43
7.0
 44
1.0
 45
0.0
 46
0.0
 47
0.0
 48
0.01
140
2.7999999999999989
141
0.0
142
0.0
143
25.399999999999999
144
1.0
145
0.0
146
1.0
147
1.0
 71
     0
 72
     0
 73
     0
 74
     0
 75
     0
 76
     0
 77
     3
 78
     9
170
     0
171
     2
172
     1
173
     0
174
     0
175
     0
176
   256
177
   256
178
    40
  0
DIMSTYLE
  2
BIGT$4
 70
     0
  3

  4

  5
OPEN
  6

  7

 40
1.0
 41
2.2299999999999991
 42
0.5
 43
2.5
 44
1.0
 45
0.0
 46
0.0
 47
0.0
 48
0.01
140
2.7999999999999989
141
0.0
142
0.0
143
25.399999999999999
144
1.0
145
0.0
146
1.0
147
1.0
 71
     0
 72
     0
 73
     0
 74
     0
 75
     0
 76
     0
 77
     3
 78
     9
170
     0
171
     2
172
     1
173
     0
174
     0
175
     0
176
   256
177
   256
178
    40
  0
DIMSTYLE
  2
BIGT$SH
 70
     0
  3

  4

  5
OPEN
  6

  7

 40
1.0
 41
2.2299999999999991
 42
0.5
 43
7.0
 44
1.0
 45
0.0
 46
0.0
 47
0.0
 48
0.0
140
2.7999999999999989
141
0.0
142
0.0
143
25.399999999999999
144
1.0
145
0.0
146
1.0
147
1.0
 71
     0
 72
     0
 73
     0
 74
     0
 75
     0
 76
     0
 77
     3
 78
     9
170
     0
171
     2
172
     1
173
     0
174
     0
175
     0
176
   256
177
   256
178
    40
  0
DIMSTYLE
  2
BIGT$SF
 70
     0
  3

  4

  5
OPEN
  6

  7

 40
1.0
 41
2.2299999999999991
 42
0.5
 43
7.0
 44
1.0
 45
0.0
 46
0.0
 47
0.0
 48
0.0
140
2.7999999999999989
141
0.0
142
0.0
143
25.399999999999999
144
1.0
145
0.0
146
1.0
147
1.0
 71
     0
 72
     0
 73
     0
 74
     0
 75
     0
 76
     0
 77
     3
 78
     9
170
     0
171
     2
172
     1
173
     0
174
     0
175
     0
176
   256
177
   256
178
    40
  0
DIMSTYLE
  2
TECHNICAL_OSAKA
 70
     0
  3

  4
"
  5
OPEN30
  6

  7

 40
1.0
 41
2.5
 42
1.0
 43
10.0
 44
1.0
 45
0.0
 46
0.0
 47
0.1
 48
0.1
140
2.7999999999999989
141
0.0
142
0.0
143
0.0393701
144
1.0
145
0.0
146
0.71
147
1.5
 71
     0
 72
     0
 73
     0
 74
     0
 75
     0
 76
     0
 77
     3
 78
     8
170
     0
171
     2
172
     1
173
     0
174
     0
175
     0
176
   256
177
   256
178
    40
  0
DIMSTYLE
  2
TECHNICAL_OSAKA$3
 70
     0
  3

  4
"
  5
OPEN30
  6

  7

 40
1.0
 41
2.5
 42
1.0
 43
10.0
 44
1.0
 45
0.0
 46
0.0
 47
0.1
 48
0.1
140
2.7999999999999989
141
0.0
142
0.0
143
0.0393701
144
1.0
145
0.0
146
0.71
147
1.5
 71
     0
 72
     0
 73
     0
 74
     1
 75
     0
 76
     0
 77
     3
 78
     8
170
     0
171
     2
172
     0
173
     0
174
     0
175
     0
176
   256
177
   256
178
    40
  0
DIMSTYLE
  2
TECHNICAL_OSAKA$4
 70
     0
  3

  4
"
  5
OPEN30
  6

  7

 40
1.0
 41
2.5
 42
1.0
 43
10.0
 44
1.0
 45
0.0
 46
0.0
 47
0.1
 48
0.1
140
2.7999999999999989
141
0.0
142
0.0
143
0.0393701
144
1.0
145
0.0
146
0.71
147
1.5
 71
     0
 72
     0
 73
     0
 74
     1
 75
     0
 76
     0
 77
     3
 78
     8
170
     0
171
     2
172
     0
173
     0
174
     0
175
     0
176
   256
177
   256
178
    40
  0
DIMSTYLE
  2
TECHNICAL_OSAKA$6
 70
     0
  3

  4
"
  5
OPEN30
  6

  7

 40
1.0
 41
2.5
 42
1.0
 43
10.0
 44
1.0
 45
0.0
 46
0.0
 47
0.1
 48
0.1
140
2.7999999999999989
141
0.0
142
0.0
143
0.0393701
144
1.0
145
0.0
146
0.71
147
1.5
 71
     0
 72
     0
 73
     0
 74
     0
 75
     0
 76
     0
 77
     0
 78
     8
170
     0
171
     2
172
     1
173
     0
174
     0
175
     0
176
   256
177
   256
178
    40
  0
DIMSTYLE
  2
TECHNICAL_OSAKA$7
 70
     0
  3

  4
"
  5
OPEN30
  6

  7

 40
1.0
 41
2.5
 42
1.0
 43
10.0
 44
1.0
 45
0.0
 46
0.0
 47
0.1
 48
0.1
140
2.7999999999999989
141
0.0
142
0.0
143
0.0393701
144
1.0
145
0.0
146
0.71
147
1.5
 71
     0
 72
     0
 73
     0
 74
     0
 75
     0
 76
     0
 77
     3
 78
     8
170
     0
171
     2
172
     1
173
     0
174
     0
175
     0
176
   256
177
   256
178
    40
  0
DIMSTYLE
  2
TECHNICAL_OSAKA$SF
 70
     0
  3

  4
"
  5
OPEN30
  6
OPEN30
  7
OPEN30
 40
1.0
 41
2.5
 42
1.0
 43
10.0
 44
1.0
 45
0.0
 46
0.0
 47
0.1
 48
0.1
140
3.5
141
0.0
142
0.0
143
0.0393701
144
1.0
145
0.0
146
0.71
147
1.5
 71
     0
 72
     0
 73
     0
 74
     0
 75
     1
 76
     1
 77
     3
 78
     8
170
     0
171
     2
172
     1
173
     0
174
     0
175
     0
176
   256
177
   256
178
    40
  0
DIMSTYLE
  2
TECHNICAL_OSAKA$SH
 70
     0
  3

  4
"
  5
OPEN30
  6
GENAXEH
  7
OPEN30
 40
1.0
 41
2.5
 42
1.0
 43
10.0
 44
1.0
 45
0.0
 46
0.0
 47
0.1
 48
0.1
140
3.5
141
0.0
142
0.0
143
0.0393701
144
2.0
145
0.0
146
0.71
147
1.5
 71
     0
 72
     0
 73
     0
 74
     0
 75
     1
 76
     1
 77
     3
 78
     8
170
     0
171
     2
172
     1
173
     1
174
     0
175
     0
176
   256
177
   256
178
    40
  0
ENDTAB
  0
ENDSEC
  0
SECTION
  2
BLOCKS
  0
BLOCK
  8
0
  2
$MODEL_SPACE
 70
     0
 10
0.0
 20
0.0
 30
0.0
  3
$MODEL_SPACE
  1

  0
ENDBLK
  5
1C
  8
0
  0
BLOCK
 67
     1
  8
0
  2
$PAPER_SPACE
 70
     0
 10
0.0
 20
0.0
 30
0.0
  3
$PAPER_SPACE
  1

  0
ENDBLK
  5
19
 67
     1
  8
0
  0
BLOCK
  8
0
  2
_OPEN
 70
     0
 10
0.0
 20
0.0
 30
0.0
  3
_OPEN
  1

  0
LINE
  5
189E
  8
0
  6
BYBLOCK
 62
     0
 10
-1.0
 20
0.1666666666666666
 30
0.0
 11
0.0
 21
0.0
 31
0.0
  0
LINE
  5
189F
  8
0
  6
BYBLOCK
 62
     0
 10
-1.0
 20
-0.1666666666666666
 30
0.0
 11
0.0
 21
0.0
 31
0.0
  0
LINE
  5
18A0
  8
0
  6
BYBLOCK
 62
     0
 10
0.0
 20
0.0
 30
0.0
 11
-1.0
 21
0.0
 31
0.0
  0
ENDBLK
  5
18A1
  8
0
  0
BLOCK
  8
0
  2
GENAXEH
 70
     0
 10
0.0
 20
0.0
 30
0.0
  3
GENAXEH
  1

  0
LINE
  5
18C9
  8
0
 10
-1.0
 20
0.0
 30
0.0
 11
1.0
 21
0.0
 31
0.0
  0
ENDBLK
  5
18CA
  8
0
  0
BLOCK
  8
0
  2
_OPEN30
 70
     0
 10
0.0
 20
0.0
 30
0.0
  3
_OPEN30
  1

  0
LINE
  5
18EE
  8
0
  6
BYBLOCK
 62
     0
 10
-1.0
 20
0.26794919
 30
0.0
 11
0.0
 21
0.0
 31
0.0
  0
LINE
  5
18EF
  8
0
  6
BYBLOCK
 62
     0
 10
0.0
 20
0.0
 30
0.0
 11
-1.0
 21
-0.26794919
 31
0.0
  0
LINE
  5
18F0
  8
0
  6
BYBLOCK
 62
     0
 10
0.0
 20
0.0
 30
0.0
 11
-1.0
 21
0.0
 31
0.0
  0
ENDBLK
  5
18F1
  8
0
  0
BLOCK
  8
0
  2
*X3
 70
     1
 10
0.0
 20
0.0
 30
0.0
  3
*X3
  1

  0
LINE
  5
1710
  8
0
 62
     0
 10
4.2731626460786947
 20
-5.8571670211471272
 30
0.0
 11
3.510115154589633
 21
-5.094119529658065
 31
0.0
  0
LINE
  5
1711
  8
0
 62
     0
 10
3.4940719416106631
 20
-5.336707692965879
 30
0.0
 11
3.1883917659254011
 21
-5.03102751728062
 31
0.0
  0
LINE
  5
1712
  8
0
 62
     0
 10
4.3362546584561468
 20
-6.1788904098113662
 30
0.0
 11
4.0305744827708789
 21
-5.8732102341260974
 31
0.0
  0
LINE
  5
1713
  8
0
 62
     0
 10
3.1614668723394019
 20
-5.2627339999814282
 30
0.0
 11
2.9403393877385029
 21
-5.0416065153805292
 31
0.0
  0
LINE
  5
1714
  8
0
 62
     0
 10
4.3383903626899851
 20
-6.4396574903320092
 30
0.0
 11
4.1045481757553324
 21
-6.2058153033973582
 31
0.0
  0
LINE
  5
1715
  8
0
 62
     0
 10
2.9211994892945921
 20
-5.281097993223403
 30
0.0
 11
2.7312050109658861
 21
-5.091103514894697
 31
0.0
  0
LINE
  5
1716
  8
0
 62
     0
 10
4.338390362689978
 20
-6.6982888666187881
 30
0.0
 11
4.1055856811814859
 21
-6.4654841851102969
 31
0.0
  0
LINE
  5
1717
  8
0
 62
     0
 10
2.7241461983551201
 20
-5.342676078570725
 30
0.0
 11
2.549611000613679
 21
-5.1681408808292844
 31
0.0
  0
LINE
  5
1718
  8
0
 62
     0
 10
4.338390362689978
 20
-6.9569202429055821
 30
0.0
 11
4.1055856811814859
 21
-6.7241155613970891
 31
0.0
  0
LINE
  5
1719
  8
0
 62
     0
 10
2.5574155323842751
 20
-5.4345767888866652
 30
0.0
 11
2.3904879894348241
 21
-5.2676492459372142
 31
0.0
  0
LINE
  5
171A
  8
0
 62
     0
 10
4.3383903626899851
 20
-7.2155516191923743
 30
0.0
 11
4.1055856811814859
 21
-6.982746937683876
 31
0.0
  0
LINE
  5
171B
  8
0
 62
     0
 10
2.4161255819181511
 20
-5.5519182147073352
 30
0.0
 11
2.2515077835827939
 21
-5.3873004163719713
 31
0.0
  0
LINE
  5
171C
  8
0
 62
     0
 10
4.3383903626899851
 20
-7.4741829954791612
 30
0.0
 11
4.105585681181493
 21
-7.2413783139706691
 31
0.0
  0
LINE
  5
171D
  8
0
 62
     0
 10
2.2989457159389901
 20
-5.6933697250149731
 30
0.0
 11
2.1319866093836382
 21
-5.5264106184596198
 31
0.0
  0
LINE
  5
171E
  8
0
 62
     0
 10
4.3383903626899851
 20
-7.7328143717659659
 30
0.0
 11
4.1055856811814788
 21
-7.5000096902574631
 31
0.0
  0
LINE
  5
171F
  8
0
 62
     0
 10
2.2072252078153962
 20
-5.8602805931781683
 30
0.0
 11
2.0326176602498318
 21
-5.6856730456126021
 31
0.0
  0
LINE
  5
1720
  8
0
 62
     0
 10
4.338390362689978
 20
-7.9914457480527474
 30
0.0
 11
4.1055856811814859
 21
-7.758641066544258
 31
0.0
  0
LINE
  5
1721
  8
0
 62
     0
 10
2.1458777492053529
 20
-6.0575645108549079
 30
0.0
 11
1.955742399326019
 21
-5.8674291609755747
 31
0.0
  0
LINE
  5
1722
  8
0
 62
     0
 10
4.338390362689978
 20
-8.2500771243395334
 30
0.0
 11
4.1055856811814859
 21
-8.0172724428310431
 31
0.0
  0
LINE
  5
1723
  8
0
 62
     0
 10
2.127884606905837
 20
-6.298202744842186
 30
0.0
 11
1.9064556573934921
 21
-6.0767737953298484
 31
0.0
  0
LINE
  5
1724
  8
0
 62
     0
 10
4.3383903626899851
 20
-8.5087085006263337
 30
0.0
 11
4.1055856811814859
 21
-8.2759038191178362
 31
0.0
  0
LINE
  5
1725
  8
0
 62
     0
 10
2.0859571237484991
 20
-6.5149066379716469
 30
0.0
 11
1.896203437136684
 21
-6.325152951359831
 31
0.0
  0
LINE
  5
1726
  8
0
 62
     0
 10
4.338390362689978
 20
-8.7673398769131268
 30
0.0
 11
4.1055856811814859
 21
-8.5345351954046365
 31
0.0
  0
LINE
  5
1727
  8
0
 62
     0
 10
4.338390362689978
 20
-9.0259712531999217
 30
0.0
 11
4.1055856811814859
 21
-8.7931665716914225
 31
0.0
  0
LINE
  5
1728
  8
0
 62
     0
 10
4.338390362689978
 20
-9.2846026294867041
 30
0.0
 11
4.1055856811814859
 21
-9.0517979479782156
 31
0.0
  0
LINE
  5
1729
  8
0
 62
     0
 10
4.338390362689978
 20
-9.5432340057735008
 30
0.0
 11
4.1055856811814859
 21
-9.3104293242649998
 31
0.0
  0
LINE
  5
172A
  8
0
 62
     0
 10
4.3383903626899851
 20
-9.8018653820602903
 30
0.0
 11
4.1055856811814859
 21
-9.5690607005517911
 31
0.0
  0
LINE
  5
172B
  8
0
 62
     0
 10
4.3383903626899851
 20
-10.06049675834708
 30
0.0
 11
4.105585681181493
 21
-9.8276920768385896
 31
0.0
  0
LINE
  5
172C
  8
0
 62
     0
 10
4.338390362689978
 20
-10.31912813463388
 30
0.0
 11
4.1055856811814859
 21
-10.086323453125379
 31
0.0
  0
LINE
  5
172D
  8
0
 62
     0
 10
4.338390362689978
 20
-10.577759510920661
 30
0.0
 11
4.1055856811814859
 21
-10.34495482941217
 31
0.0
  0
LINE
  5
172E
  8
0
 62
     0
 10
4.338390362689978
 20
-10.836390887207459
 30
0.0
 11
4.1055856811814859
 21
-10.60358620569896
 31
0.0
  0
LINE
  5
172F
  8
0
 62
     0
 10
4.3331743680063184
 20
-11.08980626881058
 30
0.0
 11
4.1055856811814859
 21
-10.862217581985741
 31
0.0
  0
LINE
  5
1730
  8
0
 62
     0
 10
4.2927234683474307
 20
-11.30798674543848
 30
0.0
 11
4.0963826280125399
 21
-11.11164590510359
 31
0.0
  0
LINE
  5
1731
  8
0
 62
     0
 10
4.2225300722551111
 20
-11.496424725632959
 30
0.0
 11
4.0447379717610357
 21
-11.31863262513888
 31
0.0
  0
LINE
  5
1732
  8
0
 62
     0
 10
4.1288343457024572
 20
-11.661360375367099
 30
0.0
 11
3.9604188359354979
 21
-11.492944865600141
 31
0.0
  0
LINE
  5
1733
  8
0
 62
     0
 10
4.0145495478446014
 20
-11.80570695379603
 30
0.0
 11
3.8497662771754819
 21
-11.640923683126911
 31
0.0
  0
LINE
  5
1734
  8
0
 62
     0
 10
3.8807570971703012
 20
-11.93054587940852
 30
0.0
 11
3.7149104705198961
 21
-11.76469925275811
 31
0.0
  0
LINE
  5
1735
  8
0
 62
     0
 10
3.7271431977453049
 20
-12.03556335627032
 30
0.0
 11
3.555244829520197
 21
-11.86366498804521
 31
0.0
  0
LINE
  5
1736
  8
0
 62
     0
 10
2.1267631408982761
 20
-10.69381467571009
 30
0.0
 11
1.9433546960822801
 21
-10.51040623089408
 31
0.0
  0
LINE
  5
1737
  8
0
 62
     0
 10
3.551878254361716
 20
-12.11892978917353
 30
0.0
 11
3.367040741413724
 21
-11.93409227622552
 31
0.0
  0
LINE
  5
1738
  8
0
 62
     0
 10
2.1267631408982761
 20
-10.95244605199688
 30
0.0
 11
1.8939584533982821
 21
-10.719641364496891
 31
0.0
  0
LINE
  5
1739
  8
0
 62
     0
 10
3.3508120748548631
 20
-12.17649498595347
 30
0.0
 11
3.1404436980890349
 21
-11.96612660918764
 31
0.0
  0
LINE
  5
173A
  8
0
 62
     0
 10
2.1649602340683511
 20
-11.24927452145374
 30
0.0
 11
1.8939591030962699
 21
-10.978273390481659
 31
0.0
  0
LINE
  5
173B
  8
0
 62
     0
 10
3.1149140586925621
 20
-12.19922834607795
 30
0.0
 11
2.84391292772048
 21
-11.928227215105871
 31
0.0
  0
LINE
  5
173C
  8
0
 62
     0
 10
2.819806896892358
 20
-12.162752560564529
 30
0.0
 11
1.930434888609696
 21
-11.27338055228187
 31
0.0
  0
ENDBLK
  5
173D
  8
0
  0
BLOCK
  8
0
  2
*X4
 70
     1
 10
0.0
 20
0.0
 30
0.0
  3
*X4
  1

  0
LINE
  5
1740
  8
0
 62
     0
 10
3.9891833374314549
 20
-8.6767642279413906
 30
0.0
 11
3.9699999022341199
 21
-8.6575807927440565
 31
0.0
  0
LINE
  5
1741
  8
0
 62
     0
 10
3.9891833374314549
 20
-8.9353956042281801
 30
0.0
 11
3.6073930521298849
 21
-8.5536053189266141
 31
0.0
  0
LINE
  5
1742
  8
0
 62
     0
 10
3.9748178468112911
 20
-9.179661489894805
 30
0.0
 11
3.2447862020256362
 21
-8.4496298451091505
 31
0.0
  0
LINE
  5
1743
  8
0
 62
     0
 10
3.61220957775957
 20
-9.0756845971298841
 30
0.0
 11
2.8821793519213941
 21
-8.3456543712917011
 31
0.0
  0
LINE
  5
1744
  8
0
 62
     0
 10
3.249601308707851
 20
-8.9717077043649454
 30
0.0
 11
2.5195725018171511
 21
-8.2416788974742428
 31
0.0
  0
LINE
  5
1745
  8
0
 62
     0
 10
2.886993039656117
 20
-8.8677308116000102
 30
0.0
 11
2.1569656517129001
 21
-8.1377034236567951
 31
0.0
  0
LINE
  5
1746
  8
0
 62
     0
 10
2.5243847706043909
 20
-8.7637539188350786
 30
0.0
 11
1.8939584533982821
 21
-8.1333276016289702
 31
0.0
  0
LINE
  5
1747
  8
0
 62
     0
 10
2.1617765015526582
 20
-8.659777026070131
 30
0.0
 11
1.8939584533982901
 21
-8.3919589779157633
 31
0.0
  0
LINE
  5
1748
  8
0
 62
     0
 10
1.918015068738405
 20
-8.674646969542664
 30
0.0
 11
1.8939584533982821
 21
-8.6505903542025422
 31
0.0
  0
ENDBLK
  5
1749
  8
0
  0
BLOCK
  8
0
  2
*X5
 70
     1
 10
0.0
 20
0.0
 30
0.0
  3
*X5
  1

  0
LINE
  5
174C
  8
0
 62
     0
 10
3.8682112041804739
 20
-7.0040038369696571
 30
0.0
 11
3.6499603235052889
 21
-6.7857529562944654
 31
0.0
  0
LINE
  5
174D
  8
0
 62
     0
 10
3.9856529491582999
 20
-7.380076958234282
 30
0.0
 11
3.2873524678243831
 21
-6.6817764769003682
 31
0.0
  0
LINE
  5
174E
  8
0
 62
     0
 10
3.617185728354428
 20
-7.2702411137172032
 30
0.0
 11
2.924744612143483
 21
-6.5777999975062542
 31
0.0
  0
LINE
  5
174F
  8
0
 62
     0
 10
3.9698966386926511
 20
-7.6229520240554223
 30
0.0
 11
3.6965801245195551
 21
-7.3496355098823241
 31
0.0
  0
LINE
  5
1750
  8
0
 62
     0
 10
3.2412377906756031
 20
-7.1529245523251603
 30
0.0
 11
2.8018861877732841
 21
-6.7135729494228391
 31
0.0
  0
LINE
  5
1751
  8
0
 62
     0
 10
3.8992580266775061
 20
-7.8109447883270624
 30
0.0
 11
3.6959786603753511
 21
-7.6076654220249154
 31
0.0
  0
LINE
  5
1752
  8
0
 62
     0
 10
3.034690875273276
 20
-7.2050090132096241
 30
0.0
 11
2.8018861877732761
 21
-6.9722043257096251
 31
0.0
  0
LINE
  5
1753
  8
0
 62
     0
 10
3.792131315773708
 20
-7.9624494537100619
 30
0.0
 11
3.5455738235496881
 21
-7.715891961486034
 31
0.0
  0
LINE
  5
1754
  8
0
 62
     0
 10
2.2029885065044099
 20
-6.6319380207275591
 30
0.0
 11
2.1787499076577741
 21
-6.6076994218809233
 31
0.0
  0
LINE
  5
1755
  8
0
 62
     0
 10
3.6531656331833759
 20
-8.082115147406526
 30
0.0
 11
3.2290805876554312
 21
-7.6580301018785786
 31
0.0
  0
LINE
  5
1756
  8
0
 62
     0
 10
2.2677871082174681
 20
-6.9553679987274011
 30
0.0
 11
1.982121972154764
 21
-6.6697028626646979
 31
0.0
  0
LINE
  5
1757
  8
0
 62
     0
 10
3.4804499382598579
 20
-8.168030828769794
 30
0.0
 11
2.8664723785437469
 21
-7.5540532690536812
 31
0.0
  0
LINE
  5
1758
  8
0
 62
     0
 10
2.1576583608831101
 20
-7.1038706276798393
 30
0.0
 11
1.98333579740042
 21
-6.9295480641971476
 31
0.0
  0
LINE
  5
1759
  8
0
 62
     0
 10
3.262962952369413
 20
-8.2091752191661413
 30
0.0
 11
2.5038641694320689
 21
-7.4500764362287981
 31
0.0
  0
LINE
  5
175A
  8
0
 62
     0
 10
2.9676848492862362
 20
-8.1725284923697501
 30
0.0
 11
1.912955328823172
 21
-7.1177989719066872
 31
0.0
  0
LINE
  5
175B
  8
0
 62
     0
 10
2.6231897125881769
 20
-8.0866647319584857
 30
0.0
 11
1.8976699797883041
 21
-7.3611449991586113
 31
0.0
  0
ENDBLK
  5
175C
  8
0
  0
BLOCK
  8
0
  2
A$C30B44B38
 70
     0
 10
0.0
 20
0.0
 30
0.0
  3
A$C30B44B38
  1

  0
TEXT
  5
175E
  8
247
 10
-84.266862097109225
 20
-4.239690128183458
 30
0.0
 40
2.0
  1
ST12-C1116-45B-25
 41
0.7
  7
YOKO
 11
-84.266862097109225
 21
-4.239690128183458
 31
0.0
 73
     1
  0
INSERT
  5
175F
  8
247
  6
CONTINUOUS
  2
*X3
 10
-80.266862097109041
 20
-0.1980884894177173
 30
0.0
 50
270.0
1001
ACAD
1000
HATCH
1002
{
1070
    19
1000
ANSI31
1040
0.0576
1040
6.2831853071795853
1002
}
  0
INSERT
  5
1760
  8
247
  6
CONTINUOUS
  2
*X4
 10
-80.266862097109041
 20
-0.1980884894177173
 30
0.0
 50
270.0
1001
ACAD
1000
HATCH
1002
{
1070
    19
1000
ANSI31
1040
0.0576
1040
6.2831853071795853
1002
}
  0
INSERT
  5
1761
  8
247
  6
CONTINUOUS
  2
*X5
 10
-80.266862097109041
 20
-0.1980884894177173
 30
0.0
 50
270.0
1001
ACAD
1000
HATCH
1002
{
1070
    19
1000
ANSI31
1040
0.0576
1040
6.2831853071795853
1002
}
  0
LINE
  5
1762
  8
247
 10
-88.934610624135004
 20
-2.0920469428160011
 30
0.0
 11
-88.329149686635006
 21
-2.0920469428160011
 31
0.0
  0
POLYLINE
  5
1763
  8
247
 66
     1
 10
0.0
 20
0.0
 30
0.0
 70
     1
1001
HATCH_DISTANCE
1040
1.0
1001
HATCH_DISPLAY
1070
     0
1001
HATCH_TYPE
1070
     7
  0
VERTEX
  5
1764
  8
247
 10
-88.934610624135004
 20
-2.0920469428160011
 30
0.0
  0
VERTEX
  5
1765
  8
247
 10
-89.008043241322497
 20
-2.348125067815988
 30
0.0
  0
VERTEX
  5
1766
  8
247
 10
-88.923272733510004
 20
-2.348125067815988
 30
0.0
  0
VERTEX
  5
1767
  8
247
 10
-89.450642850697534
 20
-4.1872718268491687
 30
0.0
  0
VERTEX
  5
1768
  8
247
 10
-88.929943631947495
 20
-4.1872718268491731
 30
0.0
  0
VERTEX
  5
1769
  8
247
 10
-88.329149686635006
 20
-2.0920469428160011
 30
0.0
  0
SEQEND
  5
176A
  8
247
  0
POLYLINE
  5
176B
  8
247
 66
     1
 10
0.0
 20
0.0
 30
0.0
 70
     1
  0
VERTEX
  5
176C
  8
247
 10
-88.934610624135004
 20
-2.0920469428160011
 30
0.0
  0
VERTEX
  5
176D
  8
247
 10
-89.008043241322497
 20
-2.348125067815988
 30
0.0
  0
VERTEX
  5
176E
  8
247
 10
-88.923272733510004
 20
-2.348125067815988
 30
0.0
  0
VERTEX
  5
176F
  8
247
 10
-89.450642850697534
 20
-4.1872718268491687
 30
0.0
  0
VERTEX
  5
1770
  8
247
 10
-88.929943631947495
 20
-4.1872718268491731
 30
0.0
  0
VERTEX
  5
1771
  8
247
 10
-88.329149686635006
 20
-2.0920469428160011
 30
0.0
  0
SEQEND
  5
1772
  8
247
  0
LINE
  5
1773
  8
247
 10
-88.929943631947495
 20
-4.1872718268491731
 30
0.0
 11
-88.329149686635006
 21
-2.0920469428160011
 31
0.0
  0
LINE
  5
1774
  8
247
 10
-91.243875272572481
 20
-4.5364788521076953
 30
0.0
 11
-86.517969999135019
 21
-4.5364788521076953
 31
0.0
  0
LINE
  5
1775
  8
247
 10
-91.243875272572481
 20
-4.3036741705991899
 30
0.0
 11
-86.517969999135019
 21
-4.3036741705991899
 31
0.0
  0
ARC
  5
1776
  8
247
 10
-87.720032499135016
 20
-3.4306651068784961
 30
0.0
 40
0.756615234375
 50
163.9997507017292
 51
304.96387329163008
  0
ARC
  5
1777
  8
247
 10
-91.243875272572481
 20
-3.3142627631284962
 30
0.0
 40
0.9894111328124999
 50
89.999999999999986
 51
270.0
  0
ARC
  5
1778
  8
247
 10
-91.243875272572481
 20
-3.3142627631284962
 30
0.0
 40
1.2222158203124971
 50
89.999999999999986
 51
270.0
  0
LINE
  5
1779
  8
247
 10
-89.450642850697534
 20
-4.1872718268491731
 30
0.0
 11
-88.929943631947495
 21
-4.1872718268491731
 31
0.0
  0
LINE
  5
177A
  8
247
 10
-89.934515946028213
 20
-4.1436359426798388
 30
0.0
 11
-89.617255022708662
 21
-3.826375019360273
 31
0.0
  0
LINE
  5
177B
  8
247
 10
-91.012677335344705
 20
-4.1872718268491731
 30
0.0
 11
-90.350636447011709
 21
-3.5252309385162048
 31
0.0
  0
LINE
  5
177C
  8
247
 10
-90.754045959057976
 20
-4.1872718268491731
 30
0.0
 11
-90.454607246964514
 21
-3.8878331147557601
 31
0.0
  0
LINE
  5
177D
  8
247
 10
-90.23678320648439
 20
-4.1872718268491944
 30
0.0
 11
-89.578623551552667
 21
-3.529112171917471
 31
0.0
  0
LINE
  5
177E
  8
247
 10
-90.275198109819669
 20
-3.262136826994964
 30
0.0
 11
-90.465982072608853
 21
-3.9275032580541618
 31
0.0
  0
ARC
  5
177F
  8
247
 10
-90.415347928822499
 20
-3.581986395940965
 30
0.0
 40
0.3492072715759277
 50
261.66285421114787
 51
66.338192159113575
  0
LINE
  5
1780
  8
247
 10
-90.495414582771176
 20
-4.1872718268491731
 30
0.0
 11
-89.641201252960457
 21
-3.3330584970385249
 31
0.0
  0
LINE
  5
1781
  8
247
 10
-91.121716092884981
 20
-4.1872718268491731
 30
0.0
 11
-90.155622342884996
 21
-4.1872718268491731
 31
0.0
  0
LINE
  5
1782
  8
247
 10
-91.061576190669072
 20
-3.9775393058867401
 30
0.0
 11
-90.076555156616635
 21
-2.9925182718342951
 31
0.0
  0
LINE
  5
1783
  8
247
 10
-90.957600033221127
 20
-3.6149317721520511
 30
0.0
 11
-90.142683524349593
 21
-2.8000152632804318
 31
0.0
  0
ARC
  5
1784
  8
247
 10
-90.155622342884996
 20
-3.6052686225035151
 30
0.0
 40
0.5820029296875
 50
270.0
 51
40.329840654167477
  0
LINE
  5
1785
  8
247
 10
-90.074194543334372
 20
-3.5074204111256111
 30
0.0
 11
-89.310818152219042
 21
-2.7440440200102598
 31
0.0
  0
LINE
  5
1786
  8
247
 10
-89.008043241322497
 20
-2.348125067815988
 30
0.0
 11
-88.934610624135004
 21
-2.0920469428160011
 31
0.0
  0
LINE
  5
1787
  8
247
 10
-89.008043241322497
 20
-2.348125067815988
 30
0.0
 11
-88.923272733510004
 21
-2.348125067815988
 31
0.0
  0
LINE
  5
1788
  8
247
 10
-89.958792499090279
 20
-2.357492861734368
 30
0.0
 11
-89.718694594731133
 21
-2.1173949573752
 31
0.0
  0
LINE
  5
1789
  8
247
 10
-90.702045396532327
 20
-2.3248516303160498
 30
0.0
 11
-90.469240709032306
 21
-2.09204694281605
 31
0.0
  0
LINE
  5
178A
  8
247
 10
-90.763104764759973
 20
-2.0920469428160011
 30
0.0
 11
-90.829857694447455
 21
-2.324851630315993
 31
0.0
  0
LINE
  5
178B
  8
247
 10
-90.642017850697343
 20
-2.0920469428160011
 30
0.0
 11
-90.708770780385265
 21
-2.324851630315993
 31
0.0
  0
LINE
  5
178C
  8
247
 10
-90.642017850697343
 20
-2.0920469428160011
 30
0.0
 11
-89.891000729019595
 21
-2.0920469428160859
 31
0.0
  0
LINE
  5
178D
  8
247
 10
-91.243875272572481
 20
-2.0920469428160011
 30
0.0
 11
-90.763104764759973
 21
-2.0920469428160011
 31
0.0
  0
LINE
  5
178E
  8
247
 10
-89.836424535328419
 20
-2.4937562742593289
 30
0.0
 11
-89.546134295167363
 21
-2.20346603409818
 31
0.0
  0
LINE
  5
178F
  8
247
 10
-90.708770780385265
 20
-2.324851630315993
 30
0.0
 11
-90.587675077260215
 21
-2.3248516303167319
 31
0.0
  0
LINE
  5
1790
  8
247
 10
-91.243875272572481
 20
-2.324851630315993
 30
0.0
 11
-90.829857694447455
 21
-2.324851630315993
 31
0.0
  0
LINE
  5
1791
  8
247
 10
-90.645671560877403
 20
-2.5271091709478699
 30
0.0
 11
-90.210609332745534
 21
-2.09204694281605
 31
0.0
  0
LINE
  5
1792
  8
247
 10
-89.806585584179231
 20
-2.722548699396877
 30
0.0
 11
-89.417009414528536
 21
-2.332972529746161
 31
0.0
  0
ARC
  5
1793
  8
247
 10
-89.888601835072507
 20
-2.6740498725034878
 30
0.0
 40
0.5820078735351563
 50
287.669577547399
 51
90.236159842671427
  0
LINE
  5
1794
  8
247
 10
-90.749647718325292
 20
-2.8897167046826162
 30
0.0
 11
-89.951977956458791
 21
-2.0920469428160859
 31
0.0
  0
LINE
  5
1795
  8
247
 10
-90.164475131994934
 20
-3.3390696234994439
 30
0.0
 11
-89.331388508558376
 21
-2.5059830000628081
 31
0.0
  0
LINE
  5
1796
  8
247
 10
-89.450642850697534
 20
-4.1872718268491731
 30
0.0
 11
-88.923272733510004
 21
-2.348125067815988
 31
0.0
  0
LINE
  5
1797
  8
247
 10
-90.008180380573734
 20
-2.330936556261701
 30
0.0
 11
-90.198961204777206
 21
-2.9962832524732508
 31
0.0
  0
ARC
  5
1798
  8
247
 10
-90.148327421010009
 20
-2.6507764350035208
 30
0.0
 40
0.349197280883789
 50
261.66260168792923
 51
66.338155095189919
  0
LINE
  5
1799
  8
247
 10
-90.853623875773224
 20
-3.2523242384173048
 30
0.0
 11
-90.038710798868721
 21
-2.4374111615128302
 31
0.0
  0
LINE
  5
179A
  8
247
 10
-91.121716092884981
 20
-4.1872718268491731
 30
0.0
 11
-90.587675077260215
 21
-2.3248516303167319
 31
0.0
  0
ARC
  5
179B
  8
247
 10
-86.517969999135005
 20
-3.3142627631285002
 30
0.0
 40
1.2222158203124971
 50
270.0
 51
104.77079396609309
  0
ARC
  5
179C
  8
247
 10
-86.517969999135005
 20
-3.3142627631285002
 30
0.0
 40
0.9894111328124999
 50
270.0
 51
104.12743649641099
  0
LINE
  5
179D
  8
247
 10
-87.510053006947516
 20
-3.7541201850034831
 30
0.0
 11
-87.36055984288501
 21
-3.232779364690987
 31
0.0
  0
LINE
  5
179E
  8
247
 10
-87.554305936635004
 20
-3.232779364690987
 30
0.0
 11
-87.36055984288501
 21
-3.232779364690987
 31
0.0
  0
LINE
  5
179F
  8
247
 10
-87.286450467885004
 20
-4.050716162786709
 30
0.0
 11
-87.149886014760014
 21
-4.1872718268491731
 31
0.0
  0
LINE
  5
17A0
  8
247
 10
-87.554305936635004
 20
-3.232779364690987
 30
0.0
 11
-87.487553006947508
 21
-2.9999746771909939
 31
0.0
  0
LINE
  5
17A1
  8
247
 10
-87.487553006947508
 20
-2.9999746771909939
 30
0.0
 11
-86.809432889760004
 21
-2.9999746771909939
 31
0.0
  0
LINE
  5
17A2
  8
247
 10
-87.149886014760014
 20
-4.1872718268491731
 30
0.0
 11
-86.809432889760004
 21
-2.9999746771909939
 31
0.0
  0
POLYLINE
  5
17A3
  8
247
 66
     1
 10
0.0
 20
0.0
 30
0.0
 70
     1
1001
HATCH_DISTANCE
1040
1.0
1001
HATCH_DISPLAY
1070
     0
1001
HATCH_TYPE
1070
     7
  0
VERTEX
  5
17A4
  8
247
 10
-86.75946706944751
 20
-2.3547695990659849
 30
0.0
  0
VERTEX
  5
17A5
  8
247
 10
-86.829577421010015
 20
-2.1324326850035109
 30
0.0
  0
VERTEX
  5
17A6
  8
247
 10
-86.829577421010015
 20
-2.1324326850035109
 30
0.0
  0
VERTEX
  5
17A7
  8
247
 10
-86.75946706944751
 20
-2.3547695990659849
 30
0.0
  0
SEQEND
  5
17A8
  8
247
  0
POLYLINE
  5
17A9
  8
247
 66
     1
 10
0.0
 20
0.0
 30
0.0
 70
     1
  0
VERTEX
  5
17AA
  8
247
 10
-86.75946706944751
 20
-2.3547695990659849
 30
0.0
  0
VERTEX
  5
17AB
  8
247
 10
-86.829577421010015
 20
-2.1324326850035109
 30
0.0
  0
VERTEX
  5
17AC
  8
247
 10
-86.829577421010015
 20
-2.1324326850035109
 30
0.0
  0
VERTEX
  5
17AD
  8
247
 10
-86.75946706944751
 20
-2.3547695990659849
 30
0.0
  0
SEQEND
  5
17AE
  8
247
  0
LINE
  5
17AF
  8
247
 10
-86.75946706944751
 20
-2.3547695990659849
 30
0.0
 11
-86.829577421010015
 21
-2.1324326850035109
 31
0.0
  0
POLYLINE
  5
17B0
  8
247
 66
     1
 10
0.0
 20
0.0
 30
0.0
 70
     1
1001
HATCH_DISTANCE
1040
1.0
1001
HATCH_DISPLAY
1070
     0
1001
HATCH_TYPE
1070
     7
  0
VERTEX
  5
17B1
  8
247
 10
-86.75946706944751
 20
-2.3547695990659849
 30
0.0
  0
VERTEX
  5
17B2
  8
247
 10
-86.829577421010015
 20
-2.1324326850035109
 30
0.0
  0
VERTEX
  5
17B3
  8
247
 10
-86.829577421010015
 20
-2.1324326850035109
 30
0.0
  0
VERTEX
  5
17B4
  8
247
 10
-86.75946706944751
 20
-2.3547695990659849
 30
0.0
  0
SEQEND
  5
17B5
  8
247
  0
POLYLINE
  5
17B6
  8
247
 66
     1
 10
0.0
 20
0.0
 30
0.0
 70
     1
  0
VERTEX
  5
17B7
  8
247
 10
-86.75946706944751
 20
-2.3547695990659849
 30
0.0
  0
VERTEX
  5
17B8
  8
247
 10
-86.829577421010015
 20
-2.1324326850035109
 30
0.0
  0
VERTEX
  5
17B9
  8
247
 10
-86.829577421010015
 20
-2.1324326850035109
 30
0.0
  0
VERTEX
  5
17BA
  8
247
 10
-86.75946706944751
 20
-2.3547695990659849
 30
0.0
  0
SEQEND
  5
17BB
  8
247
  0
LINE
  5
17BC
  8
247
 10
-86.870481717885013
 20
-2.389776435003494
 30
0.0
 11
-86.940592069447504
 21
-2.167439520940956
 31
0.0
  0
ARC
  5
17BD
  8
247
 10
-86.517969999135005
 20
-3.3142627631285002
 30
0.0
 40
1.222216369628905
 50
110.22964506332001
 51
118.57168892371639
  0
ARC
  5
17BE
  8
247
 10
-87.43127663976
 20
-2.5925752631284982
 30
0.0
 40
0.2444448051452637
 50
1.7101213820627339
 51
163.998398354447
  0
ARC
  5
17BF
  8
247
 10
-86.517969999135005
 20
-3.3142627631285002
 30
0.0
 40
0.9894138793945311
 50
110.8721834020735
 51
132.54194893738719
  0
ARC
  5
17C0
  8
247
 10
-86.483007108510009
 20
-3.4704444037534929
 30
0.0
 40
1.9799648437499999
 50
155.20517736984061
 51
172.7948259620521
  0
ARC
  5
17C1
  8
247
 10
-87.745028592885006
 20
-3.6867432318785118
 30
0.0
 40
0.2444446334838867
 50
164.00027305718231
 51
344.00027305718243
  0
LINE
  5
17C2
  8
247
 10
-87.980004178822512
 20
-3.6193662787535059
 30
0.0
 11
-87.666252225697505
 21
-2.5251895209410011
 31
0.0
  0
ARC
  5
17C3
  8
247
 10
-87.553145780384995
 20
-2.8486533881284859
 30
0.0
 40
0.7566075439453125
 50
53.444012197057731
 51
164.00018438768549
  0
LINE
  5
17C4
  8
240
 10
-27.153160939238781
 20
6.000000052154121
 30
0.0
 11
-96.953161577008473
 21
6.000000052154121
 31
0.0
  0
LINE
  5
17C5
  8
240
 10
-96.953161577008473
 20
-5.9999991208314318
 30
0.0
 11
-27.153160939238781
 21
-5.9999991208314318
 31
0.0
  0
LINE
  5
17C6
  8
245
 10
-100.5093957566723
 20
0.0000000000001137
 30
0.0
 11
2.0486595553072671
 21
0.0
 31
0.0
  0
ARC
  5
17C7
  8
240
 10
-96.953160656222721
 20
-5.000000042700889
 30
0.0
 40
1.0
 50
180.0
 51
270.0
  0
ARC
  5
17C8
  8
240
 10
-96.953160656222721
 20
4.9999999572991101
 30
0.0
 40
1.0
 50
90.0
 51
180.0
  0
LINE
  5
17C9
  8
240
 10
-97.953159878276097
 20
-4.9999998882412342
 30
0.0
 11
-97.953159878276097
 21
0.0000000000000568
 31
0.0
  0
LINE
  5
17CA
  8
240
 10
-97.953159878276097
 20
0.0000000000000568
 30
0.0
 11
-97.953159878276097
 21
4.999999888241347
 31
0.0
  0
LINE
  5
17CB
  8
240
 10
-7.3673730290157664
 20
4.7999997623265349
 30
0.0
 11
-25.124733852468239
 21
4.7999997623265349
 31
0.0
  0
LINE
  5
17CC
  8
240
 10
-25.124733852468239
 20
-4.8000002279877094
 30
0.0
 11
-7.3673730290157664
 21
-4.8000002279877094
 31
0.0
  0
ARC
  5
17CD
  8
240
 10
-25.124733531476551
 20
-6.8000000427008436
 30
0.0
 40
2.0
 50
90.0
 51
135.0000000000006
  0
LINE
  5
17CE
  8
241
 10
-25.124733852468239
 20
-4.8000002279877094
 30
0.0
 11
-25.124733531476551
 21
4.799999957299149
 31
0.0
  0
LINE
  5
17CF
  8
241
 10
-27.153160939238781
 20
-5.9999991208314318
 30
0.0
 11
-27.153160939238781
 21
0.0000000000000568
 31
0.0
  0
LINE
  5
17D0
  8
240
 10
-27.153160939238781
 20
-5.9999991208314318
 30
0.0
 11
-26.53894718202185
 21
-5.3857862949370761
 31
0.0
  0
LINE
  5
17D1
  8
241
 10
-27.153160939238781
 20
0.0000000000000568
 30
0.0
 11
-27.153160939238781
 21
6.000000052154121
 31
0.0
  0
LINE
  5
17D2
  8
240
 10
-26.53894718202185
 20
5.3857862949371897
 30
0.0
 11
-27.153160939238781
 21
6.000000052154121
 31
0.0
  0
ARC
  5
17D3
  8
240
 10
-25.124733531476551
 20
6.7999999572991783
 30
0.0
 40
2.000000000000028
 50
224.9999999999994
 51
270.0
  0
LINE
  5
17D4
  8
240
 10
-0.0585099256260264
 20
5.2047888748348319
 30
0.0
 11
-3.3122790551407202
 21
8.4585566073656651
 31
0.0
  0
LINE
  5
17D5
  8
240
 10
-3.5940451121551851
 20
8.4585566073656651
 30
0.0
 11
-6.8478105163795808
 21
5.2047888748348319
 31
0.0
  0
ARC
  5
17D6
  8
241
 10
-0.6956657813947232
 20
-4.7796680479967639
 30
0.0
 40
0.4425134701681082
 50
311.9926468002941
 51
0.339268757127561
  0
LINE
  5
17D7
  8
240
 10
-0.2531600690109599
 20
-4.7283722087740321
 30
0.0
 11
-0.0585099256260264
 21
-4.9230223521589664
 31
0.0
  0
ARC
  5
17D8
  8
240
 10
-7.3673742185958133
 20
-5.8000000427008436
 30
0.0
 40
1.000000000000004
 50
65.530150507577403
 51
90.0
  0
LINE
  5
17D9
  8
241
 10
-3.703158864997135
 20
-8.0060549080371288
 30
0.0
 11
-3.2031615770084718
 21
-8.0060549080371288
 31
0.0
  0
ARC
  5
17DA
  8
240
 10
-3.4532853193911421
 20
-8.3178560119690701
 30
0.0
 40
0.199196948025817
 50
270.60643392642072
 51
315.06216933591372
  0
LINE
  5
17DB
  8
241
 10
-6.6602682268841127
 20
-5.0231423228978542
 30
0.0
 11
-6.8086672898872669
 21
-4.8898206756124116
 31
0.0
  0
ARC
  5
17DC
  8
240
 10
-6.7067663443186509
 20
-5.0641928771069606
 30
0.0
 40
0.1995559460062307
 50
134.9743475915725
 51
179.91772243424671
  0
ARC
  5
17DD
  8
240
 10
-6.7070778832536169
 20
-5.063770052127551
 30
0.0
 40
0.1992287974126443
 50
180.0391866822051
 51
225.0582928762804
  0
ARC
  5
17DE
  8
240
 10
-3.4528477101193569
 20
-8.3174630523833457
 30
0.0
 40
0.1996098634817131
 50
224.97892246468029
 51
268.98835900707189
  0
POLYLINE
  5
17DF
  8
241
 66
     1
 10
0.0
 20
0.0
 30
0.0
 70
   128
  0
VERTEX
  5
1908
  8
241
 10
-6.6602682268841127
 20
-5.0231423228978542
 30
0.0
  0
VERTEX
  5
1909
  8
241
 10
-4.3960740363819459
 20
-7.3089729994534869
 30
0.0
  0
VERTEX
  5
190A
  8
241
 10
-3.703158864997135
 20
-8.0060549080371288
 30
0.0
  0
SEQEND
  5
190B
  8
241
  0
LINE
  5
17E0
  8
240
 10
-3.5940451121551851
 20
-8.4585566073655514
 30
0.0
 11
-6.8478105163795808
 21
-5.2047893404960064
 31
0.0
  0
ARC
  5
17E1
  8
240
 10
-0.1995475693645119
 20
-5.0636241341692312
 30
0.0
 40
0.1995475693376718
 50
314.97410090851878
 51
359.91897869981301
  0
ARC
  5
17E2
  8
240
 10
-0.1992215764822447
 20
-5.0640285590055782
 30
0.0
 40
0.1992047164500774
 50
0.0351610076522103
 51
45.059906777167512
  0
POLYLINE
  5
17E3
  8
241
 66
     1
 10
0.0
 20
0.0
 30
0.0
 70
   128
  0
VERTEX
  5
190C
  8
241
 10
-3.2031615770084718
 20
-8.0060549080371288
 30
0.0
  0
VERTEX
  5
190D
  8
241
 10
-1.2420868075115541
 20
-6.0307066887616543
 30
0.0
  0
VERTEX
  5
190E
  8
241
 10
-0.3996086812240946
 20
-5.1085576415061658
 30
0.0
  0
SEQEND
  5
190F
  8
241
  0
LINE
  5
17E4
  8
240
 10
-0.0585099256260264
 20
-5.2047893404960064
 30
0.0
 11
-3.3122790551407202
 21
-8.4585566073655514
 31
0.0
  0
LINE
  5
17E5
  8
240
 10
-0.2531600690109599
 20
4.1948230937123858
 30
0.0
 11
-0.2531600690095104
 21
0.8399998769164653
 31
0.0
  0
ARC
  5
17E6
  8
241
 10
-3.3841754563265729
 20
-82.695526878610494
 30
0.0
 40
81.945558761139893
 50
89.949730516931169
 51
90.050269483068817
  0
ARC
  5
17E7
  8
241
 10
-3.506222977655681
 20
-144.37221050835481
 30
0.0
 40
143.62223770182609
 50
89.964964771125423
 51
90.035035228874534
  0
LINE
  5
17E8
  8
241
 10
-6.7095683002113162
 20
0.8399998769164653
 30
0.0
 11
-6.9062971862381337
 21
-0.7499996572732357
 31
0.0
  0
LINE
  5
17E9
  8
241
 10
-3.4560718575146718
 20
-0.7499996572732357
 30
0.0
 11
-6.9062971862381337
 21
-0.7499996572732357
 31
0.0
  0
LINE
  5
17EA
  8
241
 10
-3.3122790551407202
 20
-0.7499996572732357
 30
0.0
 11
-0.2531600690109599
 21
-0.7499996572732357
 31
0.0
  0
POLYLINE
  5
17EB
  8
241
 66
     1
 10
0.0
 20
0.0
 30
0.0
 70
   128
  0
VERTEX
  5
1910
  8
241
 10
-0.0000265932304728
 20
-0.7499996572732357
 30
0.0
  0
VERTEX
  5
1911
  8
241
 10
-0.0144211149437297
 20
-0.7499707862734227
 30
0.0
  0
VERTEX
  5
1912
  8
241
 10
-0.0327905214054454
 20
-0.7499828934668927
 30
0.0
  0
VERTEX
  5
1913
  8
241
 10
-0.0585099256260264
 20
-0.7499996572732357
 30
0.0
  0
SEQEND
  5
1914
  8
241
  0
LINE
  5
17EC
  8
240
 10
-0.0000257544002125
 20
-0.7499794628016617
 30
0.0
 11
-0.1967521418005447
 21
0.8399998769164653
 31
0.0
  0
ARC
  5
17ED
  8
240
 10
-0.026030166745926
 20
-10.12644873527017
 30
0.0
 40
9.3765053323190521
 50
89.841080449411393
 51
91.388028624284232
  0
LINE
  5
17EE
  8
241
 10
-0.1967521418005447
 20
0.8399998769164653
 30
0.0
 11
-6.7095683002113162
 21
0.8399998769164653
 31
0.0
  0
LINE
  5
17EF
  8
241
 10
-0.7154499685985912
 20
0.8399998769164653
 30
0.0
 11
-0.461396346114384
 21
0.8399998769164653
 31
0.0
  0
LINE
  5
17F0
  8
241
 10
-0.2531600690109599
 20
-4.1900146752595333
 30
0.0
 11
-0.2531600690109599
 21
-4.1218660771846203
 31
0.0
  0
LINE
  5
17F1
  8
241
 10
-0.2531600690109599
 20
-4.194823093712273
 30
0.0
 11
-0.2531600690109599
 21
-4.1900146752595333
 31
0.0
  0
LINE
  5
17F2
  8
240
 10
-0.2531600690109599
 20
-2.518702298402729
 30
0.0
 11
-0.2531600690109599
 21
-4.7770477831363101
 31
0.0
  0
LINE
  5
17F3
  8
240
 10
-0.2531600690109599
 20
-2.5007557123898891
 30
0.0
 11
-0.2531600690109599
 21
-0.7499996572732357
 31
0.0
  0
ARC
  5
17F4
  8
240
 10
-6.7070807598022091
 20
5.0637706110588852
 30
0.0
 40
0.1992260402274086
 50
134.94132970645359
 51
179.96110743995629
  0
ARC
  5
17F5
  8
240
 10
-6.7067640737654131
 20
5.0641951925952071
 30
0.0
 40
0.1995588594216547
 50
180.08307486727691
 51
225.02556661848749
  0
LINE
  5
17F6
  8
241
 10
-6.9531598782760957
 20
-4.8898206756124116
 30
0.0
 11
-6.9531598782764368
 21
4.8898205902105474
 31
0.0
  0
ARC
  5
17F7
  8
240
 10
-7.3673742185958133
 20
5.7999999572991783
 30
0.0
 40
1.000000000000028
 50
270.0
 51
294.46984949239931
  0
ARC
  5
17F8
  8
240
 10
-0.1992158294239914
 20
5.0640269787718353
 30
0.0
 40
0.1991992087565049
 50
314.93933880306707
 51
359.96515860537801
  0
ARC
  5
17F9
  8
240
 10
-0.1995475693647393
 20
5.0636236684700862
 30
0.0
 40
0.1995475693647346
 50
0.0810213110976544
 51
45.025899099155268
  0
LINE
  5
17FA
  8
240
 10
-0.2531600690109599
 20
4.1218660771847331
 30
0.0
 11
-0.2531600690109599
 21
4.7283730211000261
 31
0.0
  0
LINE
  5
17FB
  8
240
 10
-0.2531600690109599
 20
4.728373021093943
 30
0.0
 11
-0.0585099256260264
 21
4.9230228178203674
 31
0.0
  0
ARC
  5
17FC
  8
240
 10
-3.4532824225949241
 20
8.3178633601054344
 30
0.0
 40
0.1991897072091868
 50
44.936923022327349
 51
89.387504875849842
  0
ARC
  5
17FD
  8
240
 10
-3.4529322074158411
 20
8.3175874689461864
 30
0.0
 40
0.1994621514741417
 50
89.488946148543477
 51
135.02920144280509
  0
LINE
  5
17FE
  8
240
 10
-0.2531600690109599
 20
4.7283727580071959
 30
0.0
 11
-3.3122790551407202
 21
1.6692550852895349
 31
0.0
  0
ARC
  5
17FF
  8
240
 10
-3.4528417000927041
 20
1.8103582834318099
 30
0.0
 40
0.1996209310269265
 50
224.97966099897801
 51
268.9636405053626
  0
ARC
  5
1800
  8
240
 10
-3.4532824225949241
 20
1.8099483325497649
 30
0.0
 40
0.1991897072091868
 50
270.61249512415009
 51
315.06307697767261
  0
LINE
  5
1801
  8
240
 10
-3.5940451121551851
 20
1.6692550852895349
 30
0.0
 11
-6.8478105163795808
 21
4.9230228178203674
 31
0.0
  0
LINE
  5
1802
  8
240
 10
-6.9531598782764368
 20
4.8898205902105474
 30
0.0
 11
-6.8146083125283781
 21
4.8898205902105749
 31
0.0
  0
LINE
  5
1803
  8
240
 10
-6.9531598782760957
 20
-4.8898206756124116
 30
0.0
 11
-6.8086672898872669
 21
-4.8898206756124116
 31
0.0
  0
LINE
  5
1804
  8
240
 10
-6.8146079275176703
 20
-4.8898206756124258
 30
0.0
 11
-6.8478105163795808
 21
-4.9230232834814274
 31
0.0
  0
CIRCLE
  5
1805
  8
246
 10
-3.4531611523252361
 20
5.0639058463276276
 30
0.0
 40
2.4999997530653939
  0
ENDBLK
  5
1808
  8
0
  0
ENDSEC
  0
SECTION
  2
ENTITIES
  0
TEXT
  5
143D
  8
241
 10
-100.0316175580345
 20
22.787579073151988
 30
0.0
 40
3.0
  1
ST12-C1116-45B-25
  7
YOKO
 11
-100.0316175580345
 21
22.787579073151988
 31
0.0
 73
     1
  0
LINE
  5
155D
  8
250
 10
-97.953160656222707
 20
-5.500000042700889
 30
0.0
 11
-97.953160656222707
 21
-29.0
 31
0.0
  0
LINE
  5
155E
  8
250
 10
-0.0000001995390733
 20
-5.563906311988716
 30
0.0
 11
-0.0000001995390747
 21
-29.0
 31
0.0
  0
LINE
  5
155F
  8
250
 10
-95.723160656222703
 20
-28.0
 30
0.0
 11
-2.2300001995390741
 21
-28.0
 31
0.0
  0
LINE
  5
1563
  8
250
 10
-25.124733852468239
 20
-5.3000002279877094
 30
0.0
 11
-25.124733852468239
 21
-22.0
 31
0.0
  0
LINE
  5
1564
  8
250
 10
-0.0000001995390733
 20
-5.563906311988716
 30
0.0
 11
-0.0000001995390743
 21
-22.0
 31
0.0
  0
LINE
  5
1565
  8
250
 10
-22.894733852468239
 20
-21.0
 30
0.0
 11
-2.2300001995390741
 21
-21.0
 31
0.0
  0
LINE
  5
1569
  8
250
 10
-0.0000001995391132
 20
5.646279173868674
 30
0.0
 11
-0.000000199539151
 21
15.98572589939201
 31
0.0
  0
LINE
  5
156A
  8
250
 10
-3.6658325216318852
 20
8.8121099220610297
 30
0.0
 11
-7.6646481288492767
 21
12.81092381241389
 31
0.0
  0
ARC
  5
156B
  8
250
 10
-0.0000001995391112
 20
5.1462791738686731
 30
0.0
 40
9.8394467255233362
 50
103.01339785279281
 51
121.9866144469885
  0
LINE
  5
156F
  8
250
 10
-97.453161577008487
 20
-5.9999991208314318
 30
0.0
 11
-106.0
 21
-5.9999991208314292
 31
0.0
  0
LINE
  5
1570
  8
250
 10
-97.453161577008487
 20
6.000000052154121
 30
0.0
 11
-106.0
 21
6.0000000521541237
 31
0.0
  0
LINE
  5
1571
  8
250
 10
-105.0
 20
-3.7699991208314292
 30
0.0
 11
-105.0
 21
3.7700000521541241
 31
0.0
  0
LINE
  5
1575
  8
250
 10
-2.353722250896765
 20
8.0
 30
0.0
 11
16.002216386855789
 21
7.9999999999999938
 31
0.0
  0
LINE
  5
1576
  8
250
 10
-2.3537221852707542
 20
-7.9999999999999849
 30
0.0
 11
16.002216386855789
 21
-7.9999999999999911
 31
0.0
  0
LINE
  5
1577
  8
250
 10
15.002216386855791
 20
5.7699999999999942
 30
0.0
 11
15.002216386855791
 21
-5.7699999999999898
 31
0.0
  0
LINE
  5
157B
  8
250
 10
0.1462788224618237
 20
5.5000000000000284
 30
0.0
 11
9.0022163868558245
 21
5.5000000000000249
 31
0.0
  0
LINE
  5
157C
  8
250
 10
0.1462792458742683
 20
-5.5
 30
0.0
 11
9.0022163868558192
 21
-5.5000000000000018
 31
0.0
  0
LINE
  5
157D
  8
250
 10
8.0022163868558227
 20
3.2700000000000249
 30
0.0
 11
8.0022163868558227
 21
-3.2700000000000018
 31
0.0
  0
LINE
  5
1581
  8
250
 10
-7.0525996024593089
 20
5.5000000000000284
 30
0.0
 11
-10.379449493265041
 21
5.5000000000000293
 31
0.0
  0
LINE
  5
1582
  8
250
 10
-7.0526000258713282
 20
-5.4999999999999849
 30
0.0
 11
-10.379449493265041
 21
-5.499999999999984
 31
0.0
  0
LINE
  5
1583
  8
250
 10
-9.3794494932650405
 20
3.270000000000028
 30
0.0
 11
-9.3794494932650405
 21
-3.2699999999999849
 31
0.0
  0
TEXT
  5
1587
  8
250
 10
-6.7531242178585451
 20
14.97883090577751
 30
0.0
 40
2.7999999999999989
  1
45üï
 50
12.07578768366186
  0
LINE
  5
1588
  8
250
 10
-4.9808290162140612
 20
13.200924775706319
 30
0.0
 11
-6.9575411958669484
 21
12.10381718302316
 31
0.0
  0
LINE
  5
1589
  8
250
 10
-5.4434970019303783
 20
13.782717504637899
 30
0.0
 11
-6.9575411958669484
 21
12.10381718302316
 31
0.0
  0
LINE
  5
158A
  8
250
 10
-6.9575411958669484
 20
12.10381718302316
 30
0.0
 11
-5.2121630090722189
 21
13.49182114017211
 31
0.0
  0
LINE
  5
158B
  8
250
 10
-2.2577529434622892
 20
15.10229630051783
 30
0.0
 11
-0.0000001995391474
 21
14.98572589939201
 31
0.0
  0
LINE
  5
158C
  8
250
 10
-2.1735188711829241
 20
14.36375106459
 30
0.0
 11
-0.0000001995391474
 21
14.98572589939201
 31
0.0
  0
LINE
  5
158D
  8
250
 10
-0.0000001995391474
 20
14.98572589939201
 30
0.0
 11
-2.2156359073226071
 21
14.73302368255392
 31
0.0
  0
TEXT
  5
158E
  8
250
 10
7.0022163868558218
 20
-3.642857142857129
 30
0.0
 40
3.0
  1
\U+2205
 50
90.0
  0
TEXT
  5
158F
  8
250
 10
7.0022163868558218
 20
-0.9285714285714155
 30
0.0
 40
3.0
  1
11
 50
90.0
  0
LINE
  5
1590
  8
250
 10
8.3738830535224871
 20
-3.2700000000000018
 30
0.0
 11
8.0022163868558192
 21
-5.5000000000000018
 31
0.0
  0
LINE
  5
1591
  8
250
 10
7.6305497201891539
 20
-3.2700000000000018
 30
0.0
 11
8.0022163868558192
 21
-5.5000000000000018
 31
0.0
  0
LINE
  5
1592
  8
250
 10
8.0022163868558192
 20
-5.5000000000000018
 30
0.0
 11
8.0022163868558192
 21
-3.2700000000000018
 31
0.0
  0
LINE
  5
1593
  8
250
 10
7.6305497201891566
 20
3.2700000000000249
 30
0.0
 11
8.0022163868558245
 21
5.5000000000000249
 31
0.0
  0
LINE
  5
1594
  8
250
 10
8.3738830535224906
 20
3.2700000000000249
 30
0.0
 11
8.0022163868558245
 21
5.5000000000000249
 31
0.0
  0
LINE
  5
1595
  8
250
 10
8.0022163868558245
 20
5.5000000000000249
 30
0.0
 11
8.0022163868558245
 21
3.2700000000000249
 31
0.0
  0
TEXT
  5
1596
  8
250
 10
14.002216386855791
 20
-4.0714285714285658
 30
0.0
 40
3.0
  1
\U+2205
 50
90.0
  0
TEXT
  5
1597
  8
250
 10
14.002216386855791
 20
-1.3571428571428521
 30
0.0
 40
3.0
  1
16
 50
90.0
  0
LINE
  5
1598
  8
250
 10
15.37388305352246
 20
-5.7699999999999898
 30
0.0
 11
15.002216386855791
 21
-7.9999999999999911
 31
0.0
  0
LINE
  5
1599
  8
250
 10
14.630549720189119
 20
-5.7699999999999898
 30
0.0
 11
15.002216386855791
 21
-7.9999999999999911
 31
0.0
  0
LINE
  5
159A
  8
250
 10
15.002216386855791
 20
-7.9999999999999911
 30
0.0
 11
15.002216386855791
 21
-5.7699999999999898
 31
0.0
  0
LINE
  5
159B
  8
250
 10
14.63054972018913
 20
5.7699999999999942
 30
0.0
 11
15.002216386855791
 21
7.9999999999999938
 31
0.0
  0
LINE
  5
159C
  8
250
 10
15.37388305352246
 20
5.7699999999999942
 30
0.0
 11
15.002216386855791
 21
7.9999999999999938
 31
0.0
  0
LINE
  5
159D
  8
250
 10
15.002216386855791
 20
7.9999999999999938
 30
0.0
 11
15.002216386855791
 21
5.7699999999999942
 31
0.0
  0
TEXT
  5
159E
  8
250
 10
-10.379449493265041
 20
-3.6428571428571219
 30
0.0
 40
3.0
  1
\U+2205
 50
90.0
  0
TEXT
  5
159F
  8
250
 10
-10.379449493265041
 20
-0.9285714285714083
 30
0.0
 40
3.0
  1
11
 50
90.0
  0
LINE
  5
15A0
  8
250
 10
-9.0077828265983761
 20
-3.2699999999999849
 30
0.0
 11
-9.3794494932650423
 21
-5.4999999999999849
 31
0.0
  0
LINE
  5
15A1
  8
250
 10
-9.7511161599317084
 20
-3.2699999999999849
 30
0.0
 11
-9.3794494932650423
 21
-5.4999999999999849
 31
0.0
  0
LINE
  5
15A2
  8
250
 10
-9.3794494932650423
 20
-5.4999999999999849
 30
0.0
 11
-9.3794494932650423
 21
-3.2699999999999849
 31
0.0
  0
LINE
  5
15A3
  8
250
 10
-9.7511161599317049
 20
3.270000000000028
 30
0.0
 11
-9.3794494932650387
 21
5.5000000000000284
 31
0.0
  0
LINE
  5
15A4
  8
250
 10
-9.0077828265983726
 20
3.270000000000028
 30
0.0
 11
-9.3794494932650387
 21
5.5000000000000284
 31
0.0
  0
LINE
  5
15A5
  8
250
 10
-9.3794494932650387
 20
5.5000000000000284
 30
0.0
 11
-9.3794494932650387
 21
3.270000000000028
 31
0.0
  0
TEXT
  5
15A6
  8
250
 10
-15.41950988314651
 20
-20.0
 30
0.0
 40
3.0
  1
25
  0
LINE
  5
15A7
  8
250
 10
-2.2300001995390741
 20
-20.62833333333333
 30
0.0
 11
-0.0000001995390742
 21
-21.0
 31
0.0
  0
LINE
  5
15A8
  8
250
 10
-2.2300001995390741
 20
-21.37166666666667
 30
0.0
 11
-0.0000001995390742
 21
-21.0
 31
0.0
  0
LINE
  5
15A9
  8
250
 10
-0.0000001995390742
 20
-21.0
 30
0.0
 11
-2.2300001995390741
 21
-21.0
 31
0.0
  0
LINE
  5
15AA
  8
250
 10
-22.894733852468239
 20
-21.37166666666667
 30
0.0
 11
-25.124733852468239
 21
-21.0
 31
0.0
  0
LINE
  5
15AB
  8
250
 10
-22.894733852468239
 20
-20.62833333333333
 30
0.0
 11
-25.124733852468239
 21
-21.0
 31
0.0
  0
LINE
  5
15AC
  8
250
 10
-25.124733852468239
 20
-21.0
 30
0.0
 11
-22.894733852468239
 21
-21.0
 31
0.0
  0
TEXT
  5
15AD
  8
250
 10
-51.833723285023751
 20
-27.0
 30
0.0
 40
3.0
  1
98
  0
LINE
  5
15AE
  8
250
 10
-2.2300001995390741
 20
-27.62833333333333
 30
0.0
 11
-0.0000001995390747
 21
-28.0
 31
0.0
  0
LINE
  5
15AF
  8
250
 10
-2.2300001995390741
 20
-28.371666666666659
 30
0.0
 11
-0.0000001995390747
 21
-28.0
 31
0.0
  0
LINE
  5
15B0
  8
250
 10
-0.0000001995390747
 20
-28.0
 30
0.0
 11
-2.2300001995390741
 21
-28.0
 31
0.0
  0
LINE
  5
15B1
  8
250
 10
-95.723160656222703
 20
-28.371666666666659
 30
0.0
 11
-97.953160656222707
 21
-28.0
 31
0.0
  0
LINE
  5
15B2
  8
250
 10
-95.723160656222703
 20
-27.62833333333333
 30
0.0
 11
-97.953160656222707
 21
-28.0
 31
0.0
  0
LINE
  5
15B3
  8
250
 10
-97.953160656222707
 20
-28.0
 30
0.0
 11
-95.723160656222703
 21
-28.0
 31
0.0
  0
TEXT
  5
15B4
  8
250
 10
-106.0
 20
-4.0714281057672412
 30
0.0
 40
3.0
  1
\U+2205
 50
90.0
  0
TEXT
  5
15B5
  8
250
 10
-106.0
 20
-1.3571423914815259
 30
0.0
 40
3.0
  1
12
 50
90.0
  0
LINE
  5
15B6
  8
250
 10
-105.3716666666666
 20
3.7700000521541228
 30
0.0
 11
-105.0
 21
6.0000000521541228
 31
0.0
  0
LINE
  5
15B7
  8
250
 10
-104.6283333333333
 20
3.7700000521541228
 30
0.0
 11
-105.0
 21
6.0000000521541228
 31
0.0
  0
LINE
  5
15B8
  8
250
 10
-105.0
 20
6.0000000521541228
 30
0.0
 11
-105.0
 21
3.7700000521541228
 31
0.0
  0
LINE
  5
15B9
  8
250
 10
-104.6283333333333
 20
-3.7699991208314301
 30
0.0
 11
-105.0
 21
-5.9999991208314301
 31
0.0
  0
LINE
  5
15BA
  8
250
 10
-105.3716666666666
 20
-3.7699991208314301
 30
0.0
 11
-105.0
 21
-5.9999991208314301
 31
0.0
  0
LINE
  5
15BB
  8
250
 10
-105.0
 20
-5.9999991208314301
 30
0.0
 11
-105.0
 21
-3.7699991208314301
 31
0.0
  0
INSERT
  5
1809
  8
240
  2
A$C30B44B38
 10
0.0
 20
0.0
 30
0.0
  0
VIEWPORT
  5
22
 67
     1
  8
0
 10
261.51769911504419
 20
148.5
 30
0.0
 40
523.0353982300885
 41
297.0
 68
     1
 69
     1
1001
ACAD
1000
MVIEW
1002
{
1070
    16
1010
0.0
1020
0.0
1030
0.0
1010
0.0
1020
0.0
1030
1.0
1040
0.0
1040
297.0
1040
261.51769911504419
1040
148.5
1040
50.0
1040
0.0
1040
0.0
1070
     0
1070
   100
1070
     1
1070
     1
1070
     0
1070
     0
1070
     0
1070
     0
1040
0.0
1040
0.0
1040
0.0
1040
1.0
1040
1.0
1040
10.0
1040
10.0
1070
     0
1002
{
1002
}
1002
}
1001
GENIUS_GENODEF_13
1002
{
1000
HIER
1070
     0
1002
}
1002
{
1000
MANEDIT
1070
     0
1002
}
1002
{
1000
NOSEL
1070
     0
1002
}
1002
{
1000
BEHIND
1070
     0
1002
}
1002
{
1000
OTHER
1070
     0
1002
}
1002
{
1000
REACTOR
1002
}
1001
GENIUS_GENOBJ-N-SDF_13
1002
{
1000
OWNER
1000
GEN
1002
}
1001
GENIUS_GENSCREG_15
1000
PF
1040
1.0
1000
DF
1040
1.0
1000
MIN
1011
0.0
1021
-0.0
1031
-0.0
1021
0.0
1031
0.0
1000
MAX
1011
523.0353982300885
1021
-0.0
1031
-0.0
1021
297.0
1031
0.0
1000
FLAGS
1070
     2
  0
ENDSEC
  0
EOF
