  0
SECTION
  2
HEADER
  9
$ACADVER
  1
AC1009
  9
$INSBASE
 10
0.0
 20
0.0
 30
0.0
  9
$EXTMIN
 10
-123.1298695994556
 20
-34.861139535370853
 30
-0.0000000349181948
  9
$EXTMAX
 10
11.490156344993011
 20
23.852779146241009
 30
0.0000000814935747
  9
$LIMMIN
 10
0.0
 20
0.0
  9
$LIMMAX
 10
297.0
 20
210.0
  9
$ORTHOMODE
 70
     1
  9
$REGENMODE
 70
     1
  9
$FILLMODE
 70
     1
  9
$QTEXTMODE
 70
     0
  9
$MIRRTEXT
 70
     1
  9
$DRAGMODE
 70
     2
  9
$LTSCALE
 40
10.0
  9
$OSMODE
 70
  2597
  9
$ATTMODE
 70
     1
  9
$TEXTSIZE
 40
3.0
  9
$TRACEWID
 40
1.0
  9
$TEXTSTYLE
  7
YOKO
  9
$CLAYER
  8
240
  9
$CELTYPE
  6
BYLAYER
  9
$CECOLOR
 62
   256
  9
$DIMSCALE
 40
1.0
  9
$DIMASZ
 40
2.2299999999999991
  9
$DIMEXO
 40
0.5
  9
$DIMDLI
 40
7.0
  9
$DIMRND
 40
0.0
  9
$DIMDLE
 40
0.0
  9
$DIMEXE
 40
1.0
  9
$DIMTP
 40
0.0
  9
$DIMTM
 40
0.01
  9
$DIMTXT
 40
2.799999999999998
  9
$DIMCEN
 40
0.0
  9
$DIMTSZ
 40
0.0
  9
$DIMTOL
 70
     0
  9
$DIMLIM
 70
     0
  9
$DIMTIH
 70
     0
  9
$DIMTOH
 70
     0
  9
$DIMSE1
 70
     0
  9
$DIMSE2
 70
     0
  9
$DIMTAD
 70
     3
  9
$DIMZIN
 70
     9
  9
$DIMBLK
  1
OPEN
  9
$DIMASO
 70
     1
  9
$DIMSHO
 70
     1
  9
$DIMPOST
  1

  9
$DIMAPOST
  1

  9
$DIMALT
 70
     0
  9
$DIMALTD
 70
     2
  9
$DIMALTF
 40
25.399999999999999
  9
$DIMLFAC
 40
1.0
  9
$DIMTOFL
 70
     1
  9
$DIMTVP
 40
0.0
  9
$DIMTIX
 70
     1
  9
$DIMSOXD
 70
     0
  9
$DIMSAH
 70
     0
  9
$DIMBLK1
  1

  9
$DIMBLK2
  1

  9
$DIMSTYLE
  2
BIGT
  9
$DIMCLRD
 70
   256
  9
$DIMCLRE
 70
   256
  9
$DIMCLRT
 70
    40
  9
$DIMTFAC
 40
1.0
  9
$DIMGAP
 40
1.0
  9
$LUNITS
 70
     2
  9
$LUPREC
 70
     3
  9
$SKETCHINC
 40
1.0
  9
$FILLETRAD
 40
0.0
  9
$AUNITS
 70
     0
  9
$AUPREC
 70
     3
  9
$MENU
  1
.
  9
$ELEVATION
 40
0.0
  9
$PELEVATION
 40
0.0
  9
$THICKNESS
 40
0.0
  9
$LIMCHECK
 70
     0
  9
$BLIPMODE
 70
     0
  9
$CHAMFERA
 40
0.25
  9
$CHAMFERB
 40
0.25
  9
$SKPOLY
 70
     0
  9
$TDCREATE
 40
2454679.4849999999
  9
$TDUPDATE
 40
2454679.5468010302
  9
$TDINDWG
 40
0.0553289583
  9
$TDUSRTIMER
 40
0.0553287731
  9
$USRTIMER
 70
     1
  9
$ANGBASE
 50
0.0
  9
$ANGDIR
 70
     0
  9
$PDMODE
 70
     1
  9
$PDSIZE
 40
0.0
  9
$PLINEWID
 40
0.0
  9
$COORDS
 70
     2
  9
$SPLFRAME
 70
     0
  9
$SPLINETYPE
 70
     6
  9
$SPLINESEGS
 70
     4
  9
$ATTDIA
 70
     1
  9
$ATTREQ
 70
     1
  9
$HANDLING
 70
     1
  9
$HANDSEED
  5
2854
  9
$SURFTAB1
 70
     6
  9
$SURFTAB2
 70
     6
  9
$SURFTYPE
 70
     6
  9
$SURFU
 70
     6
  9
$SURFV
 70
     6
  9
$UCSNAME
  2

  9
$UCSORG
 10
0.0
 20
0.0
 30
0.0
  9
$UCSXDIR
 10
1.0
 20
0.0
 30
0.0
  9
$UCSYDIR
 10
0.0
 20
1.0
 30
0.0
  9
$PUCSNAME
  2

  9
$PUCSORG
 10
0.0
 20
0.0
 30
0.0
  9
$PUCSXDIR
 10
1.0
 20
0.0
 30
0.0
  9
$PUCSYDIR
 10
0.0
 20
1.0
 30
0.0
  9
$USERI1
 70
     1
  9
$USERI2
 70
     0
  9
$USERI3
 70
     0
  9
$USERI4
 70
     0
  9
$USERI5
 70
     0
  9
$USERR1
 40
0.0
  9
$USERR2
 40
0.0
  9
$USERR3
 40
0.0
  9
$USERR4
 40
0.0
  9
$USERR5
 40
0.0
  9
$WORLDVIEW
 70
     1
  9
$SHADEDGE
 70
     3
  9
$SHADEDIF
 70
    70
  9
$TILEMODE
 70
     1
  9
$MAXACTVP
 70
    16
  9
$PLIMCHECK
 70
     0
  9
$PEXTMIN
 10
1.0000000000000000E+020
 20
1.0000000000000000E+020
 30
1.0000000000000000E+020
  9
$PEXTMAX
 10
-1.0000000000000000E+020
 20
-1.0000000000000000E+020
 30
-1.0000000000000000E+020
  9
$PLIMMIN
 10
0.0
 20
0.0
  9
$PLIMMAX
 10
420.0
 20
297.0
  9
$UNITMODE
 70
     0
  9
$VISRETAIN
 70
     1
  9
$PLINEGEN
 70
     0
  9
$PSLTSCALE
 70
     1
  0
ENDSEC
  0
SECTION
  2
TABLES
  0
TABLE
  2
VPORT
 70
     8
  0
VPORT
  2
*ACTIVE
 70
     0
 10
0.0
 20
0.0
 11
1.0
 21
1.0
 12
-55.819856627231331
 22
-5.504180194564924
 13
0.0
 23
0.0
 14
7.0
 24
7.0
 15
7.0
 25
7.0
 16
0.0
 26
0.0
 36
1.0
 17
0.0
 27
0.0
 37
0.0
 40
91.014233834453975
 41
1.4864532019704431
 42
50.0
 43
0.0
 44
0.0
 50
0.0
 51
0.0
 71
     0
 72
  2000
 73
     1
 74
     0
 75
     0
 76
     1
 77
     0
 78
     0
  0
ENDTAB
  0
TABLE
  2
LTYPE
 70
    21
  0
LTYPE
  2
CONTINUOUS
 70
     0
  3
Solid line
 72
    65
 73
     0
 40
0.0
  0
LTYPE
  2
CENTER2
 70
     0
  3
___ _ ___ _ ___ _ ___ _ ___ _ ___ _ ___ _ ___ _
 72
    65
 73
     4
 40
1.125
 49
0.75
 49
-0.125
 49
0.125
 49
-0.125
  0
LTYPE
  2
HIDDEN2
 70
     0
  3
_ _ _ _ _ _ _ _ _ _ _ _ _ _ _ _ _ _ _ _ _ _ _ _
 72
    65
 73
     2
 40
0.1875
 49
0.125
 49
-0.0625
  0
LTYPE
  2
PHANTOM2
 70
     0
  3
___ _ _ ___ _ _ ___ _ _ ___ _ _ ___ _ _ ___ _ _
 72
    65
 73
     6
 40
1.25
 49
0.625
 49
-0.125
 49
0.125
 49
-0.125
 49
0.125
 49
-0.125
  0
LTYPE
  2
CENTER
 70
     0
  3
____ _ ____ _ ____ _ ____ _ ____ _ ____ _ ____ 
 72
    65
 73
     4
 40
2.0
 49
1.25
 49
-0.25
 49
0.25
 49
-0.25
  0
LTYPE
  2
AMCONSTR
 70
     0
  3
_______________________
 72
    65
 73
     2
 40
9999.0
 49
9999.0
 49
0.0
  0
LTYPE
  2
HIDDEN
 70
     0
  3
Hidden __ __ __ __ __ __ __ __ __ __ __ __ __ _
 72
    65
 73
     2
 40
9.5249999999999986
 49
6.3499999999999979
 49
-3.174999999999998
  0
LTYPE
  2
ACANSTGB
 70
     0
  3
__ . . __ . .
 72
    65
 73
     6
 40
0.35433070866
 49
0.15748031496
 49
-0.03937007874
 49
0.03937007874
 49
-0.03937007874
 49
0.03937007874
 49
-0.03937007874
  0
LTYPE
  2
ACANSTGL
 70
     0
  3
_ _ _ _ _
 72
    65
 73
     2
 40
0.11811023622
 49
0.07874015748
 49
-0.03937007874
  0
LTYPE
  2
AMZIGZAG2
 70
     0
  3
/\/-/\/-/\/-/\/-/\/-/\/
 72
    65
 73
     2
 40
0.4401
 49
0.0001
 49
-0.4400000000000001
  0
ENDTAB
  0
TABLE
  2
LAYER
 70
     8
  0
LAYER
  2
0
 70
     0
 62
     7
  6
CONTINUOUS
  0
LAYER
  2
240
 70
     0
 62
     4
  6
CONTINUOUS
  0
LAYER
  2
DEFPOINTS
 70
     0
 62
     7
  6
CONTINUOUS
  0
LAYER
  2
245
 70
     0
 62
     2
  6
CENTER2
  0
LAYER
  2
241
 70
     0
 62
   211
  6
CONTINUOUS
  0
LAYER
  2
246
 70
     0
 62
     3
  6
PHANTOM2
  0
LAYER
  2
247
 70
     0
 62
    60
  6
CONTINUOUS
  0
LAYER
  2
250
 70
     0
 62
     3
  6
CONTINUOUS
  0
ENDTAB
  0
TABLE
  2
STYLE
 70
     9
  0
STYLE
  2
STANDARD
 70
     0
 40
0.0
 41
1.0
 50
0.0
 71
     0
 42
3.0
  3
romans.shx
  4
extfont.shx
  0
STYLE
  2
YOKO
 70
     0
 40
0.0
 41
1.0
 50
0.0
 71
     0
 42
3.0
  3
romans.shx
  4
extfont.shx
  0
STYLE
  2
ACANSTS
 70
     0
 40
1.0
 41
1.0
 50
0.0
 71
     0
 42
3.0
  3
romans.shx
  4
extfont.shx
  0
STYLE
  2
ACANSGDT
 70
     0
 40
0.0
 41
1.0
 50
0.0
 71
     0
 42
3.0
  3
amgdtans.shx
  4

  0
STYLE
  2

 70
     1
 40
0.0
 41
1.0
 50
0.0
 71
     0
 42
3.0
  3
ltypeshp.shx
  4

  0
ENDTAB
  0
TABLE
  2
VIEW
 70
     0
  0
ENDTAB
  0
TABLE
  2
UCS
 70
     0
  0
ENDTAB
  0
TABLE
  2
APPID
 70
    32
  0
APPID
  2
ACAD
 70
     0
  0
APPID
  2
GLOBAL
 70
     0
  0
APPID
  2
DETAIL
 70
     0
  0
APPID
  2
GRPNAME
 70
     0
  0
APPID
  2
GPARA
 70
     0
  0
APPID
  2
MCAD_NO_VIS
 70
     0
  0
APPID
  2
ACAD_TEMP_GRAPHIC
 70
     0
  0
APPID
  2
ACATTRIBSERVICES
 70
     0
  0
APPID
  2
GENIUS_GENSCREG_15
 70
     0
  0
APPID
  2
GENIUS_GENODEF_13
 70
     0
  0
APPID
  2
GENIUS_GENOBJ-N-SDF_13
 70
     0
  0
APPID
  2
GENIUS_GENREC_14
 70
     0
  0
APPID
  2
GENIUS_GENOBJ-N-REC_13
 70
     0
  0
APPID
  2
GENIUS_GENDIMSH_14
 70
     0
  0
APPID
  2
GENIUS_GENOBJ-N-DIM_13
 70
     0
  0
APPID
  2
GENIUS_GENDIM_13
 70
     0
  0
APPID
  2
GENIUS_GENDTOL_13
 70
     0
  0
APPID
  2
GENIUS_GENOLIS_13
 70
     0
  0
APPID
  2
GENIUS_GENOENT_13
 70
     0
  0
APPID
  2
GENIUS_GENOBJ-F-FEM_13
 70
     0
  0
APPID
  2
GENIUS_GENOREF_13
 70
     0
  0
APPID
  2
GENIUS_GEFFEM_13
 70
     0
  0
APPID
  2
GENIUS_GEFFEMP_13
 70
     0
  0
APPID
  2
AD_DRAW
 70
     0
  0
APPID
  2
DESIGNERASSEMBLIES
 70
     0
  0
APPID
  2
ACADM_DIM_EDIT
 70
     0
  0
APPID
  2
AMDT_DM_ADJ
 70
     0
  0
APPID
  2
ITEMNAME
 70
     0
  0
APPID
  2
GENIUS_GENOBJ-N-FIL_13
 70
     0
  0
APPID
  2
HATCH_TYPE
 70
     0
  0
APPID
  2
HATCH_DISPLAY
 70
     0
  0
APPID
  2
HATCH_DISTANCE
 70
     0
  0
ENDTAB
  0
TABLE
  2
DIMSTYLE
 70
    29
  0
DIMSTYLE
  2
BIGT
 70
     0
  3

  4

  5

  6

  7

 40
1.0
 41
2.2299999999999991
 42
0.5
 43
7.0
 44
1.0
 45
0.0
 46
0.0
 47
0.0
 48
0.01
140
2.799999999999998
141
0.0
142
0.0
143
25.399999999999999
144
1.0
145
0.0
146
1.0
147
1.0
 71
     0
 72
     0
 73
     0
 74
     0
 75
     0
 76
     0
 77
     3
 78
     9
170
     0
171
     2
172
     1
173
     0
174
     1
175
     0
176
   256
177
   256
178
    40
  0
DIMSTYLE
  2
AM_ANSI
 70
     0
  3

  4
mm
  5

  6

  7

 40
1.0
 41
0.1
 42
0.05
 43
0.5
 44
0.1
 45
0.0
 46
0.0
 47
0.1
 48
0.1
140
0.12
141
0.0
142
0.0
143
25.399999999999999
144
1.0
145
0.0
146
0.71
147
0.06
 71
     0
 72
     0
 73
     1
 74
     1
 75
     0
 76
     0
 77
     0
 78
     7
170
     0
171
     2
172
     0
173
     0
174
     0
175
     0
176
   256
177
   256
178
     2
  0
DIMSTYLE
  2
AM_ANSI$3
 70
     0
  3

  4
mm
  5

  6

  7

 40
1.0
 41
0.1
 42
0.05
 43
0.5
 44
0.1
 45
0.0
 46
0.0
 47
0.1
 48
0.1
140
0.12
141
0.0
142
0.0
143
25.399999999999999
144
1.0
145
0.0
146
0.71
147
0.06
 71
     0
 72
     0
 73
     1
 74
     1
 75
     0
 76
     0
 77
     0
 78
     7
170
     0
171
     2
172
     0
173
     0
174
     0
175
     0
176
   256
177
   256
178
     2
  0
DIMSTYLE
  2
AM_ANSI$4
 70
     0
  3

  4
mm
  5

  6

  7

 40
1.0
 41
0.1
 42
0.05
 43
0.5
 44
0.1
 45
0.0
 46
0.0
 47
0.1
 48
0.1
140
0.12
141
0.0
142
0.0
143
25.399999999999999
144
1.0
145
0.0
146
0.71
147
0.06
 71
     0
 72
     0
 73
     1
 74
     1
 75
     0
 76
     0
 77
     0
 78
     7
170
     0
171
     2
172
     0
173
     0
174
     0
175
     0
176
   256
177
   256
178
     2
  0
DIMSTYLE
  2
AM_ANSI$7
 70
     0
  3

  4
mm
  5

  6

  7

 40
1.0
 41
0.1
 42
0.05
 43
0.5
 44
0.1
 45
0.0
 46
0.0
 47
0.1
 48
0.1
140
0.24
141
0.0
142
0.0
143
25.399999999999999
144
1.0
145
0.0
146
0.71
147
0.06
 71
     0
 72
     0
 73
     1
 74
     1
 75
     0
 76
     0
 77
     0
 78
     7
170
     0
171
     2
172
     0
173
     0
174
     0
175
     0
176
   256
177
   256
178
     2
  0
DIMSTYLE
  2
AM_ANSI$SF
 70
     0
  3

  4
mm
  5

  6

  7

 40
1.0
 41
0.1
 42
0.05
 43
0.5
 44
0.1
 45
0.0
 46
0.0
 47
0.1
 48
0.1
140
0.12
141
0.0
142
0.0
143
25.399999999999999
144
1.0
145
0.0
146
0.71
147
0.06
 71
     0
 72
     0
 73
     1
 74
     1
 75
     1
 76
     1
 77
     0
 78
     7
170
     0
171
     2
172
     0
173
     0
174
     0
175
     0
176
   256
177
   256
178
     2
  0
DIMSTYLE
  2
AM_ANSI$SH
 70
     0
  3

  4
mm
  5

  6

  7

 40
1.0
 41
0.1
 42
0.05
 43
0.5
 44
0.1
 45
0.0
 46
0.0
 47
0.1
 48
0.1
140
0.12
141
0.0
142
0.0
143
25.399999999999999
144
1.0
145
0.0
146
0.71
147
0.06
 71
     0
 72
     0
 73
     1
 74
     1
 75
     1
 76
     1
 77
     0
 78
     7
170
     0
171
     2
172
     0
173
     1
174
     0
175
     0
176
   256
177
   256
178
     2
  0
ENDTAB
  0
ENDSEC
  0
SECTION
  2
BLOCKS
  0
BLOCK
  8
0
  2
$MODEL_SPACE
 70
     0
 10
0.0
 20
0.0
 30
0.0
  3
$MODEL_SPACE
  1

  0
ENDBLK
  5
2487
  8
0
  0
BLOCK
 67
     1
  8
0
  2
$PAPER_SPACE
 70
     0
 10
0.0
 20
0.0
 30
0.0
  3
$PAPER_SPACE
  1

  0
ENDBLK
  5
2483
 67
     1
  8
0
  0
BLOCK
  8
0
  2
_OPEN
 70
     0
 10
0.0
 20
0.0
 30
0.0
  3
_OPEN
  1

  0
LINE
  5
595
  8
0
  6
BYBLOCK
 62
     0
 10
-1.0
 20
0.1666666666666666
 30
0.0
 11
0.0
 21
0.0
 31
0.0
  0
LINE
  5
596
  8
0
  6
BYBLOCK
 62
     0
 10
-1.0
 20
-0.1666666666666666
 30
0.0
 11
0.0
 21
0.0
 31
0.0
  0
LINE
  5
597
  8
0
  6
BYBLOCK
 62
     0
 10
0.0
 20
0.0
 30
0.0
 11
-1.0
 21
0.0
 31
0.0
  0
ENDBLK
  5
599
  8
0
  0
BLOCK
  8
0
  2
*X25
 70
     1
 10
0.0
 20
0.0
 30
0.0
  3
*X25
  1

  0
LINE
  5
2749
  8
0
 62
     0
 10
4.273162646078692
 20
-5.8571670211471281
 30
0.0
 11
3.510115154589633
 21
-5.094119529658065
 31
0.0
  0
LINE
  5
274A
  8
0
 62
     0
 10
3.4940719416106631
 20
-5.3367076929658772
 30
0.0
 11
3.1883917659253962
 21
-5.03102751728062
 31
0.0
  0
LINE
  5
274B
  8
0
 62
     0
 10
4.3362546584561441
 20
-6.1788904098113671
 30
0.0
 11
4.030574482770878
 21
-5.8732102341260974
 31
0.0
  0
LINE
  5
274C
  8
0
 62
     0
 10
3.161466872339401
 20
-5.2627339999814282
 30
0.0
 11
2.940339387738502
 21
-5.0416065153805283
 31
0.0
  0
LINE
  5
274D
  8
0
 62
     0
 10
4.3383903626899851
 20
-6.4396574903320083
 30
0.0
 11
4.1045481757553324
 21
-6.2058153033973564
 31
0.0
  0
LINE
  5
274E
  8
0
 62
     0
 10
2.9211994892945912
 20
-5.281097993223403
 30
0.0
 11
2.7312050109658821
 21
-5.091103514894697
 31
0.0
  0
LINE
  5
274F
  8
0
 62
     0
 10
4.338390362689978
 20
-6.6982888666187872
 30
0.0
 11
4.105585681181485
 21
-6.4654841851102951
 31
0.0
  0
LINE
  5
2750
  8
0
 62
     0
 10
2.7241461983551192
 20
-5.342676078570725
 30
0.0
 11
2.549611000613679
 21
-5.1681408808292844
 31
0.0
  0
LINE
  5
2751
  8
0
 62
     0
 10
4.338390362689978
 20
-6.9569202429055821
 30
0.0
 11
4.105585681181485
 21
-6.7241155613970891
 31
0.0
  0
LINE
  5
2752
  8
0
 62
     0
 10
2.5574155323842751
 20
-5.4345767888866652
 30
0.0
 11
2.3904879894348241
 21
-5.2676492459372142
 31
0.0
  0
LINE
  5
2753
  8
0
 62
     0
 10
4.3383903626899851
 20
-7.2155516191923699
 30
0.0
 11
4.105585681181485
 21
-6.9827469376838751
 31
0.0
  0
LINE
  5
2754
  8
0
 62
     0
 10
2.4161255819181502
 20
-5.5519182147073352
 30
0.0
 11
2.251507783582793
 21
-5.3873004163719713
 31
0.0
  0
LINE
  5
2755
  8
0
 62
     0
 10
4.3383903626899851
 20
-7.4741829954791603
 30
0.0
 11
4.105585681181493
 21
-7.2413783139706691
 31
0.0
  0
LINE
  5
2756
  8
0
 62
     0
 10
2.2989457159389901
 20
-5.6933697250149731
 30
0.0
 11
2.1319866093836382
 21
-5.526410618459618
 31
0.0
  0
LINE
  5
2757
  8
0
 62
     0
 10
4.3383903626899851
 20
-7.7328143717659659
 30
0.0
 11
4.105585681181477
 21
-7.5000096902574622
 31
0.0
  0
LINE
  5
2758
  8
0
 62
     0
 10
2.2072252078153922
 20
-5.8602805931781683
 30
0.0
 11
2.03261766024983
 21
-5.6856730456126012
 31
0.0
  0
LINE
  5
2759
  8
0
 62
     0
 10
4.338390362689978
 20
-7.9914457480527474
 30
0.0
 11
4.105585681181485
 21
-7.7586410665442571
 31
0.0
  0
LINE
  5
275A
  8
0
 62
     0
 10
2.1458777492053511
 20
-6.0575645108549052
 30
0.0
 11
1.955742399326019
 21
-5.8674291609755747
 31
0.0
  0
LINE
  5
275B
  8
0
 62
     0
 10
4.338390362689978
 20
-8.2500771243395317
 30
0.0
 11
4.105585681181485
 21
-8.0172724428310431
 31
0.0
  0
LINE
  5
275C
  8
0
 62
     0
 10
2.127884606905837
 20
-6.298202744842186
 30
0.0
 11
1.9064556573934901
 21
-6.0767737953298466
 31
0.0
  0
LINE
  5
275D
  8
0
 62
     0
 10
4.3383903626899851
 20
-8.5087085006263337
 30
0.0
 11
4.105585681181485
 21
-8.2759038191178362
 31
0.0
  0
LINE
  5
275E
  8
0
 62
     0
 10
2.0859571237484991
 20
-6.514906637971646
 30
0.0
 11
1.896203437136684
 21
-6.325152951359831
 31
0.0
  0
LINE
  5
275F
  8
0
 62
     0
 10
4.338390362689978
 20
-8.7673398769131232
 30
0.0
 11
4.105585681181485
 21
-8.5345351954046365
 31
0.0
  0
LINE
  5
2760
  8
0
 62
     0
 10
4.338390362689978
 20
-9.0259712531999199
 30
0.0
 11
4.105585681181485
 21
-8.7931665716914225
 31
0.0
  0
LINE
  5
2761
  8
0
 62
     0
 10
4.338390362689978
 20
-9.2846026294867023
 30
0.0
 11
4.105585681181485
 21
-9.0517979479782156
 31
0.0
  0
LINE
  5
2762
  8
0
 62
     0
 10
4.338390362689978
 20
-9.5432340057735008
 30
0.0
 11
4.105585681181485
 21
-9.3104293242649998
 31
0.0
  0
LINE
  5
2763
  8
0
 62
     0
 10
4.3383903626899851
 20
-9.8018653820602886
 30
0.0
 11
4.105585681181485
 21
-9.5690607005517911
 31
0.0
  0
LINE
  5
2764
  8
0
 62
     0
 10
4.3383903626899851
 20
-10.06049675834708
 30
0.0
 11
4.105585681181493
 21
-9.8276920768385896
 31
0.0
  0
LINE
  5
2765
  8
0
 62
     0
 10
4.338390362689978
 20
-10.31912813463388
 30
0.0
 11
4.105585681181485
 21
-10.086323453125379
 31
0.0
  0
LINE
  5
2766
  8
0
 62
     0
 10
4.338390362689978
 20
-10.577759510920661
 30
0.0
 11
4.105585681181485
 21
-10.34495482941217
 31
0.0
  0
LINE
  5
2767
  8
0
 62
     0
 10
4.338390362689978
 20
-10.836390887207459
 30
0.0
 11
4.105585681181485
 21
-10.60358620569896
 31
0.0
  0
LINE
  5
2768
  8
0
 62
     0
 10
4.3331743680063184
 20
-11.08980626881058
 30
0.0
 11
4.105585681181485
 21
-10.862217581985741
 31
0.0
  0
LINE
  5
2769
  8
0
 62
     0
 10
4.2927234683474307
 20
-11.30798674543848
 30
0.0
 11
4.0963826280125364
 21
-11.11164590510359
 31
0.0
  0
LINE
  5
276A
  8
0
 62
     0
 10
4.2225300722551111
 20
-11.496424725632959
 30
0.0
 11
4.044737971761033
 21
-11.31863262513888
 31
0.0
  0
LINE
  5
276B
  8
0
 62
     0
 10
4.1288343457024572
 20
-11.661360375367099
 30
0.0
 11
3.960418835935497
 21
-11.492944865600141
 31
0.0
  0
LINE
  5
276C
  8
0
 62
     0
 10
4.0145495478446014
 20
-11.80570695379603
 30
0.0
 11
3.849766277175481
 21
-11.640923683126911
 31
0.0
  0
LINE
  5
276D
  8
0
 62
     0
 10
3.8807570971702949
 20
-11.93054587940852
 30
0.0
 11
3.7149104705198961
 21
-11.76469925275811
 31
0.0
  0
LINE
  5
276E
  8
0
 62
     0
 10
3.7271431977453031
 20
-12.03556335627032
 30
0.0
 11
3.555244829520197
 21
-11.86366498804521
 31
0.0
  0
LINE
  5
276F
  8
0
 62
     0
 10
2.1267631408982761
 20
-10.69381467571009
 30
0.0
 11
1.9433546960822801
 21
-10.51040623089408
 31
0.0
  0
LINE
  5
2770
  8
0
 62
     0
 10
3.551878254361716
 20
-12.11892978917353
 30
0.0
 11
3.367040741413724
 21
-11.93409227622552
 31
0.0
  0
LINE
  5
2771
  8
0
 62
     0
 10
2.1267631408982761
 20
-10.95244605199688
 30
0.0
 11
1.8939584533982801
 21
-10.719641364496891
 31
0.0
  0
LINE
  5
2772
  8
0
 62
     0
 10
3.3508120748548631
 20
-12.17649498595347
 30
0.0
 11
3.140443698089034
 21
-11.96612660918764
 31
0.0
  0
LINE
  5
2773
  8
0
 62
     0
 10
2.164960234068348
 20
-11.24927452145374
 30
0.0
 11
1.893959103096269
 21
-10.978273390481659
 31
0.0
  0
LINE
  5
2774
  8
0
 62
     0
 10
3.1149140586925621
 20
-12.19922834607795
 30
0.0
 11
2.8439129277204782
 21
-11.928227215105871
 31
0.0
  0
LINE
  5
2775
  8
0
 62
     0
 10
2.8198068968923562
 20
-12.162752560564529
 30
0.0
 11
1.930434888609696
 21
-11.27338055228187
 31
0.0
  0
ENDBLK
  5
2776
  8
0
  0
BLOCK
  8
0
  2
*X26
 70
     1
 10
0.0
 20
0.0
 30
0.0
  3
*X26
  1

  0
LINE
  5
2779
  8
0
 62
     0
 10
3.9891833374314549
 20
-8.6767642279413888
 30
0.0
 11
3.9699999022341181
 21
-8.6575807927440565
 31
0.0
  0
LINE
  5
277A
  8
0
 62
     0
 10
3.9891833374314549
 20
-8.9353956042281784
 30
0.0
 11
3.6073930521298831
 21
-8.5536053189266141
 31
0.0
  0
LINE
  5
277B
  8
0
 62
     0
 10
3.9748178468112911
 20
-9.179661489894805
 30
0.0
 11
3.2447862020256362
 21
-8.4496298451091505
 31
0.0
  0
LINE
  5
277C
  8
0
 62
     0
 10
3.6122095777595682
 20
-9.0756845971298823
 30
0.0
 11
2.8821793519213901
 21
-8.3456543712917011
 31
0.0
  0
LINE
  5
277D
  8
0
 62
     0
 10
3.249601308707851
 20
-8.9717077043649454
 30
0.0
 11
2.5195725018171511
 21
-8.2416788974742428
 31
0.0
  0
LINE
  5
277E
  8
0
 62
     0
 10
2.8869930396561161
 20
-8.8677308116000084
 30
0.0
 11
2.156965651712897
 21
-8.1377034236567951
 31
0.0
  0
LINE
  5
277F
  8
0
 62
     0
 10
2.52438477060439
 20
-8.763753918835075
 30
0.0
 11
1.8939584533982801
 21
-8.1333276016289702
 31
0.0
  0
LINE
  5
2780
  8
0
 62
     0
 10
2.1617765015526582
 20
-8.659777026070131
 30
0.0
 11
1.8939584533982901
 21
-8.3919589779157633
 31
0.0
  0
LINE
  5
2781
  8
0
 62
     0
 10
1.918015068738405
 20
-8.674646969542664
 30
0.0
 11
1.8939584533982801
 21
-8.6505903542025422
 31
0.0
  0
ENDBLK
  5
2782
  8
0
  0
BLOCK
  8
0
  2
*X27
 70
     1
 10
0.0
 20
0.0
 30
0.0
  3
*X27
  1

  0
LINE
  5
2785
  8
0
 62
     0
 10
3.868211204180473
 20
-7.0040038369696571
 30
0.0
 11
3.649960323505288
 21
-6.7857529562944654
 31
0.0
  0
LINE
  5
2786
  8
0
 62
     0
 10
3.985652949158295
 20
-7.380076958234282
 30
0.0
 11
3.2873524678243831
 21
-6.6817764769003682
 31
0.0
  0
LINE
  5
2787
  8
0
 62
     0
 10
3.617185728354428
 20
-7.2702411137172014
 30
0.0
 11
2.924744612143483
 21
-6.5777999975062524
 31
0.0
  0
LINE
  5
2788
  8
0
 62
     0
 10
3.9698966386926511
 20
-7.6229520240554223
 30
0.0
 11
3.6965801245195551
 21
-7.3496355098823214
 31
0.0
  0
LINE
  5
2789
  8
0
 62
     0
 10
3.2412377906756031
 20
-7.1529245523251603
 30
0.0
 11
2.8018861877732841
 21
-6.7135729494228391
 31
0.0
  0
LINE
  5
278A
  8
0
 62
     0
 10
3.8992580266775021
 20
-7.8109447883270624
 30
0.0
 11
3.6959786603753511
 21
-7.6076654220249154
 31
0.0
  0
LINE
  5
278B
  8
0
 62
     0
 10
3.034690875273276
 20
-7.2050090132096241
 30
0.0
 11
2.8018861877732761
 21
-6.9722043257096251
 31
0.0
  0
LINE
  5
278C
  8
0
 62
     0
 10
3.792131315773708
 20
-7.9624494537100619
 30
0.0
 11
3.5455738235496872
 21
-7.7158919614860322
 31
0.0
  0
LINE
  5
278D
  8
0
 62
     0
 10
2.202988506504409
 20
-6.6319380207275582
 30
0.0
 11
2.1787499076577741
 21
-6.607699421880918
 31
0.0
  0
LINE
  5
278E
  8
0
 62
     0
 10
3.6531656331833751
 20
-8.082115147406526
 30
0.0
 11
3.2290805876554312
 21
-7.658030101878575
 31
0.0
  0
LINE
  5
278F
  8
0
 62
     0
 10
2.2677871082174681
 20
-6.9553679987274011
 30
0.0
 11
1.982121972154764
 21
-6.669702862664697
 31
0.0
  0
LINE
  5
2790
  8
0
 62
     0
 10
3.4804499382598562
 20
-8.168030828769794
 30
0.0
 11
2.8664723785437469
 21
-7.5540532690536812
 31
0.0
  0
LINE
  5
2791
  8
0
 62
     0
 10
2.1576583608831101
 20
-7.1038706276798393
 30
0.0
 11
1.983335797400418
 21
-6.9295480641971441
 31
0.0
  0
LINE
  5
2792
  8
0
 62
     0
 10
3.262962952369413
 20
-8.2091752191661413
 30
0.0
 11
2.503864169432068
 21
-7.4500764362287972
 31
0.0
  0
LINE
  5
2793
  8
0
 62
     0
 10
2.9676848492862362
 20
-8.1725284923697501
 30
0.0
 11
1.912955328823168
 21
-7.1177989719066872
 31
0.0
  0
LINE
  5
2794
  8
0
 62
     0
 10
2.623189712588176
 20
-8.0866647319584857
 30
0.0
 11
1.8976699797883021
 21
-7.3611449991586113
 31
0.0
  0
ENDBLK
  5
2795
  8
0
  0
BLOCK
  8
0
  2
A$C2FB95B85
 70
     0
 10
0.0
 20
0.0
 30
0.0
  3
A$C2FB95B85
  1

  0
ARC
  5
2797
  8
241
 10
-2.8021554771959338
 20
-5.1458124364788018
 30
0.0
 40
1.3484418600332351
 50
22.214878646218871
 51
84.851934613408815
  0
ARC
  5
2798
  8
241
 10
-2.7114894138388941
 20
-4.549012550437955
 30
0.0
 40
0.7468186658245313
 50
87.672493313115964
 51
186.07688617142111
  0
LINE
  5
2799
  8
241
 10
-3.6368599999999982
 20
-4.639319999999997
 30
0.0
 11
-3.454111505034887
 21
-4.6280729658910964
 31
0.0
  0
TEXT
  5
279A
  8
247
 10
-96.7101716873768
 20
-4.2636562183660232
 30
0.0
 40
2.0
  1
ST12-C1012-45B-35
 41
0.7
  7
YOKO
 11
-96.7101716873768
 21
-4.2636562183660232
 31
0.0
 73
     1
  0
INSERT
  5
279B
  8
247
  6
CONTINUOUS
  2
*X25
 10
-92.710171687376601
 20
-0.2220545796002824
 30
0.0
 50
270.0
1001
ACAD
1000
HATCH
1002
{
1070
    19
1000
ANSI31
1040
0.0576
1040
6.2831853071795827
1002
}
  0
INSERT
  5
279C
  8
247
  6
CONTINUOUS
  2
*X26
 10
-92.710171687376601
 20
-0.2220545796002824
 30
0.0
 50
270.0
1001
ACAD
1000
HATCH
1002
{
1070
    19
1000
ANSI31
1040
0.0576
1040
6.2831853071795827
1002
}
  0
INSERT
  5
279D
  8
247
  6
CONTINUOUS
  2
*X27
 10
-92.710171687376601
 20
-0.2220545796002824
 30
0.0
 50
270.0
1001
ACAD
1000
HATCH
1002
{
1070
    19
1000
ANSI31
1040
0.0576
1040
6.2831853071795827
1002
}
  0
LINE
  5
279E
  8
247
 10
-101.37792021440259
 20
-2.1160130329985649
 30
0.0
 11
-100.77245927690259
 21
-2.1160130329985649
 31
0.0
  0
POLYLINE
  5
279F
  8
247
 66
     1
 10
0.0
 20
0.0
 30
0.0
 70
     1
1001
HATCH_DISTANCE
1040
1.0
1001
HATCH_DISPLAY
1070
     0
1001
HATCH_TYPE
1070
     7
  0
VERTEX
  5
27A0
  8
247
 10
-101.37792021440259
 20
-2.1160130329985649
 30
0.0
  0
VERTEX
  5
27A1
  8
247
 10
-101.4513528315901
 20
-2.3720911579985522
 30
0.0
  0
VERTEX
  5
27A2
  8
247
 10
-101.36658232377761
 20
-2.3720911579985522
 30
0.0
  0
VERTEX
  5
27A3
  8
247
 10
-101.89395244096509
 20
-4.2112379170317373
 30
0.0
  0
VERTEX
  5
27A4
  8
247
 10
-101.3732532222151
 20
-4.2112379170317373
 30
0.0
  0
VERTEX
  5
27A5
  8
247
 10
-100.77245927690259
 20
-2.1160130329985649
 30
0.0
  0
SEQEND
  5
27A6
  8
247
  0
POLYLINE
  5
27A7
  8
247
 66
     1
 10
0.0
 20
0.0
 30
0.0
 70
     1
  0
VERTEX
  5
27A8
  8
247
 10
-101.37792021440259
 20
-2.1160130329985649
 30
0.0
  0
VERTEX
  5
27A9
  8
247
 10
-101.4513528315901
 20
-2.3720911579985522
 30
0.0
  0
VERTEX
  5
27AA
  8
247
 10
-101.36658232377761
 20
-2.3720911579985522
 30
0.0
  0
VERTEX
  5
27AB
  8
247
 10
-101.89395244096509
 20
-4.2112379170317373
 30
0.0
  0
VERTEX
  5
27AC
  8
247
 10
-101.3732532222151
 20
-4.2112379170317373
 30
0.0
  0
VERTEX
  5
27AD
  8
247
 10
-100.77245927690259
 20
-2.1160130329985649
 30
0.0
  0
SEQEND
  5
27AE
  8
247
  0
LINE
  5
27AF
  8
247
 10
-101.3732532222151
 20
-4.2112379170317373
 30
0.0
 11
-100.77245927690259
 21
-2.1160130329985649
 31
0.0
  0
LINE
  5
27B0
  8
247
 10
-103.6871848628401
 20
-4.5604449422902604
 30
0.0
 11
-98.961279589402622
 21
-4.5604449422902604
 31
0.0
  0
LINE
  5
27B1
  8
247
 10
-103.6871848628401
 20
-4.327640260781763
 30
0.0
 11
-98.961279589402622
 21
-4.327640260781763
 31
0.0
  0
ARC
  5
27B2
  8
247
 10
-100.1633420894026
 20
-3.4546311970610599
 30
0.0
 40
0.756615234375
 50
163.99975070172931
 51
304.96387329163082
  0
ARC
  5
27B3
  8
247
 10
-103.6871848628401
 20
-3.338228853311064
 30
0.0
 40
0.9894111328124999
 50
90.0
 51
270.0
  0
ARC
  5
27B4
  8
247
 10
-103.6871848628401
 20
-3.338228853311064
 30
0.0
 40
1.2222158203124971
 50
90.0
 51
270.0
  0
LINE
  5
27B5
  8
247
 10
-101.89395244096509
 20
-4.2112379170317373
 30
0.0
 11
-101.3732532222151
 21
-4.2112379170317373
 31
0.0
  0
LINE
  5
27B6
  8
247
 10
-102.3778255362958
 20
-4.167602032862403
 30
0.0
 11
-102.06056461297629
 21
-3.850341109542839
 31
0.0
  0
LINE
  5
27B7
  8
247
 10
-103.45598692561229
 20
-4.2112379170317373
 30
0.0
 11
-102.7939460372793
 21
-3.5491970286987691
 31
0.0
  0
LINE
  5
27B8
  8
247
 10
-103.19735554932559
 20
-4.2112379170317373
 30
0.0
 11
-102.8979168372321
 21
-3.9117992049383319
 31
0.0
  0
LINE
  5
27B9
  8
247
 10
-102.68009279675201
 20
-4.2112379170317649
 30
0.0
 11
-102.0219331418203
 21
-3.5530782621000441
 31
0.0
  0
LINE
  5
27BA
  8
247
 10
-102.7185077000873
 20
-3.28610291717753
 30
0.0
 11
-102.9092916628763
 21
-3.9514693482367269
 31
0.0
  0
ARC
  5
27BB
  8
247
 10
-102.8586575190901
 20
-3.6059524861235399
 30
0.0
 40
0.3492072715759277
 50
261.66285421114719
 51
66.33819215911376
  0
LINE
  5
27BC
  8
247
 10
-102.93872417303881
 20
-4.2112379170317373
 30
0.0
 11
-102.0845108432281
 21
-3.3570245872210891
 31
0.0
  0
LINE
  5
27BD
  8
247
 10
-103.5650256831525
 20
-4.2112379170317373
 30
0.0
 11
-102.5989319331525
 21
-4.2112379170317373
 31
0.0
  0
LINE
  5
27BE
  8
247
 10
-103.5048857809367
 20
-4.0015053960693052
 30
0.0
 11
-102.51986474688429
 21
-3.0164843620168682
 31
0.0
  0
LINE
  5
27BF
  8
247
 10
-103.4009096234887
 20
-3.6388978623346162
 30
0.0
 11
-102.5859931146172
 21
-2.8239813534629969
 31
0.0
  0
ARC
  5
27C0
  8
247
 10
-102.5989319331525
 20
-3.6292347126860842
 30
0.0
 40
0.5820029296875
 50
270.0
 51
40.329840654167029
  0
LINE
  5
27C1
  8
247
 10
-102.517504133602
 20
-3.5313865013081762
 30
0.0
 11
-101.7541277424866
 21
-2.7680101101928321
 31
0.0
  0
LINE
  5
27C2
  8
247
 10
-101.4513528315901
 20
-2.3720911579985522
 30
0.0
 11
-101.37792021440259
 21
-2.1160130329985649
 31
0.0
  0
LINE
  5
27C3
  8
247
 10
-101.4513528315901
 20
-2.3720911579985522
 30
0.0
 11
-101.36658232377761
 21
-2.3720911579985522
 31
0.0
  0
LINE
  5
27C4
  8
247
 10
-102.4021020893579
 20
-2.3814589519169389
 30
0.0
 11
-102.16200418499869
 21
-2.1413610475577638
 31
0.0
  0
LINE
  5
27C5
  8
247
 10
-103.1453549867999
 20
-2.348817720498614
 30
0.0
 11
-102.9125502992998
 21
-2.1160130329986231
 31
0.0
  0
LINE
  5
27C6
  8
247
 10
-103.2064143550276
 20
-2.1160130329985649
 30
0.0
 11
-103.273167284715
 21
-2.3488177204985581
 31
0.0
  0
LINE
  5
27C7
  8
247
 10
-103.0853274409649
 20
-2.1160130329985649
 30
0.0
 11
-103.1520803706529
 21
-2.3488177204985581
 31
0.0
  0
LINE
  5
27C8
  8
247
 10
-103.0853274409649
 20
-2.1160130329985649
 30
0.0
 11
-102.3343103192872
 21
-2.1160130329986511
 31
0.0
  0
LINE
  5
27C9
  8
247
 10
-103.6871848628401
 20
-2.1160130329985649
 30
0.0
 11
-103.2064143550276
 21
-2.1160130329985649
 31
0.0
  0
LINE
  5
27CA
  8
247
 10
-102.27973412559599
 20
-2.517722364441894
 30
0.0
 11
-101.9894438854348
 21
-2.2274321242807522
 31
0.0
  0
LINE
  5
27CB
  8
247
 10
-103.1520803706529
 20
-2.3488177204985581
 30
0.0
 11
-103.0309846675279
 21
-2.3488177204992962
 31
0.0
  0
LINE
  5
27CC
  8
247
 10
-103.6871848628401
 20
-2.3488177204985581
 30
0.0
 11
-103.273167284715
 21
-2.3488177204985581
 31
0.0
  0
LINE
  5
27CD
  8
247
 10
-103.08898115114491
 20
-2.551075261130435
 30
0.0
 11
-102.65391892301319
 21
-2.1160130329986231
 31
0.0
  0
LINE
  5
27CE
  8
247
 10
-102.24989517444681
 20
-2.7465147895794502
 30
0.0
 11
-101.8603190047962
 21
-2.3569386199287261
 31
0.0
  0
ARC
  5
27CF
  8
247
 10
-102.3319114253401
 20
-2.698015962686056
 30
0.0
 40
0.5820078735351563
 50
287.66957754739968
 51
90.236159842671583
  0
LINE
  5
27D0
  8
247
 10
-103.1929573085929
 20
-2.91368279486518
 30
0.0
 11
-102.39528754672639
 21
-2.1160130329986511
 31
0.0
  0
LINE
  5
27D1
  8
247
 10
-102.60778472226249
 20
-3.363035713682009
 30
0.0
 11
-101.77469809882599
 21
-2.5299490902453798
 31
0.0
  0
LINE
  5
27D2
  8
247
 10
-101.89395244096509
 20
-4.2112379170317373
 30
0.0
 11
-101.36658232377761
 21
-2.3720911579985522
 31
0.0
  0
LINE
  5
27D3
  8
247
 10
-102.45148997084139
 20
-2.3549026464442719
 30
0.0
 11
-102.64227079504479
 21
-3.020249342655815
 31
0.0
  0
ARC
  5
27D4
  8
247
 10
-102.5916370112775
 20
-2.674742525186089
 30
0.0
 40
0.349197280883789
 50
261.6626016879294
 51
66.33815509518989
  0
LINE
  5
27D5
  8
247
 10
-103.2969334660409
 20
-3.276290328599869
 30
0.0
 11
-102.4820203891363
 21
-2.461377251695394
 31
0.0
  0
LINE
  5
27D6
  8
247
 10
-103.5650256831525
 20
-4.2112379170317373
 30
0.0
 11
-103.0309846675279
 21
-2.3488177204992962
 31
0.0
  0
ARC
  5
27D7
  8
247
 10
-98.961279589402622
 20
-3.338228853311064
 30
0.0
 40
1.2222158203124971
 50
270.0
 51
104.7707939660942
  0
ARC
  5
27D8
  8
247
 10
-98.961279589402622
 20
-3.338228853311064
 30
0.0
 40
0.9894111328124999
 50
270.0
 51
104.12743649641
  0
LINE
  5
27D9
  8
247
 10
-99.953362597215104
 20
-3.7780862751860549
 30
0.0
 11
-99.803869433152514
 21
-3.2567454548735522
 31
0.0
  0
LINE
  5
27DA
  8
247
 10
-99.997615526902635
 20
-3.2567454548735522
 30
0.0
 11
-99.803869433152514
 21
-3.2567454548735522
 31
0.0
  0
LINE
  5
27DB
  8
247
 10
-99.729760058152621
 20
-4.0746822529692812
 30
0.0
 11
-99.593195605027631
 21
-4.2112379170317373
 31
0.0
  0
LINE
  5
27DC
  8
247
 10
-99.997615526902635
 20
-3.2567454548735522
 30
0.0
 11
-99.930862597215125
 21
-3.0239407673735581
 31
0.0
  0
LINE
  5
27DD
  8
247
 10
-99.930862597215125
 20
-3.0239407673735581
 30
0.0
 11
-99.252742480027635
 21
-3.0239407673735581
 31
0.0
  0
LINE
  5
27DE
  8
247
 10
-99.593195605027631
 20
-4.2112379170317373
 30
0.0
 11
-99.252742480027635
 21
-3.0239407673735581
 31
0.0
  0
POLYLINE
  5
27DF
  8
247
 66
     1
 10
0.0
 20
0.0
 30
0.0
 70
     1
1001
HATCH_DISTANCE
1040
1.0
1001
HATCH_DISPLAY
1070
     0
1001
HATCH_TYPE
1070
     7
  0
VERTEX
  5
27E0
  8
247
 10
-99.202776659715113
 20
-2.3787356892485558
 30
0.0
  0
VERTEX
  5
27E1
  8
247
 10
-99.272887011277646
 20
-2.156398775186076
 30
0.0
  0
VERTEX
  5
27E2
  8
247
 10
-99.272887011277646
 20
-2.156398775186076
 30
0.0
  0
VERTEX
  5
27E3
  8
247
 10
-99.202776659715113
 20
-2.3787356892485558
 30
0.0
  0
SEQEND
  5
27E4
  8
247
  0
POLYLINE
  5
27E5
  8
247
 66
     1
 10
0.0
 20
0.0
 30
0.0
 70
     1
  0
VERTEX
  5
27E6
  8
247
 10
-99.202776659715113
 20
-2.3787356892485558
 30
0.0
  0
VERTEX
  5
27E7
  8
247
 10
-99.272887011277646
 20
-2.156398775186076
 30
0.0
  0
VERTEX
  5
27E8
  8
247
 10
-99.272887011277646
 20
-2.156398775186076
 30
0.0
  0
VERTEX
  5
27E9
  8
247
 10
-99.202776659715113
 20
-2.3787356892485558
 30
0.0
  0
SEQEND
  5
27EA
  8
247
  0
LINE
  5
27EB
  8
247
 10
-99.202776659715113
 20
-2.3787356892485558
 30
0.0
 11
-99.272887011277646
 21
-2.156398775186076
 31
0.0
  0
POLYLINE
  5
27EC
  8
247
 66
     1
 10
0.0
 20
0.0
 30
0.0
 70
     1
1001
HATCH_DISTANCE
1040
1.0
1001
HATCH_DISPLAY
1070
     0
1001
HATCH_TYPE
1070
     7
  0
VERTEX
  5
27ED
  8
247
 10
-99.202776659715113
 20
-2.3787356892485558
 30
0.0
  0
VERTEX
  5
27EE
  8
247
 10
-99.272887011277646
 20
-2.156398775186076
 30
0.0
  0
VERTEX
  5
27EF
  8
247
 10
-99.272887011277646
 20
-2.156398775186076
 30
0.0
  0
VERTEX
  5
27F0
  8
247
 10
-99.202776659715113
 20
-2.3787356892485558
 30
0.0
  0
SEQEND
  5
27F1
  8
247
  0
POLYLINE
  5
27F2
  8
247
 66
     1
 10
0.0
 20
0.0
 30
0.0
 70
     1
  0
VERTEX
  5
27F3
  8
247
 10
-99.202776659715113
 20
-2.3787356892485558
 30
0.0
  0
VERTEX
  5
27F4
  8
247
 10
-99.272887011277646
 20
-2.156398775186076
 30
0.0
  0
VERTEX
  5
27F5
  8
247
 10
-99.272887011277646
 20
-2.156398775186076
 30
0.0
  0
VERTEX
  5
27F6
  8
247
 10
-99.202776659715113
 20
-2.3787356892485558
 30
0.0
  0
SEQEND
  5
27F7
  8
247
  0
LINE
  5
27F8
  8
247
 10
-99.313791308152645
 20
-2.4137425251860649
 30
0.0
 11
-99.383901659715121
 21
-2.1914056111235269
 31
0.0
  0
ARC
  5
27F9
  8
247
 10
-98.961279589402622
 20
-3.338228853311064
 30
0.0
 40
1.222216369628905
 50
110.22964506332011
 51
118.57168892371659
  0
ARC
  5
27FA
  8
247
 10
-99.874586230027646
 20
-2.616541353311062
 30
0.0
 40
0.2444448051452637
 50
1.7101213820627561
 51
163.99839835444709
  0
ARC
  5
27FB
  8
247
 10
-98.961279589402622
 20
-3.338228853311064
 30
0.0
 40
0.9894138793945311
 50
110.8721834020736
 51
132.54194893738801
  0
ARC
  5
27FC
  8
247
 10
-98.926316698777526
 20
-3.4944104939360581
 30
0.0
 40
1.9799648437499999
 50
155.20517736984149
 51
172.79482596205219
  0
ARC
  5
27FD
  8
247
 10
-100.1883381831526
 20
-3.7107093220610761
 30
0.0
 40
0.2444446334838867
 50
164.0002730571814
 51
344.00027305718231
  0
LINE
  5
27FE
  8
247
 10
-100.4233137690901
 20
-3.643332368936071
 30
0.0
 11
-100.10956181596509
 21
-2.5491556111235649
 31
0.0
  0
ARC
  5
27FF
  8
247
 10
-99.996455370652527
 20
-2.872619478311051
 30
0.0
 40
0.7566075439453125
 50
53.444012197057347
 51
164.00018438768541
  0
LINE
  5
2800
  8
241
 10
-4.1972911863410332
 20
4.4999999999999432
 30
0.0
 11
-4.8037101564979121
 21
2.3133238361114921
 31
0.0
  0
LINE
  5
2801
  8
240
 10
-0.3554841181569373
 20
2.0130810775843031
 30
0.0
 11
-0.1499081696198772
 21
2.0662466328270881
 31
0.0
  0
ARC
  5
2802
  8
241
 10
-6.9193336069884719
 20
-3.0034330869618331
 30
0.0
 40
2.5870098060423832
 50
328.18533306010568
 51
359.63620628801323
  0
LINE
  5
2803
  8
241
 10
-1.203848706738696
 20
-4.6579954191639938
 30
0.0
 11
-1.5538051724617361
 21
-4.6359919126079774
 31
0.0
  0
LINE
  5
2804
  8
240
 10
-4.7621269199941452
 20
-4.4313963379407824
 30
0.0
 11
-5.0918942885508596
 21
-4.500000000000056
 31
0.0
  0
ARC
  5
2805
  8
240
 10
-6.9193336069884719
 20
-3.0034330869618331
 30
0.0
 40
2.5870098060423832
 50
326.49742748219097
 51
328.18533306010568
  0
ARC
  5
2806
  8
241
 10
-6.6291104491987332
 20
-1.98760837899286
 30
0.0
 40
2.5180410186132791
 50
335.7988140680859
 51
11.56039401054367
  0
LINE
  5
2807
  8
240
 10
-4.0054841181569127
 20
-4.2945874311760122
 30
0.0
 11
-4.7210019190235339
 21
-4.367235684938775
 31
0.0
  0
LINE
  5
2808
  8
240
 10
-2.6554841181569482
 20
-5.302666126220684
 30
0.0
 11
-2.1554841181569482
 21
-5.302666126220684
 31
0.0
  0
ARC
  5
2809
  8
240
 10
1.0113629882503961
 20
-8.9527136386116126
 30
0.0
 40
4.8323666497971614
 50
117.2846419140344
 51
130.9454975277543
  0
ARC
  5
280A
  8
240
 10
-5.849532552439511
 20
-8.9758250411331542
 30
0.0
 40
4.8676525979925671
 50
48.990937933879529
 51
62.981675206817791
  0
ARC
  5
280B
  8
240
 10
-12.261233743913021
 20
-13.453887487560859
 30
0.0
 40
12.330862881650461
 50
45.629235260332443
 51
47.970031643581848
  0
ARC
  5
280C
  8
241
 10
-2.4532733081761631
 20
-3.6663165481016038
 30
0.0
 40
1.3880390857071341
 50
223.8592014521557
 51
315.36472430072263
  0
LINE
  5
280D
  8
240
 10
-1.02808292208003
 20
-4.6690466897472467
 30
0.0
 11
-1.203848706738696
 21
-4.6579954191639938
 31
0.0
  0
LINE
  5
280E
  8
240
 10
-0.8379127713197931
 20
-4.498455315032599
 30
0.0
 11
-1.0280829220799299
 21
-4.66904668974726
 31
0.0
  0
LINE
  5
280F
  8
240
 10
-0.3554841181569373
 20
-2.791221062713872
 30
0.0
 11
-0.8379127713197931
 21
-4.498455315032599
 31
0.0
  0
LINE
  5
2810
  8
241
 10
-2.65548411815689
 20
-2.1672277632982282
 30
0.0
 11
-4.0054841181569127
 21
-1.482991103195729
 31
0.0
  0
LINE
  5
2811
  8
241
 10
-2.15548411815689
 20
-2.1672277632982282
 30
0.0
 11
-2.65548411815689
 21
-2.1672277632982282
 31
0.0
  0
LINE
  5
2812
  8
241
 10
-0.8379127713197931
 20
-1.4994933918389379
 30
0.0
 11
-2.15548411815689
 21
-2.1672277632982282
 31
0.0
  0
LINE
  5
2813
  8
241
 10
-0.3554841181569373
 20
-0.6342379668354568
 30
0.0
 11
-0.8379127713197931
 21
-1.4994933918389379
 31
0.0
  0
CIRCLE
  5
2814
  8
246
 10
-2.405484117892696
 20
3.53322214934225
 30
0.0
 40
1.984999999760215
  0
ARC
  5
2815
  8
240
 10
-2.4054841149252151
 20
6.0799141264014036
 30
0.0
 40
0.2
 50
44.500000000000369
 51
135.5000000000008
1001
GENIUS_GENOBJ-N-FIL_13
1002
{
1000
OWNER
1000
GEN
1002
}
1001
GENIUS_GENODEF_13
1002
{
1000
HIER
1070
     0
1002
}
1002
{
1000
MANEDIT
1070
     0
1002
}
1002
{
1000
NOSEL
1070
     0
1002
}
1002
{
1000
BEHIND
1070
     0
1002
}
1002
{
1000
OTHER
1070
     0
1002
}
1002
{
1000
REACTOR
1002
}
  0
ARC
  5
2816
  8
240
 10
-0.8087696489138949
 20
4.4550856780341359
 30
0.0
 40
0.2
 50
15.500000000000609
 51
44.500000000000369
1001
GENIUS_GENOBJ-N-FIL_13
1002
{
1000
OWNER
1000
GEN
1002
}
1001
GENIUS_GENODEF_13
1002
{
1000
HIER
1070
     0
1002
}
1002
{
1000
MANEDIT
1070
     0
1002
}
1002
{
1000
NOSEL
1070
     0
1002
}
1002
{
1000
BEHIND
1070
     0
1002
}
1002
{
1000
OTHER
1070
     0
1002
}
1002
{
1000
REACTOR
1002
}
  0
ARC
  5
2817
  8
240
 10
-0.1999841704576539
 20
2.259876160895756
 30
0.0
 40
0.2
 50
284.50000000795472
 51
15.500000000000609
1001
GENIUS_GENODEF_13
1002
{
1000
HIER
1070
     0
1002
}
1002
{
1000
MANEDIT
1070
     0
1002
}
1002
{
1000
NOSEL
1070
     0
1002
}
1002
{
1000
BEHIND
1070
     0
1002
}
1002
{
1000
OTHER
1070
     0
1002
}
1002
{
1000
REACTOR
1002
}
1001
GENIUS_GENOBJ-N-FIL_13
1002
{
1000
OWNER
1000
GEN
1002
}
  0
ARC
  5
2818
  8
241
 10
-2.4054841168931911
 20
1.689495092124857
 30
0.0
 40
0.2
 50
255.50000000000031
 51
284.49999999999972
1001
GENIUS_GENOBJ-N-FIL_13
1002
{
1000
OWNER
1000
GEN
1002
}
1001
GENIUS_GENODEF_13
1002
{
1000
HIER
1070
     0
1002
}
1002
{
1000
MANEDIT
1070
     0
1002
}
1002
{
1000
NOSEL
1070
     0
1002
}
1002
{
1000
BEHIND
1070
     0
1002
}
1002
{
1000
OTHER
1070
     0
1002
}
1002
{
1000
REACTOR
1002
}
  0
ARC
  5
2819
  8
241
 10
-4.6109840658561847
 20
2.2598761608958422
 30
0.0
 40
0.2
 50
164.5000000000002
 51
255.50000000000031
1001
GENIUS_GENODEF_13
1002
{
1000
HIER
1070
     0
1002
}
1002
{
1000
MANEDIT
1070
     0
1002
}
1002
{
1000
NOSEL
1070
     0
1002
}
1002
{
1000
BEHIND
1070
     0
1002
}
1002
{
1000
OTHER
1070
     0
1002
}
1002
{
1000
REACTOR
1002
}
1001
GENIUS_GENOBJ-N-FIL_13
1002
{
1000
OWNER
1000
GEN
1002
}
  0
ARC
  5
281A
  8
240
 10
-4.0021985874000006
 20
4.4550856780340791
 30
0.0
 40
0.2
 50
135.5000000000008
 51
164.5000000000002
1001
GENIUS_GENODEF_13
1002
{
1000
HIER
1070
     0
1002
}
1002
{
1000
MANEDIT
1070
     0
1002
}
1002
{
1000
NOSEL
1070
     0
1002
}
1002
{
1000
BEHIND
1070
     0
1002
}
1002
{
1000
OTHER
1070
     0
1002
}
1002
{
1000
REACTOR
1002
}
1001
GENIUS_GENOBJ-N-FIL_13
1002
{
1000
OWNER
1000
GEN
1002
}
  0
LINE
  5
281B
  8
241
 10
-0.3554841181569373
 20
1.8942975417121199
 30
0.0
 11
-4.0054841181569127
 21
0.9503433588131427
 31
0.0
  0
ARC
  5
281C
  8
240
 10
-35.212843431037641
 20
7.4999999999999423
 30
0.0
 40
3.0000000000000031
 50
225.0
 51
270.0
  0
ARC
  5
281D
  8
240
 10
-35.212843431037641
 20
-7.5000000000000284
 30
0.0
 40
3.0000000000000031
 50
90.0
 51
135.0
  0
LINE
  5
281E
  8
240
 10
-4.194924678041728
 20
4.5085333532497298
 30
0.0
 11
-4.1972911863410332
 21
4.4999999999999432
 31
0.0
  0
LINE
  5
281F
  8
240
 10
-0.0072580798159265
 20
2.3133238361114081
 30
0.0
 11
-0.6160435582721675
 21
4.5085333532497884
 31
0.0
  0
LINE
  5
2820
  8
240
 10
-35.212843431037641
 20
-4.500000000000056
 30
0.0
 11
-5.0918942885508596
 21
-4.500000000000056
 31
0.0
  0
LINE
  5
2821
  8
241
 10
-3.742870938400471
 20
-4.5383014429015134
 30
0.0
 11
-3.742870938400471
 21
-1.6160944846886289
 31
0.0
  0
LINE
  5
2822
  8
241
 10
-4.6610600666670763
 20
2.0662466328202229
 30
0.0
 11
-2.45556011770408
 21
1.4958655640492251
 31
0.0
  0
LINE
  5
2823
  8
241
 10
-4.0054841181569127
 20
-1.482991103195729
 30
0.0
 11
-4.0054841181569127
 21
0.9503433588131427
 31
0.0
  0
LINE
  5
2824
  8
240
 10
-0.3554841181569373
 20
-2.7912210627138592
 30
0.0
 11
-0.3554841181569373
 21
2.0130810776148702
 31
0.0
  0
LINE
  5
2825
  8
241
 10
-4.162150381344758
 20
-1.482991103195729
 30
0.0
 11
-4.0054841181569127
 21
-1.482991103195729
 31
0.0
  0
LINE
  5
2826
  8
241
 10
-2.3554081160822999
 20
1.4958655640492251
 30
0.0
 11
-0.3554841181569373
 21
2.0130810775843031
 31
0.0
  0
LINE
  5
2827
  8
240
 10
-4.1972911863409763
 20
4.4999999999999432
 30
0.0
 11
-35.212843431037641
 21
4.4999999999999432
 31
0.0
  0
LINE
  5
2828
  8
240
 10
-2.5481342047560518
 20
6.2200959792613721
 30
0.0
 11
-4.1448486772308391
 21
4.5952675308940467
 31
0.0
  0
LINE
  5
2829
  8
240
 10
-0.6661195590830573
 20
4.5952675308941036
 30
0.0
 11
-2.262834025094377
 21
6.2200959792613872
 31
0.0
  0
LINE
  5
282A
  8
240
 10
-37.95548411815696
 20
5.9999999999999432
 30
0.0
 11
-106.9554841181569
 21
5.9999999999999432
 31
0.0
  0
LINE
  5
282B
  8
240
 10
-106.9554841181569
 20
-6.000000000000056
 30
0.0
 11
-37.95548411815696
 21
-6.000000000000056
 31
0.0
  0
LINE
  5
282C
  8
241
 10
-37.95548411815696
 20
-0.0000000000000568
 30
0.0
 11
-37.95548411815696
 21
5.9999999999999432
 31
0.0
  0
LINE
  5
282D
  8
240
 10
-37.95548411815696
 20
-6.000000000000056
 30
0.0
 11
-37.334163774597293
 21
-5.3786796564403971
 31
0.0
  0
LINE
  5
282E
  8
240
 10
-37.334163774597293
 20
5.378679656440311
 30
0.0
 11
-37.95548411815696
 21
5.9999999999999432
 31
0.0
  0
LINE
  5
282F
  8
240
 10
-107.9554841181569
 20
-0.0000000000000568
 30
0.0
 11
-107.9554841181569
 21
4.9999999999999432
 31
0.0
  0
LINE
  5
2830
  8
240
 10
-107.9554841181569
 20
-5.000000000000056
 30
0.0
 11
-107.9554841181569
 21
-0.0000000000000568
 31
0.0
  0
ARC
  5
2831
  8
240
 10
-106.9554841181569
 20
-5.0000000000000284
 30
0.0
 40
1.0
 50
180.0
 51
270.0
  0
ARC
  5
2832
  8
240
 10
-106.9554841181569
 20
4.9999999999999698
 30
0.0
 40
1.0
 50
90.0
 51
180.0
  0
LINE
  5
2833
  8
245
 10
-109.66226222492401
 20
0.0
 30
0.0
 11
1.170993377680815
 21
0.0
 31
0.0
  0
LINE
  5
2834
  8
241
 10
-36.45548411815691
 20
4.7694608366265641
 30
0.0
 11
-36.45548411815691
 21
0.0
 31
0.0
  0
LINE
  5
2835
  8
241
 10
-37.95548411815696
 20
0.0000000000000568
 30
0.0
 11
-37.95548411815696
 21
-5.9999999999999432
 31
0.0
  0
LINE
  5
2836
  8
241
 10
-36.45548411815691
 20
-4.7694608366265641
 30
0.0
 11
-36.45548411815691
 21
0.0
 31
0.0
  0
ENDBLK
  5
2838
  8
0
  0
ENDSEC
  0
SECTION
  2
ENTITIES
  0
LINE
  5
1A05
  8
250
 10
-119.21554450823371
 20
-6.000000000000056
 30
0.0
 11
-119.21554450823371
 21
-3.7700000000000511
 31
0.0
  0
LINE
  5
1A06
  8
250
 10
-119.5872111749004
 20
-3.7700000000000511
 30
0.0
 11
-119.21554450823371
 21
-6.000000000000056
 31
0.0
  0
LINE
  5
1A07
  8
250
 10
-118.84387784156699
 20
-3.7700000000000511
 30
0.0
 11
-119.21554450823371
 21
-6.000000000000056
 31
0.0
  0
LINE
  5
1A08
  8
250
 10
-119.21554450823371
 20
5.9999999999999432
 30
0.0
 11
-119.21554450823371
 21
3.7699999999999392
 31
0.0
  0
LINE
  5
1A09
  8
250
 10
-118.84387784156699
 20
3.7699999999999392
 30
0.0
 11
-119.21554450823371
 21
5.9999999999999432
 31
0.0
  0
LINE
  5
1A0A
  8
250
 10
-119.5872111749004
 20
3.7699999999999392
 30
0.0
 11
-119.21554450823371
 21
5.9999999999999432
 31
0.0
  0
TEXT
  5
1A0B
  8
250
 10
-120.21554450823371
 20
-3.89523809523814
 30
0.0
 40
3.0
  1
\U+2205
 50
90.0
  0
LINE
  5
1A0C
  8
250
 10
-36.45548411815691
 20
-26.84679614914484
 30
0.0
 11
-34.225484118156892
 21
-26.84679614914484
 31
0.0
  0
LINE
  5
1A0D
  8
250
 10
-34.225484118156892
 20
-26.47512948247817
 30
0.0
 11
-36.45548411815691
 21
-26.84679614914484
 31
0.0
  0
LINE
  5
1A0E
  8
250
 10
-34.225484118156892
 20
-27.21846281581151
 30
0.0
 11
-36.45548411815691
 21
-26.84679614914484
 31
0.0
  0
LINE
  5
1A0F
  8
250
 10
0.0
 20
-26.84679614914484
 30
0.0
 11
-2.229999999999988
 21
-26.84679614914484
 31
0.0
  0
LINE
  5
1A10
  8
250
 10
-2.229999999999988
 20
-27.21846281581151
 30
0.0
 11
0.0
 21
-26.84679614914484
 31
0.0
  0
LINE
  5
1A11
  8
250
 10
-2.229999999999988
 20
-26.47512948247817
 30
0.0
 11
0.0
 21
-26.84679614914484
 31
0.0
  0
TEXT
  5
1A12
  8
250
 10
-21.972784781487519
 20
-25.84679614914484
 30
0.0
 40
2.799999999999998
  1
36.5
  0
LINE
  5
1A13
  8
250
 10
-107.9554841181569
 20
-33.846796149144843
 30
0.0
 11
-105.7254841181569
 21
-33.846796149144843
 31
0.0
  0
LINE
  5
1A14
  8
250
 10
-105.7254841181569
 20
-33.475129482478181
 30
0.0
 11
-107.9554841181569
 21
-33.846796149144843
 31
0.0
  0
LINE
  5
1A15
  8
250
 10
-105.7254841181569
 20
-34.21846281581152
 30
0.0
 11
-107.9554841181569
 21
-33.846796149144843
 31
0.0
  0
LINE
  5
1A16
  8
250
 10
0.0
 20
-33.846796149144843
 30
0.0
 11
-2.229999999999988
 21
-33.846796149144843
 31
0.0
  0
LINE
  5
1A17
  8
250
 10
-2.229999999999988
 20
-34.21846281581152
 30
0.0
 11
0.0
 21
-33.846796149144843
 31
0.0
  0
LINE
  5
1A18
  8
250
 10
-2.229999999999988
 20
-33.475129482478181
 30
0.0
 11
0.0
 21
-33.846796149144843
 31
0.0
  0
TEXT
  5
1A19
  8
250
 10
-59.567409890088101
 20
-32.846796149144843
 30
0.0
 40
2.799999999999998
  1
108
  0
LINE
  5
1A1A
  8
250
 10
0.0000000000000568
 20
11.04310844427874
 30
0.0
 11
-2.2025302941679561
 21
10.694166753917511
 31
0.0
  0
LINE
  5
1A1B
  8
250
 10
-2.1443733457744241
 20
10.32707837155618
 30
0.0
 11
0.0000000000000568
 21
11.04310844427874
 31
0.0
  0
LINE
  5
1A1C
  8
250
 10
-2.2606872425614881
 20
11.061255136278859
 30
0.0
 11
0.0000000000000568
 21
11.04310844427874
 31
0.0
  0
LINE
  5
1A1D
  8
250
 10
-4.994461505629288
 20
8.9998202950108617
 30
0.0
 11
-3.178929320563638
 21
10.29471136571555
 31
0.0
  0
LINE
  5
1A1E
  8
250
 10
-3.3947444990144202
 20
10.5973000632265
 30
0.0
 11
-4.994461505629288
 21
8.9998202950108617
 31
0.0
  0
LINE
  5
1A1F
  8
250
 10
-2.9631141421128562
 20
9.9921226682046154
 30
0.0
 11
-4.994461505629288
 21
8.9998202950108617
 31
0.0
  0
TEXT
  5
1A20
  8
250
 10
-6.5389710702448562
 20
10.546209465715821
 30
0.0
 40
2.799999999999998
  1
45üï
 50
15.380325698116341
  0
LINE
  5
1A21
  8
250
 10
-1.905484118642391
 20
6.280376183000441
 30
0.0
 11
11.489087074933479
 21
6.280376183000441
 31
0.0
  0
LINE
  5
1A22
  8
250
 10
-119.21554450823371
 20
-3.7700000000000511
 30
0.0
 11
-119.21554450823371
 21
3.7699999999999392
 31
0.0
  0
LINE
  5
1A23
  8
250
 10
-107.4554841181569
 20
5.9999999999999432
 30
0.0
 11
-120.21554450823371
 21
5.9999999999999432
 31
0.0
  0
LINE
  5
1A24
  8
250
 10
-107.4554841181569
 20
-6.000000000000056
 30
0.0
 11
-120.21554450823371
 21
-6.000000000000056
 31
0.0
  0
ARC
  5
1A25
  8
250
 10
0.0000000000000284
 20
3.917419342967845
 30
0.0
 40
7.1256891013108881
 50
108.00482984481771
 51
116.495170155182
  0
LINE
  5
1A26
  8
250
 10
-2.613831487135057
 20
6.5772735882598141
 30
0.0
 11
-5.6953707699291538
 21
9.7130707441650532
 31
0.0
  0
LINE
  5
1A27
  8
250
 10
0.0000000000000284
 20
4.4174193429678601
 30
0.0
 11
0.0000000000000568
 21
12.04310844427874
 31
0.0
  0
LINE
  5
1A28
  8
250
 10
-105.7254841181569
 20
-33.846796149144843
 30
0.0
 11
-2.229999999999988
 21
-33.846796149144843
 31
0.0
  0
LINE
  5
1A29
  8
250
 10
0.0
 20
1.7457236627964221
 30
0.0
 11
0.0
 21
-34.846796149144843
 31
0.0
  0
LINE
  5
1A2A
  8
250
 10
-107.9554841181569
 20
-5.500000000000056
 30
0.0
 11
-107.9554841181569
 21
-34.846796149144843
 31
0.0
  0
LINE
  5
1A2B
  8
250
 10
-34.225484118156892
 20
-26.84679614914484
 30
0.0
 11
-2.229999999999988
 21
-26.84679614914484
 31
0.0
  0
LINE
  5
1A2C
  8
250
 10
0.0
 20
1.7457236627964221
 30
0.0
 11
0.0
 21
-27.84679614914484
 31
0.0
  0
LINE
  5
1A2D
  8
250
 10
-36.45548411815691
 20
-5.2694608366265641
 30
0.0
 11
-36.45548411815691
 21
-27.84679614914484
 31
0.0
  0
TEXT
  5
1A2E
  8
241
 10
-108.56039361047461
 20
20.848148288905069
 30
0.0
 40
3.0
  1
ST12-C1012-45B-35
  7
YOKO
1001
ITEMNAME
1000
DI010
  0
TEXT
  5
1A2F
  8
250
 10
9.3890870749334852
 20
-3.1809523809522759
 30
0.0
 40
2.799999999999998
  1
12.7
 50
90.0
  0
TEXT
  5
1A30
  8
250
 10
9.4890870749334795
 20
-5.8952380952379979
 30
0.0
 40
3.0
  1
\U+2205
 50
90.0
  0
LINE
  5
1A31
  8
250
 10
10.489087074933479
 20
6.280376183000441
 30
0.0
 11
10.489087074933479
 21
4.050376183000437
 31
0.0
  0
LINE
  5
1A32
  8
250
 10
10.860753741600149
 20
4.050376183000437
 30
0.0
 11
10.489087074933479
 21
6.280376183000441
 31
0.0
  0
LINE
  5
1A33
  8
250
 10
10.11742040826681
 20
4.050376183000437
 30
0.0
 11
10.489087074933479
 21
6.280376183000441
 31
0.0
  0
LINE
  5
1A34
  8
250
 10
10.489087074933479
 20
4.050376183000437
 30
0.0
 11
10.489087074933479
 21
-6.6095238095237292
 31
0.0
  0
TEXT
  5
1BDF
  8
250
 10
-120.3155445082337
 20
-1.1809523809524889
 30
0.0
 40
2.799999999999998
  1
12
 50
90.0
  0
INSERT
  5
2839
  8
240
  2
A$C2FB95B85
 10
0.0
 20
0.0
 30
0.0
  0
VIEWPORT
  5
22
 67
     1
  8
0
 10
261.51769911504419
 20
148.5
 30
0.0
 40
523.0353982300885
 41
297.0
 68
     1
 69
     1
1001
ACAD
1000
MVIEW
1002
{
1070
    16
1010
0.0
1020
0.0
1030
0.0
1010
0.0
1020
0.0
1030
1.0
1040
0.0
1040
297.0
1040
261.51769911504419
1040
148.5
1040
50.0
1040
0.0
1040
0.0
1070
     0
1070
   100
1070
     1
1070
     1
1070
     0
1070
     0
1070
     0
1070
     0
1040
0.0
1040
0.0
1040
0.0
1040
1.0
1040
1.0
1040
10.0
1040
10.0
1070
     0
1002
{
1002
}
1002
}
1001
GENIUS_GENODEF_13
1002
{
1000
HIER
1070
     0
1002
}
1002
{
1000
MANEDIT
1070
     0
1002
}
1002
{
1000
NOSEL
1070
     0
1002
}
1002
{
1000
BEHIND
1070
     0
1002
}
1002
{
1000
OTHER
1070
     0
1002
}
1002
{
1000
REACTOR
1002
}
1001
GENIUS_GENOBJ-N-SDF_13
1002
{
1000
OWNER
1000
GEN
1002
}
1001
GENIUS_GENSCREG_15
1000
PF
1040
1.0
1000
DF
1040
1.0
1000
MIN
1011
0.0
1021
-0.0
1031
0.0
1021
0.0
1031
0.0
1000
MAX
1011
523.0353982300885
1021
-0.0
1031
0.0
1021
297.0
1031
0.0
1000
FLAGS
1070
     2
  0
ENDSEC
  0
EOF
