  0
SECTION
  2
HEADER
  9
$ACADVER
  1
AC1009
  9
$INSBASE
 10
0.0
 20
0.0
 30
0.0
  9
$EXTMIN
 10
-80.409024504294266
 20
-14.94548471947377
 30
0.0
  9
$EXTMAX
 10
57.593418154228729
 20
47.0
 30
0.0
  9
$LIMMIN
 10
0.0
 20
0.0
  9
$LIMMAX
 10
297.0
 20
210.0
  9
$ORTHOMODE
 70
     0
  9
$REGENMODE
 70
     1
  9
$FILLMODE
 70
     1
  9
$QTEXTMODE
 70
     0
  9
$MIRRTEXT
 70
     1
  9
$DRAGMODE
 70
     2
  9
$LTSCALE
 40
10.0
  9
$OSMODE
 70
    39
  9
$ATTMODE
 70
     1
  9
$TEXTSIZE
 40
3.0
  9
$TRACEWID
 40
1.0
  9
$TEXTSTYLE
  7
YOKO
  9
$CLAYER
  8
241
  9
$CELTYPE
  6
BYLAYER
  9
$CECOLOR
 62
   256
  9
$DIMSCALE
 40
1.0
  9
$DIMASZ
 40
2.2299999999999991
  9
$DIMEXO
 40
0.5
  9
$DIMDLI
 40
7.0
  9
$DIMRND
 40
0.0
  9
$DIMDLE
 40
0.0
  9
$DIMEXE
 40
1.0
  9
$DIMTP
 40
0.0
  9
$DIMTM
 40
0.01
  9
$DIMTXT
 40
2.7999999999999989
  9
$DIMCEN
 40
0.0
  9
$DIMTSZ
 40
0.0
  9
$DIMTOL
 70
     0
  9
$DIMLIM
 70
     0
  9
$DIMTIH
 70
     0
  9
$DIMTOH
 70
     0
  9
$DIMSE1
 70
     0
  9
$DIMSE2
 70
     0
  9
$DIMTAD
 70
     3
  9
$DIMZIN
 70
     9
  9
$DIMBLK
  1
OPEN
  9
$DIMASO
 70
     1
  9
$DIMSHO
 70
     1
  9
$DIMPOST
  1

  9
$DIMAPOST
  1

  9
$DIMALT
 70
     0
  9
$DIMALTD
 70
     2
  9
$DIMALTF
 40
25.399999999999999
  9
$DIMLFAC
 40
1.0
  9
$DIMTOFL
 70
     1
  9
$DIMTVP
 40
0.0
  9
$DIMTIX
 70
     1
  9
$DIMSOXD
 70
     0
  9
$DIMSAH
 70
     0
  9
$DIMBLK1
  1

  9
$DIMBLK2
  1

  9
$DIMSTYLE
  2
BIGT
  9
$DIMCLRD
 70
   256
  9
$DIMCLRE
 70
   256
  9
$DIMCLRT
 70
    40
  9
$DIMTFAC
 40
1.0
  9
$DIMGAP
 40
1.0
  9
$LUNITS
 70
     2
  9
$LUPREC
 70
     6
  9
$SKETCHINC
 40
1.0
  9
$FILLETRAD
 40
0.0
  9
$AUNITS
 70
     0
  9
$AUPREC
 70
     6
  9
$MENU
  1
.
  9
$ELEVATION
 40
0.0
  9
$PELEVATION
 40
0.0
  9
$THICKNESS
 40
0.0
  9
$LIMCHECK
 70
     0
  9
$BLIPMODE
 70
     0
  9
$CHAMFERA
 40
0.2
  9
$CHAMFERB
 40
0.2
  9
$SKPOLY
 70
     0
  9
$TDCREATE
 40
2457837.4070292129
  9
$TDUPDATE
 40
2457840.577181817
  9
$TDINDWG
 40
0.0117617593
  9
$TDUSRTIMER
 40
0.0117617361
  9
$USRTIMER
 70
     1
  9
$ANGBASE
 50
0.0
  9
$ANGDIR
 70
     0
  9
$PDMODE
 70
     1
  9
$PDSIZE
 40
0.0
  9
$PLINEWID
 40
0.0
  9
$COORDS
 70
     1
  9
$SPLFRAME
 70
     0
  9
$SPLINETYPE
 70
     6
  9
$SPLINESEGS
 70
     4
  9
$ATTDIA
 70
     1
  9
$ATTREQ
 70
     1
  9
$HANDLING
 70
     1
  9
$HANDSEED
  5
4905
  9
$SURFTAB1
 70
     6
  9
$SURFTAB2
 70
     6
  9
$SURFTYPE
 70
     6
  9
$SURFU
 70
     6
  9
$SURFV
 70
     6
  9
$UCSNAME
  2

  9
$UCSORG
 10
0.0
 20
0.0
 30
0.0
  9
$UCSXDIR
 10
1.0
 20
0.0
 30
0.0
  9
$UCSYDIR
 10
0.0
 20
1.0
 30
0.0
  9
$PUCSNAME
  2

  9
$PUCSORG
 10
0.0
 20
0.0
 30
0.0
  9
$PUCSXDIR
 10
1.0
 20
0.0
 30
0.0
  9
$PUCSYDIR
 10
0.0
 20
1.0
 30
0.0
  9
$USERI1
 70
     1
  9
$USERI2
 70
     0
  9
$USERI3
 70
     0
  9
$USERI4
 70
     0
  9
$USERI5
 70
     0
  9
$USERR1
 40
0.0
  9
$USERR2
 40
0.0
  9
$USERR3
 40
0.0
  9
$USERR4
 40
0.0
  9
$USERR5
 40
0.0
  9
$WORLDVIEW
 70
     1
  9
$SHADEDGE
 70
     3
  9
$SHADEDIF
 70
    70
  9
$TILEMODE
 70
     1
  9
$MAXACTVP
 70
    16
  9
$PLIMCHECK
 70
     0
  9
$PEXTMIN
 10
1.0000000000000000E+020
 20
1.0000000000000000E+020
 30
1.0000000000000000E+020
  9
$PEXTMAX
 10
-1.0000000000000000E+020
 20
-1.0000000000000000E+020
 30
-1.0000000000000000E+020
  9
$PLIMMIN
 10
0.0
 20
0.0
  9
$PLIMMAX
 10
420.0
 20
297.0
  9
$UNITMODE
 70
     0
  9
$VISRETAIN
 70
     1
  9
$PLINEGEN
 70
     0
  9
$PSLTSCALE
 70
     1
  0
ENDSEC
  0
SECTION
  2
TABLES
  0
TABLE
  2
VPORT
 70
     1
  0
VPORT
  2
*ACTIVE
 70
     0
 10
0.0
 20
0.0
 11
1.0
 21
1.0
 12
-12.46095050736232
 22
18.168732413431059
 13
0.0
 23
0.0
 14
7.0
 24
7.0
 15
7.0
 25
7.0
 16
0.0
 26
0.0
 36
1.0
 17
0.0
 27
0.0
 37
0.0
 40
107.38831408109129
 41
1.5303030303030301
 42
50.0
 43
0.0
 44
0.0
 50
0.0
 51
0.0
 71
     0
 72
  2000
 73
     1
 74
     0
 75
     0
 76
     1
 77
     0
 78
     0
  0
ENDTAB
  0
TABLE
  2
LTYPE
 70
    15
  0
LTYPE
  2
CONTINUOUS
 70
     0
  3
Solid line
 72
    65
 73
     0
 40
0.0
  0
LTYPE
  2
CENTER2
 70
     0
  3
___ _ ___ _ ___ _ ___ _ ___ _ ___ _ ___ _ ___ _
 72
    65
 73
     4
 40
1.125
 49
0.75
 49
-0.125
 49
0.125
 49
-0.125
  0
LTYPE
  2
AM_ISO02W050
 70
     0
  3
__ __ __ __ __ __ __ __ __ __ __ __ __ __ __
 72
    65
 73
     2
 40
7.5
 49
6.0
 49
-1.5
  0
LTYPE
  2
AMCONSTR
 70
     0
  3
_______________________
 72
    65
 73
     2
 40
9999.0
 49
9999.0
 49
0.0
  0
LTYPE
  2
ACISOWELD
 70
     0
  3
_ _ _ _ _
 72
    65
 73
     2
 40
2.0
 49
2.0
 49
-1.0
  0
LTYPE
  2
ACISOTGB
 70
     0
  3
__ . . __ . .
 72
    65
 73
     6
 40
9.0
 49
4.0
 49
-1.0
 49
1.0
 49
-1.0
 49
1.0
 49
-1.0
  0
LTYPE
  2
ACISOTGL
 70
     0
  3
_ _ _ _ _
 72
    65
 73
     2
 40
3.0
 49
2.0
 49
-1.0
  0
LTYPE
  2
AM_ISO08W050
 70
     0
  3
____ . ____ . ____ . ____ . ____ . ____ . ____
 72
    65
 73
     4
 40
18.0
 49
12.0
 49
-1.5
 49
3.0
 49
-1.5
  0
LTYPE
  2
AM_ISO09W050
 70
     0
  3
_____ . . _____ . . _____ . . ____ .. ____
 72
    65
 73
     6
 40
22.5
 49
12.0
 49
-1.5
 49
3.0
 49
-1.5
 49
3.0
 49
-1.5
  0
LTYPE
  2
AM_ISO08W050X2
 70
     0
  3
__ . __ . __ . __ . __ . __
 72
    65
 73
     4
 40
9.0
 49
6.0
 49
-0.75
 49
1.5
 49
-0.75
  0
LTYPE
  2
AM_ISO02W050X2
 70
     0
  3
 _ _ _ _ _ _ _ _ _ _ _ _
 72
    65
 73
     2
 40
3.75
 49
3.0
 49
-0.75
  0
LTYPE
  2
AMZIGZAG
 70
     0
  3
/\/-/\/-/\/-/\/-/\/-/\/
 72
    65
 73
     2
 40
11.0001
 49
0.0001
 49
-11.0
  0
ENDTAB
  0
TABLE
  2
LAYER
 70
     7
  0
LAYER
  2
0
 70
     0
 62
     7
  6
CONTINUOUS
  0
LAYER
  2
DEFPOINTS
 70
     0
 62
     7
  6
CONTINUOUS
  0
LAYER
  2
245
 70
     0
 62
     2
  6
CENTER2
  0
LAYER
  2
240
 70
     0
 62
     4
  6
CONTINUOUS
  0
LAYER
  2
241
 70
     0
 62
   211
  6
CONTINUOUS
  0
LAYER
  2
247
 70
     0
 62
    60
  6
CONTINUOUS
  0
LAYER
  2
250
 70
     0
 62
     3
  6
CONTINUOUS
  0
ENDTAB
  0
TABLE
  2
STYLE
 70
     6
  0
STYLE
  2
STANDARD
 70
     0
 40
0.0
 41
1.0
 50
0.0
 71
     0
 42
3.0
  3
romans.shx
  4
extfont.shx
  0
STYLE
  2
ACISOGDT
 70
     0
 40
0.0
 41
1.0
 50
0.0
 71
     0
 42
3.0
  3
amgdt.shx
  4
extfont.shx
  0
STYLE
  2
ACJISTS
 70
     0
 40
1.0
 41
1.0
 50
0.0
 71
     0
 42
3.0
  3
amgdt.shx
  4
extfont.shx
  0
STYLE
  2
YOKO
 70
     0
 40
0.0
 41
1.0
 50
0.0
 71
     0
 42
3.0
  3
romans.shx
  4
extfont.shx
  0
STYLE
  2

 70
     1
 40
0.0
 41
1.0
 50
0.0
 71
     0
 42
3.0
  3
genltshp.shx
  4

  0
ENDTAB
  0
TABLE
  2
VIEW
 70
     0
  0
ENDTAB
  0
TABLE
  2
UCS
 70
     0
  0
ENDTAB
  0
TABLE
  2
APPID
 70
    39
  0
APPID
  2
ACAD
 70
     0
  0
APPID
  2
GLOBAL
 70
     0
  0
APPID
  2
DETAIL
 70
     0
  0
APPID
  2
GRPNAME
 70
     0
  0
APPID
  2
GPARA
 70
     0
  0
APPID
  2
MCAD_NO_VIS
 70
     0
  0
APPID
  2
ACAD_TEMP_GRAPHIC
 70
     0
  0
APPID
  2
ACATTRIBSERVICES
 70
     0
  0
APPID
  2
GENIUS_GENSCREG_15
 70
     0
  0
APPID
  2
GENIUS_GENODEF_13
 70
     0
  0
APPID
  2
GENIUS_GENOBJ-N-SDF_13
 70
     0
  0
APPID
  2
GENIUS_GENREC_14
 70
     0
  0
APPID
  2
GENIUS_GENOBJ-N-REC_13
 70
     0
  0
APPID
  2
GENIUS_GENDIMSH_14
 70
     0
  0
APPID
  2
GENIUS_GENOBJ-N-DIM_13
 70
     0
  0
APPID
  2
GENIUS_GENDIM_13
 70
     0
  0
APPID
  2
GENIUS_GENDTOL_13
 70
     0
  0
APPID
  2
GENIUS_GENOLIS_13
 70
     0
  0
APPID
  2
GENIUS_GENOENT_13
 70
     0
  0
APPID
  2
GENIUS_GENOBJ-F-FEM_13
 70
     0
  0
APPID
  2
GENIUS_GENOREF_13
 70
     0
  0
APPID
  2
GENIUS_GEFFEM_13
 70
     0
  0
APPID
  2
GENIUS_GEFFEMP_13
 70
     0
  0
APPID
  2
AD_DRAW
 70
     0
  0
APPID
  2
DESIGNERASSEMBLIES
 70
     0
  0
APPID
  2
ACADM_DIM_EDIT
 70
     0
  0
APPID
  2
AMDT_DM_ADJ
 70
     0
  0
APPID
  2
ITEMNAME
 70
     0
  0
APPID
  2
GENIUS_GENOBJ-N-FIL_13
 70
     0
  0
APPID
  2
GENIUS_GENFIL_13
 70
     0
  0
APPID
  2
GENIUS_GENOBJ-N-CHA_13
 70
     0
  0
APPID
  2
ACAECLAYERSTANDARD
 70
     0
  0
APPID
  2
ACAD_NAV_VCDISPLAY
 70
     0
  0
APPID
  2
ACAD_EXEMPT_FROM_CAD_STANDARDS
 70
     0
  0
APPID
  2
ACAD_DSTYLE_DIMINSPECT
 70
     0
  0
APPID
  2
ACAD_MLEADERVER
 70
     0
  0
APPID
  2
ACAD_DSTYLE_DIMBREAK
 70
     0
  0
APPID
  2
ACAD_DSTYLE_DIMJAG
 70
     0
  0
APPID
  2
ACAD_PSEXT
 70
     0
  0
ENDTAB
  0
TABLE
  2
DIMSTYLE
 70
    11
  0
DIMSTYLE
  2
BIGT
 70
     0
  3

  4

  5
OPEN
  6

  7

 40
1.0
 41
2.2299999999999991
 42
0.5
 43
7.0
 44
1.0
 45
0.0
 46
0.0
 47
0.0
 48
0.01
140
2.7999999999999989
141
0.0
142
0.0
143
25.399999999999999
144
1.0
145
0.0
146
1.0
147
1.0
 71
     0
 72
     0
 73
     0
 74
     0
 75
     0
 76
     0
 77
     3
 78
     9
170
     0
171
     2
172
     1
173
     0
174
     1
175
     0
176
   256
177
   256
178
    40
  0
DIMSTYLE
  2
AM_ISO
 70
     0
  3

  4
"
  5

  6

  7

 40
1.0
 41
2.5
 42
1.0
 43
10.0
 44
1.0
 45
0.0
 46
0.0
 47
0.1
 48
0.1
140
3.5
141
0.0
142
0.0
143
0.0393701
144
1.0
145
0.0
146
0.71
147
1.5
 71
     0
 72
     0
 73
     0
 74
     0
 75
     0
 76
     0
 77
     1
 78
     8
170
     0
171
     2
172
     1
173
     0
174
     0
175
     0
176
   256
177
   256
178
     2
  0
DIMSTYLE
  2
AM_ISO$3
 70
     0
  3

  4
"
  5

  6

  7

 40
1.0
 41
2.5
 42
1.0
 43
10.0
 44
1.0
 45
0.0
 46
0.0
 47
0.1
 48
0.1
140
3.5
141
0.0
142
0.0
143
0.0393701
144
1.0
145
0.0
146
0.71
147
1.5
 71
     0
 72
     0
 73
     0
 74
     1
 75
     0
 76
     0
 77
     1
 78
     8
170
     0
171
     2
172
     0
173
     0
174
     0
175
     0
176
   256
177
   256
178
     2
  0
DIMSTYLE
  2
AM_ISO$4
 70
     0
  3

  4
"
  5

  6

  7

 40
1.0
 41
2.5
 42
1.0
 43
10.0
 44
1.0
 45
0.0
 46
0.0
 47
0.1
 48
0.1
140
3.5
141
0.0
142
0.0
143
0.0393701
144
1.0
145
0.0
146
0.71
147
1.5
 71
     0
 72
     0
 73
     0
 74
     1
 75
     0
 76
     0
 77
     1
 78
     8
170
     0
171
     2
172
     0
173
     0
174
     0
175
     0
176
   256
177
   256
178
     2
  0
DIMSTYLE
  2
AM_ISO$6
 70
     0
  3

  4
"
  5

  6

  7

 40
1.0
 41
2.5
 42
1.0
 43
10.0
 44
1.0
 45
0.0
 46
0.0
 47
0.1
 48
0.1
140
3.5
141
0.0
142
0.0
143
0.0393701
144
1.0
145
0.0
146
0.71
147
1.5
 71
     0
 72
     0
 73
     0
 74
     0
 75
     0
 76
     0
 77
     0
 78
     8
170
     0
171
     2
172
     1
173
     0
174
     0
175
     0
176
   256
177
   256
178
     2
  0
DIMSTYLE
  2
AM_ISO$7
 70
     0
  3

  4
"
  5

  6

  7

 40
1.0
 41
2.5
 42
1.0
 43
10.0
 44
1.0
 45
0.0
 46
0.0
 47
0.1
 48
0.1
140
5.0
141
0.0
142
0.0
143
0.0393701
144
1.0
145
0.0
146
0.71
147
1.5
 71
     0
 72
     0
 73
     0
 74
     0
 75
     0
 76
     0
 77
     1
 78
     8
170
     0
171
     2
172
     1
173
     0
174
     0
175
     0
176
   256
177
   256
178
     2
  0
DIMSTYLE
  2
AM_ISO$SF
 70
     0
  3

  4
"
  5

  6

  7

 40
1.0
 41
2.5
 42
1.0
 43
10.0
 44
1.0
 45
0.0
 46
0.0
 47
0.1
 48
0.1
140
3.5
141
0.0
142
0.0
143
0.0393701
144
1.0
145
0.0
146
0.71
147
1.5
 71
     0
 72
     0
 73
     0
 74
     0
 75
     1
 76
     1
 77
     1
 78
     8
170
     0
171
     2
172
     1
173
     0
174
     0
175
     0
176
   256
177
   256
178
     2
  0
DIMSTYLE
  2
AM_ISO$SH
 70
     0
  3

  4
"
  5

  6
GENAXEH
  7

 40
1.0
 41
2.5
 42
1.0
 43
10.0
 44
1.0
 45
0.0
 46
0.0
 47
0.1
 48
0.1
140
3.5
141
0.0
142
0.0
143
0.0393701
144
2.0
145
0.0
146
0.71
147
1.5
 71
     0
 72
     0
 73
     0
 74
     0
 75
     1
 76
     1
 77
     1
 78
     8
170
     0
171
     2
172
     1
173
     1
174
     0
175
     0
176
   256
177
   256
178
     2
  0
ENDTAB
  0
ENDSEC
  0
SECTION
  2
BLOCKS
  0
BLOCK
  8
0
  2
$MODEL_SPACE
 70
     0
 10
0.0
 20
0.0
 30
0.0
  3
$MODEL_SPACE
  1

  0
ENDBLK
  5
1C
  8
0
  0
BLOCK
 67
     1
  8
0
  2
$PAPER_SPACE
 70
     0
 10
0.0
 20
0.0
 30
0.0
  3
$PAPER_SPACE
  1

  0
ENDBLK
  5
19
 67
     1
  8
0
  0
BLOCK
  8
0
  2
_OPEN
 70
     0
 10
0.0
 20
0.0
 30
0.0
  3
_OPEN
  1

  0
LINE
  5
3E1A
  8
0
  6
BYBLOCK
 62
     0
 10
-1.0
 20
0.1666666666666666
 30
0.0
 11
0.0
 21
0.0
 31
0.0
  0
LINE
  5
3E1B
  8
0
  6
BYBLOCK
 62
     0
 10
-1.0
 20
-0.1666666666666666
 30
0.0
 11
0.0
 21
0.0
 31
0.0
  0
LINE
  5
3E1C
  8
0
  6
BYBLOCK
 62
     0
 10
0.0
 20
0.0
 30
0.0
 11
-1.0
 21
0.0
 31
0.0
  0
ENDBLK
  5
3E1D
  8
0
  0
BLOCK
  8
0
  2
GENAXEH
 70
     0
 10
0.0
 20
0.0
 30
0.0
  3
GENAXEH
  1

  0
LINE
  5
3E45
  8
0
 10
-1.0
 20
0.0
 30
0.0
 11
1.0
 21
0.0
 31
0.0
  0
ENDBLK
  5
3E46
  8
0
  0
ENDSEC
  0
SECTION
  2
ENTITIES
  0
LINE
  5
4315
  8
240
  6
CONTINUOUS
 10
-0.1999999999999603
 20
1.535442635561435
 30
0.0
 11
-0.1999999999999602
 21
-2.099999999999965
 31
0.0
  0
LINE
  5
4316
  8
240
  6
CONTINUOUS
 10
-6.3555902791341614
 20
-3.349999999999965
 30
0.0
 11
-2.4612494995995742
 21
-3.349999999999965
 31
0.0
  0
ARC
  5
4317
  8
240
  6
CONTINUOUS
 10
-0.9000000000000055
 20
-4.599999999999965
 30
0.0
 40
2.0
 50
90.0
 51
141.30304666212891
  0
ARC
  5
4318
  8
240
  6
CONTINUOUS
 10
-0.6999999999999602
 20
-2.099999999999965
 30
0.0
 40
0.5
 50
270.0
 51
0.0
  0
ARC
  5
4319
  8
240
  6
CONTINUOUS
 10
-6.7999999999999821
 20
-5.2999999999999527
 30
0.0
 40
2.0000000000000271
 50
77.161431859019061
 51
90.0
  0
LINE
  5
431D
  8
241
  6
CONTINUOUS
 10
-5.975052301026416
 20
-0.7796464556281367
 30
0.0
 11
-10.054698756654661
 21
3.3000000000001242
 31
0.0
  0
LINE
  5
43A3
  8
241
  6
CONTINUOUS
 10
-7.776311065293732
 20
2.9393876913399022
 30
0.0
 11
-8.1913748876311843
 21
2.9393876913399022
 31
0.0
  0
ARC
  5
43A4
  8
240
  6
CONTINUOUS
 10
-15.05735931288069
 20
-6.2999999999999527
 30
0.0
 40
3.0
 50
90.0
 51
135.0
  0
LINE
  5
43A5
  8
241
  6
CONTINUOUS
 10
-17.999999999999972
 20
-5.0
 30
0.0
 11
-17.999999999999972
 21
5.000000000000056
 31
0.0
  0
LINE
  5
43A6
  8
240
  6
CONTINUOUS
 10
-17.999999999999972
 20
-5.0
 30
0.0
 11
-17.17867965644032
 21
-4.178679656440293
 31
0.0
  0
LINE
  5
43A7
  8
240
  6
CONTINUOUS
 10
-15.05735931288069
 20
-3.2999999999999541
 30
0.0
 11
-6.7999999999999821
 21
-3.2999999999999541
 31
0.0
  0
LINE
  5
43A8
  8
245
  6
CENTER2
 10
-80.409024504294266
 20
0.0000000000000568
 30
0.0
 11
1.4346032828870241
 21
0.0
 31
0.0
  0
LINE
  5
43A9
  8
241
  6
CONTINUOUS
 10
-16.30000000000009
 20
-3.5694608366266589
 30
0.0
 11
-16.30000000000009
 21
3.569460836626773
 31
0.0
  0
TEXT
  5
43AA
  8
241
  6
CONTINUOUS
 10
-77.0
 20
42.0
 30
0.0
 40
5.0
  1
ST10-RC061B-15+RC06200
  7
YOKO
 11
-77.0
 21
42.0
 31
0.0
 73
     1
  0
LINE
  5
43AB
  8
240
  6
CONTINUOUS
 10
-15.05735931288069
 20
3.3000000000000682
 30
0.0
 11
-10.04741340859459
 21
3.3000000000001251
 31
0.0
  0
ARC
  5
43AC
  8
241
  6
CONTINUOUS
 10
-9.0462113151305914
 20
4.8572630646656423
 30
0.0
 40
2.0997598113568361
 50
255.22764930367251
 51
294.02351426384757
  0
LINE
  5
43AF
  8
241
  6
CONTINUOUS
 10
-0.1999999999999603
 20
1.4598719394655659
 30
0.0
 11
-2.4395183950936801
 21
-0.7796464556281433
 31
0.0
  0
ARC
  5
43B0
  8
241
  6
CONTINUOUS
 10
-4.2072853480600454
 20
0.9881204973382292
 30
0.0
 40
2.5
 50
224.99999999999989
 51
314.99999999999989
1001
GENIUS_GENODEF_13
1002
{
1000
HIER
1070
     0
1002
}
1002
{
1000
MANEDIT
1070
     0
1002
}
1002
{
1000
NOSEL
1070
     0
1002
}
1002
{
1000
BEHIND
1070
     0
1002
}
1002
{
1000
OTHER
1070
     0
1002
}
1002
{
1000
REACTOR
1002
}
1001
GENIUS_GENOBJ-N-FIL_13
1002
{
1000
OWNER
1000
GEN
1002
}
  0
LINE
  5
43B1
  8
250
  6
CONTINUOUS
 10
-14.99999999999997
 20
3.800000000000153
 30
0.0
 11
-14.99999999999997
 21
22.0
 31
0.0
  0
LINE
  5
43B2
  8
250
  6
CONTINUOUS
 10
-12.76999999999996
 20
21.0
 30
0.0
 11
-2.2299999999999689
 21
21.0
 31
0.0
  0
LINE
  5
43B3
  8
250
  6
CONTINUOUS
 10
-3.5087761177316561
 20
6.1499999999999764
 30
0.0
 11
21.497330459604569
 21
6.1499999999999693
 31
0.0
  0
LINE
  5
43B4
  8
250
  6
CONTINUOUS
 10
20.497330459604569
 20
3.9199999999999688
 30
0.0
 11
20.497330459604569
 21
-6.6095238095238171
 31
0.0
  0
LINE
  5
43B5
  8
250
  6
CONTINUOUS
 10
-78.0
 20
5.5
 30
0.0
 11
-78.0
 21
29.0
 31
0.0
  0
LINE
  5
43B6
  8
250
  6
CONTINUOUS
 10
-2.2299999999999689
 20
28.0
 30
0.0
 11
-75.769999999999982
 21
28.0
 31
0.0
  0
TEXT
  5
43B7
  8
250
  6
CONTINUOUS
 10
-10.36666666666664
 20
22.0
 30
0.0
 40
2.799999999999998
  1
15
  0
LINE
  5
43B8
  8
250
  6
CONTINUOUS
 10
-2.2299999999999689
 20
21.371666666666659
 30
0.0
 11
0.0000000000000293
 21
21.0
 31
0.0
  0
LINE
  5
43B9
  8
250
  6
CONTINUOUS
 10
-2.2299999999999689
 20
20.62833333333333
 30
0.0
 11
0.0000000000000293
 21
21.0
 31
0.0
  0
LINE
  5
43BA
  8
250
  6
CONTINUOUS
 10
0.0000000000000293
 20
21.0
 30
0.0
 11
-2.2299999999999689
 21
21.0
 31
0.0
  0
LINE
  5
43BB
  8
250
  6
CONTINUOUS
 10
-12.76999999999996
 20
20.62833333333333
 30
0.0
 11
-14.99999999999997
 21
21.0
 31
0.0
  0
LINE
  5
43BC
  8
250
  6
CONTINUOUS
 10
-12.76999999999996
 20
21.371666666666659
 30
0.0
 11
-14.99999999999997
 21
21.0
 31
0.0
  0
LINE
  5
43BD
  8
250
  6
CONTINUOUS
 10
-14.99999999999997
 20
21.0
 30
0.0
 11
-12.76999999999996
 21
21.0
 31
0.0
  0
TEXT
  5
43BE
  8
250
  6
CONTINUOUS
 10
19.497330459604559
 20
-5.8952380952380992
 30
0.0
 40
3.0
  1
\U+2205
 50
90.0
  0
TEXT
  5
43BF
  8
250
  6
CONTINUOUS
 10
19.397330459604561
 20
-3.1809523809523839
 30
0.0
 40
2.799999999999998
  1
12.3
 50
90.0
  0
LINE
  5
43C0
  8
250
  6
CONTINUOUS
 10
20.1256637929379
 20
3.9199999999999688
 30
0.0
 11
20.497330459604569
 21
6.1499999999999693
 31
0.0
  0
LINE
  5
43C1
  8
250
  6
CONTINUOUS
 10
20.868997126271239
 20
3.9199999999999688
 30
0.0
 11
20.497330459604569
 21
6.1499999999999693
 31
0.0
  0
LINE
  5
43C2
  8
250
  6
CONTINUOUS
 10
20.497330459604569
 20
6.1499999999999693
 30
0.0
 11
20.497330459604569
 21
3.9199999999999688
 31
0.0
  0
TEXT
  5
43C3
  8
250
  6
CONTINUOUS
 10
-41.66666666666665
 20
29.0
 30
0.0
 40
2.799999999999998
  1
78
  0
LINE
  5
43C4
  8
250
  6
CONTINUOUS
 10
-75.769999999999982
 20
27.62833333333333
 30
0.0
 11
-78.0
 21
28.0
 31
0.0
  0
LINE
  5
43C5
  8
250
  6
CONTINUOUS
 10
-75.769999999999982
 20
28.37166666666667
 30
0.0
 11
-78.0
 21
28.0
 31
0.0
  0
LINE
  5
43C6
  8
250
  6
CONTINUOUS
 10
-78.0
 20
28.0
 30
0.0
 11
-75.769999999999982
 21
28.0
 31
0.0
  0
LINE
  5
43C7
  8
250
  6
CONTINUOUS
 10
-2.2299999999999689
 20
28.37166666666667
 30
0.0
 11
0.0000000000000298
 21
28.0
 31
0.0
  0
LINE
  5
43C8
  8
250
  6
CONTINUOUS
 10
-2.2299999999999689
 20
27.62833333333333
 30
0.0
 11
0.0000000000000298
 21
28.0
 31
0.0
  0
LINE
  5
43C9
  8
250
  6
CONTINUOUS
 10
0.0000000000000298
 20
28.0
 30
0.0
 11
-2.2299999999999689
 21
28.0
 31
0.0
  0
LINE
  5
43CA
  8
250
  6
CONTINUOUS
 10
0.0000000000000284
 20
2.298052456676829
 30
0.0
 11
0.0000000000000284
 21
29.0
 31
0.0
  0
LINE
  5
43CB
  8
240
  6
CONTINUOUS
 10
-18.0
 20
5.0
 30
0.0
 11
-78.0
 21
5.0
 31
0.0
  0
LINE
  5
43CC
  8
240
  6
CONTINUOUS
 10
-78.0
 20
5.0
 30
0.0
 11
-78.0
 21
-5.0
 31
0.0
  0
LINE
  5
43CD
  8
240
  6
CONTINUOUS
 10
-78.0
 20
-5.0
 30
0.0
 11
-18.0
 21
-5.0
 31
0.0
  0
ARC
  5
43CE
  8
240
  6
CONTINUOUS
 10
-15.0573593128809
 20
6.3000000000001091
 30
0.0
 40
3.0
 50
225.0000000000019
 51
270.00000000000188
  0
LINE
  5
43CF
  8
240
  6
CONTINUOUS
 10
-18.000000000000139
 20
5.000000000000056
 30
0.0
 11
-17.178679656440458
 21
4.1786796564403783
 31
0.0
  0
LINE
  5
43D0
  8
240
  6
CONTINUOUS
 10
-0.6999999999999603
 20
-2.599999999999965
 30
0.0
 11
-0.9000000000000055
 21
-2.599999999999965
 31
0.0
  0
LINE
  5
43D1
  8
250
  6
CONTINUOUS
 10
-1.9558849155018649
 20
9.6046652157660297
 30
0.0
 11
-3.3927576905750811
 21
7.8592618986600646
 31
0.0
  0
LINE
  5
43D2
  8
250
  6
CONTINUOUS
 10
-2.5996304656482958
 20
9.9763318824326994
 30
0.0
 11
-3.3927576905750811
 21
7.8592618986600646
 31
0.0
  0
LINE
  5
43D3
  8
250
  6
CONTINUOUS
 10
-3.3927576905750811
 20
7.8592618986600646
 30
0.0
 11
-2.2777576905750792
 21
9.7904985490993646
 31
0.0
  0
POLYLINE
  5
43D4
  8
250
  6
CONTINUOUS
 66
     1
 10
0.0
 20
0.0
 30
0.0
1001
ACAD
1000
DSTYLE
1002
{
1070
    42
1040
0.5
1070
    44
1040
1.0
1070
   140
1040
2.799999999999998
1002
}
  0
VERTEX
  5
4902
  8
250
  6
CONTINUOUS
 10
-2.2777576905750792
 20
9.7904985490993646
 30
0.0
  0
VERTEX
  5
4903
  8
250
  6
CONTINUOUS
 10
5.231654889874636
 20
22.797182673435181
 30
0.0
  0
SEQEND
  5
4904
  8
250
  6
CONTINUOUS
  0
TEXT
  5
43D5
  8
250
  6
CONTINUOUS
 10
7.4983215565413044
 20
23.797182673435199
 30
0.0
 40
2.799999999999998
  1
INSERT MODEL:RC06200
  7
YOKO
1001
ITEMNAME
1000
LNSP3
  0
TEXT
  5
43D6
  8
250
  6
CONTINUOUS
 10
6.3516548898746379
 20
18.99718267343518
 30
0.0
 40
2.799999999999998
  1
üiOPTIONüj
  7
YOKO
1001
ITEMNAME
1000
LNSP4
  0
LINE
  5
43D7
  8
250
  6
CONTINUOUS
 10
5.231654889874636
 20
22.797182673435181
 30
0.0
 11
57.593418154228729
 21
22.797182673435181
 31
0.0
1001
ITEMNAME
1000
LNSP2
  0
LINE
  5
43D8
  8
250
  6
CONTINUOUS
 10
-80.078870508136447
 20
-14.94548471947377
 30
0.0
 11
-67.945537174803121
 21
-14.94548471947377
 31
0.0
  0
LINE
  5
43D9
  8
250
  6
CONTINUOUS
 10
-67.945537174803121
 20
-14.94548471947377
 30
0.0
 11
-63.205601344582128
 21
-6.9201103584702546
 31
0.0
  0
LINE
  5
43DA
  8
250
  6
CONTINUOUS
 10
-63.205601344582128
 20
-6.9201103584702546
 30
0.0
 11
-62.071548342604267
 21
-4.999999999999944
 31
0.0
  0
LINE
  5
43DB
  8
250
  6
CONTINUOUS
 10
-62.952814021373911
 20
-7.0694112679109953
 30
0.0
 11
-62.071548342604267
 21
-4.999999999999944
 31
0.0
  0
LINE
  5
43DC
  8
250
  6
CONTINUOUS
 10
-62.071548342604267
 20
-4.999999999999944
 30
0.0
 11
-63.458388667790302
 21
-6.7708094490295148
 31
0.0
  0
TEXT
  5
43DD
  8
250
  6
CONTINUOUS
 10
-80.478870508136424
 20
-13.545484719473791
 30
0.0
 40
2.7999999999999989
  1
ST10
  7
ACJISTS
  0
LINE
  5
43DE
  8
247
  6
CONTINUOUS
 10
-73.75
 20
-3.499999999999944
 30
0.0
 11
-69.115384615669996
 21
-3.499999999999944
 31
0.0
  0
LINE
  5
43DF
  8
247
  6
CONTINUOUS
 10
-72.954893499987975
 20
-0.9999999999999449
 30
0.0
 11
-73.557058810057356
 21
-3.0999999999159531
 31
0.0
  0
LINE
  5
43E0
  8
247
  6
CONTINUOUS
 10
-72.325151403519044
 20
-1.9961538461138291
 30
0.0
 11
-73.240536018867033
 21
-1.9961538461138291
 31
0.0
  0
ARC
  5
43E1
  8
247
  6
CONTINUOUS
 10
-72.087263401946814
 20
-1.3847190672940439
 30
0.0
 40
0.3876715809326743
 50
342.9978896752952
 51
82.924166218513577
  0
ARC
  5
43E2
  8
247
  6
CONTINUOUS
 10
-72.382477556804133
 20
-1.3052231310279589
 30
0.0
 40
0.6933047965358766
 50
274.74293685219902
 51
343.84922627326682
1001
GENIUS_GENOBJ-N-FIL_13
1002
{
1000
OWNER
1000
GEN
1002
}
1001
GENIUS_GENODEF_13
1002
{
1000
HIER
1070
     0
1002
}
1002
{
1000
MANEDIT
1070
     0
1002
}
1002
{
1000
NOSEL
1070
     0
1002
}
1002
{
1000
BEHIND
1070
     0
1002
}
1002
{
1000
OTHER
1070
     0
1002
}
1002
{
1000
REACTOR
1002
}
  0
LINE
  5
43E3
  8
247
  6
CONTINUOUS
 10
-72.641674194709367
 20
-3.0999999999159531
 30
0.0
 11
-73.557058810057356
 21
-3.0999999999159531
 31
0.0
  0
LINE
  5
43E4
  8
247
  6
CONTINUOUS
 10
-72.954893499987975
 20
-0.9999999999999449
 30
0.0
 11
-72.039508884639915
 21
-0.9999999999999449
 31
0.0
  0
ARC
  5
43E5
  8
247
  6
CONTINUOUS
 10
-72.378306476266857
 20
-2.3874169627678739
 30
0.0
 40
0.394857301075386
 50
335.9909416525216
 51
82.263443459069066
  0
ARC
  5
43E6
  8
247
  6
CONTINUOUS
 10
-72.712446610426923
 20
-2.3912003273325708
 30
0.0
 40
0.7123241612361686
 50
275.70198516425648
 51
347.27733843682199
1001
GENIUS_GENOBJ-N-FIL_13
1002
{
1000
OWNER
1000
GEN
1002
}
1001
GENIUS_GENODEF_13
1002
{
1000
HIER
1070
     0
1002
}
1002
{
1000
MANEDIT
1070
     0
1002
}
1002
{
1000
NOSEL
1070
     0
1002
}
1002
{
1000
BEHIND
1070
     0
1002
}
1002
{
1000
OTHER
1070
     0
1002
}
1002
{
1000
REACTOR
1002
}
  0
LINE
  5
43E7
  8
247
  6
CONTINUOUS
 10
-71.683981887063396
 20
-3.0999999999159531
 30
0.0
 11
-71.081816576993958
 21
-0.9999999999999449
 31
0.0
  0
LINE
  5
43E8
  8
247
  6
CONTINUOUS
 10
-69.585662730907984
 20
-0.9999999999999449
 30
0.0
 11
-69.981678364303534
 21
-0.9999999999999449
 31
0.0
  0
LINE
  5
43E9
  8
247
  6
CONTINUOUS
 10
-70.608739653943985
 20
-3.0999999999159531
 30
0.0
 11
-70.177970423191937
 21
-3.0999999999159531
 31
0.0
  0
ARC
  5
43EA
  8
247
  6
CONTINUOUS
 10
-69.381816577069969
 20
-2.4582995950833619
 30
0.0
 40
1.5768550576395479
 50
112.3594881415293
 51
164.9932485428464
  0
ARC
  5
43EB
  8
247
  6
CONTINUOUS
 10
-69.847511366133233
 20
-1.5658188585379671
 30
0.0
 40
0.6234706797009447
 50
4.9945893190753248
 51
65.166328957307655
1001
GENIUS_GENOBJ-N-FIL_13
1002
{
1000
OWNER
1000
GEN
1002
}
1001
GENIUS_GENODEF_13
1002
{
1000
HIER
1070
     0
1002
}
1002
{
1000
MANEDIT
1070
     0
1002
}
1002
{
1000
NOSEL
1070
     0
1002
}
1002
{
1000
BEHIND
1070
     0
1002
}
1002
{
1000
OTHER
1070
     0
1002
}
1002
{
1000
REACTOR
1002
}
  0
ARC
  5
43EC
  8
247
  6
CONTINUOUS
 10
-70.444183951032755
 20
-2.1621021219693271
 30
0.0
 40
0.9749472149106983
 50
285.84609655578407
 51
352.3251370041624
  0
ARC
  5
43ED
  8
247
  6
CONTINUOUS
 10
-70.035211638772225
 20
-2.3714704019709538
 30
0.0
 40
0.9271945638692009
 50
159.71360167048971
 51
231.78874565641519
1001
GENIUS_GENOBJ-N-FIL_13
1002
{
1000
OWNER
1000
GEN
1002
}
1001
GENIUS_GENODEF_13
1002
{
1000
HIER
1070
     0
1002
}
1002
{
1000
MANEDIT
1070
     0
1002
}
1002
{
1000
NOSEL
1070
     0
1002
}
1002
{
1000
BEHIND
1070
     0
1002
}
1002
{
1000
OTHER
1070
     0
1002
}
1002
{
1000
REACTOR
1002
}
  0
LINE
  5
43EE
  8
247
  6
CONTINUOUS
 10
-69.962585807815969
 20
-2.2923076922558621
 30
0.0
 11
-69.477970423219972
 21
-2.2923076922558621
 31
0.0
  0
ARC
  5
43EF
  8
247
  6
CONTINUOUS
 10
-73.75
 20
-2.249999999999944
 30
0.0
 40
1.25
 50
90.0
 51
270.0
  0
LINE
  5
43F0
  8
247
  6
CONTINUOUS
 10
-73.75
 20
-0.9999999999999449
 30
0.0
 11
-73.30384615391398
 21
-0.9999999999999449
 31
0.0
  0
ARC
  5
43F1
  8
247
  6
CONTINUOUS
 10
-69.115384615669996
 20
-2.249999999999944
 30
0.0
 40
1.25
 50
270.0
 51
90.0
  0
ARC
  5
4737
  8
241
  6
CONTINUOUS
 10
-8.2145706961048859
 20
1.818285348051518
 30
0.0
 40
0.2
 50
180.0000000000048
 51
225.00000000001319
  0
LINE
  5
4738
  8
241
  6
CONTINUOUS
 10
-3.8658639918070459
 20
6.1669920523496851
 30
0.0
 11
-2.702061259422734
 21
5.0031893199659843
 31
0.0
  0
ARC
  5
4739
  8
241
  6
CONTINUOUS
 10
-0.1999999999844139
 20
2.2182853480522908
 30
0.0
 40
0.2
 50
359.99999999999432
 51
45.0
  0
ARC
  5
473A
  8
241
  6
CONTINUOUS
 10
-8.2145706961049854
 20
2.2182853480514391
 30
0.0
 40
0.2
 50
135.00000000000171
 51
180.0000000000048
  0
ARC
  5
473B
  8
241
  6
CONTINUOUS
 10
-4.407285348044339
 20
6.0255706961123972
 30
0.0
 40
0.2
 50
89.999999999995111
 51
135.00000000000171
  0
LINE
  5
473C
  8
241
  6
CONTINUOUS
 10
-4.4072853480443106
 20
6.2255706961123991
 30
0.0
 11
-4.0072853480443484
 21
6.2255706961123431
 31
0.0
  0
ARC
  5
473D
  8
241
  6
CONTINUOUS
 10
-4.0072853480443618
 20
6.0255706961123678
 30
0.0
 40
0.2
 50
45.0
 51
90.0
  0
LINE
  5
473E
  8
241
  6
CONTINUOUS
 10
0.0000000000189142
 20
2.2182853480522771
 30
0.0
 11
0.0000000000156173
 21
1.818285348052328
 31
0.0
  0
ARC
  5
473F
  8
241
  6
CONTINUOUS
 10
-0.1999999999843997
 20
1.8182853480523571
 30
0.0
 40
0.2
 50
314.9999999999925
 51
359.99999999999432
  0
LINE
  5
4742
  8
241
  6
CONTINUOUS
 10
-8.4145706961048887
 20
1.81828534805149
 30
0.0
 11
-8.4145706961049722
 21
2.218285348051424
 31
0.0
  0
LINE
  5
4745
  8
241
  6
CONTINUOUS
 10
-0.5399275580012249
 20
2.8410556185497891
 30
0.0
 11
-0.0585786437470976
 21
2.359706704289608
 31
0.0
  0
LINE
  5
4747
  8
241
  6
CONTINUOUS
 10
-2.6726261196706251
 20
4.6667441330548627
 30
0.0
 11
-2.702061259422734
 21
5.0031893199659843
 31
0.0
  0
ARC
  5
4748
  8
241
  6
CONTINUOUS
 10
-0.6802367234872269
 20
4.8410556185501576
 30
0.0
 40
2.0
 50
184.9999999999998
 51
270.00000000001472
  0
LINE
  5
4749
  8
241
  6
CONTINUOUS
 10
-0.5399275580012249
 20
2.8410556185497891
 30
0.0
 11
-0.6802367234867153
 21
2.8410556185509539
 31
0.0
  0
LINE
  5
474A
  8
241
  6
CONTINUOUS
 10
-8.3559920523429838
 20
2.359706704290347
 30
0.0
 11
-7.192189319959283
 21
3.523509436674658
 31
0.0
  0
LINE
  5
474B
  8
241
  6
CONTINUOUS
 10
-5.0300556185430727
 20
5.6856431380961681
 30
0.0
 11
-4.5487067042828917
 21
6.1669920523502961
 31
0.0
  0
LINE
  5
474D
  8
241
  6
CONTINUOUS
 10
-6.8557441330481623
 20
3.5529445764267682
 30
0.0
 11
-7.192189319959283
 21
3.523509436674658
 31
0.0
  0
ARC
  5
474E
  8
241
  6
CONTINUOUS
 10
-7.0300556185434431
 20
5.545333972610166
 30
0.0
 40
2.0
 50
274.99999999999977
 51
0.000000000014656
  0
LINE
  5
474F
  8
241
  6
CONTINUOUS
 10
-5.0300556185430727
 20
5.6856431380961681
 30
0.0
 11
-5.030055618544238
 21
5.5453339726106776
 31
0.0
  0
LINE
  5
4750
  8
241
  6
CONTINUOUS
 10
-5.5737237688800914
 20
-1.105404291649668
 30
0.0
 11
-5.7125094366679567
 21
-0.9666186238618754
 31
0.0
  0
LINE
  5
4751
  8
241
  6
CONTINUOUS
 10
-7.8746431380894668
 20
1.1955150775543191
 30
0.0
 11
-8.3559920523435949
 21
1.6768639918145001
 31
0.0
  0
LINE
  5
4753
  8
241
  6
CONTINUOUS
 10
-5.7419445764200674
 20
-0.6301734369507548
 30
0.0
 11
-5.7125094366679567
 21
-0.9666186238618754
 31
0.0
  0
ARC
  5
4754
  8
241
  6
CONTINUOUS
 10
-7.7343339726034648
 20
-0.8044849224460497
 30
0.0
 40
2.0
 50
4.9999999999998126
 51
90.000000000014623
  0
LINE
  5
4755
  8
241
  6
CONTINUOUS
 10
-7.8746431380894668
 20
1.1955150775543191
 30
0.0
 11
-7.7343339726039773
 21
1.195515077553154
 31
0.0
  0
LINE
  5
4756
  8
241
  6
CONTINUOUS
 10
-0.0585786437477087
 20
1.6768639918137609
 30
0.0
 11
-1.2223813761314091
 21
0.51306125942945
 31
0.0
  0
LINE
  5
4759
  8
241
  6
CONTINUOUS
 10
-1.55882656304253
 20
0.4836261196773402
 30
0.0
 11
-1.2223813761314091
 21
0.51306125942945
 31
0.0
  0
ARC
  5
475A
  8
241
  6
CONTINUOUS
 10
-1.384515077547249
 20
-1.5087632765060579
 30
0.0
 40
2.0
 50
94.999999999999815
 51
176.04874920915049
  0
CIRCLE
  5
4815
  8
241
  6
CONTINUOUS
 10
-4.2072853480447199
 20
2.0182853480526721
 30
0.0
 40
1.5
  0
VIEWPORT
  5
22
 67
     1
  8
0
 10
261.51769911504419
 20
148.5
 30
0.0
 40
523.0353982300885
 41
297.0
 68
     1
 69
     1
1001
ACAD
1000
MVIEW
1002
{
1070
    16
1010
0.0
1020
0.0
1030
0.0
1010
0.0
1020
0.0
1030
1.0
1040
0.0
1040
297.0
1040
261.51769911504419
1040
148.5
1040
50.0
1040
0.0
1040
0.0
1070
     0
1070
   100
1070
     1
1070
     1
1070
     0
1070
     0
1070
     0
1070
     0
1040
0.0
1040
0.0
1040
0.0
1040
1.0
1040
1.0
1040
10.0
1040
10.0
1070
     0
1002
{
1002
}
1002
}
1001
GENIUS_GENODEF_13
1002
{
1000
HIER
1070
     0
1002
}
1002
{
1000
MANEDIT
1070
     0
1002
}
1002
{
1000
NOSEL
1070
     0
1002
}
1002
{
1000
BEHIND
1070
     0
1002
}
1002
{
1000
OTHER
1070
     0
1002
}
1002
{
1000
REACTOR
1002
}
1001
GENIUS_GENOBJ-N-SDF_13
1002
{
1000
OWNER
1000
GEN
1002
}
1001
GENIUS_GENSCREG_15
1000
PF
1040
1.0
1000
DF
1040
1.0
1000
MIN
1011
0.0
1021
0.0
1031
0.0
1021
0.0
1031
0.0
1000
MAX
1011
523.0353982300885
1021
0.0
1031
0.0
1021
297.0
1031
0.0
1000
FLAGS
1070
     4
  0
ENDSEC
  0
EOF
