  0
SECTION
  2
HEADER
  9
$ACADVER
  1
AC1009
  9
$INSBASE
 10
0.0
 20
0.0
 30
0.0
  9
$EXTMIN
 10
-4.3559981946051201
 20
-14.94548471947382
 30
0.0
  9
$EXTMAX
 10
139.00000000000011
 20
47.0
 30
0.0
  9
$LIMMIN
 10
0.0
 20
0.0
  9
$LIMMAX
 10
297.0
 20
210.0
  9
$ORTHOMODE
 70
     0
  9
$REGENMODE
 70
     1
  9
$FILLMODE
 70
     1
  9
$QTEXTMODE
 70
     0
  9
$MIRRTEXT
 70
     1
  9
$DRAGMODE
 70
     2
  9
$LTSCALE
 40
10.0
  9
$OSMODE
 70
    35
  9
$ATTMODE
 70
     1
  9
$TEXTSIZE
 40
3.0
  9
$TRACEWID
 40
1.0
  9
$TEXTSTYLE
  7
YOKO
  9
$CLAYER
  8
240
  9
$CELTYPE
  6
BYLAYER
  9
$CECOLOR
 62
   256
  9
$DIMSCALE
 40
1.0
  9
$DIMASZ
 40
2.2299999999999991
  9
$DIMEXO
 40
0.5
  9
$DIMDLI
 40
7.0
  9
$DIMRND
 40
0.0
  9
$DIMDLE
 40
0.0
  9
$DIMEXE
 40
1.0
  9
$DIMTP
 40
0.0
  9
$DIMTM
 40
0.01
  9
$DIMTXT
 40
2.799999999999998
  9
$DIMCEN
 40
0.0
  9
$DIMTSZ
 40
0.0
  9
$DIMTOL
 70
     0
  9
$DIMLIM
 70
     0
  9
$DIMTIH
 70
     0
  9
$DIMTOH
 70
     0
  9
$DIMSE1
 70
     0
  9
$DIMSE2
 70
     0
  9
$DIMTAD
 70
     3
  9
$DIMZIN
 70
     9
  9
$DIMBLK
  1
OPEN
  9
$DIMASO
 70
     1
  9
$DIMSHO
 70
     1
  9
$DIMPOST
  1

  9
$DIMAPOST
  1

  9
$DIMALT
 70
     0
  9
$DIMALTD
 70
     2
  9
$DIMALTF
 40
25.399999999999999
  9
$DIMLFAC
 40
1.0
  9
$DIMTOFL
 70
     1
  9
$DIMTVP
 40
0.0
  9
$DIMTIX
 70
     1
  9
$DIMSOXD
 70
     0
  9
$DIMSAH
 70
     0
  9
$DIMBLK1
  1

  9
$DIMBLK2
  1

  9
$DIMSTYLE
  2
BIGT
  9
$DIMCLRD
 70
   256
  9
$DIMCLRE
 70
   256
  9
$DIMCLRT
 70
    40
  9
$DIMTFAC
 40
1.0
  9
$DIMGAP
 40
1.0
  9
$LUNITS
 70
     2
  9
$LUPREC
 70
     6
  9
$SKETCHINC
 40
1.0
  9
$FILLETRAD
 40
0.0
  9
$AUNITS
 70
     0
  9
$AUPREC
 70
     6
  9
$MENU
  1
.
  9
$ELEVATION
 40
0.0
  9
$PELEVATION
 40
0.0
  9
$THICKNESS
 40
0.0
  9
$LIMCHECK
 70
     0
  9
$BLIPMODE
 70
     0
  9
$CHAMFERA
 40
0.2
  9
$CHAMFERB
 40
0.2
  9
$SKPOLY
 70
     0
  9
$TDCREATE
 40
2457476.394843264
  9
$TDUPDATE
 40
2457744.763222801
  9
$TDINDWG
 40
0.1993850231
  9
$TDUSRTIMER
 40
0.1993849537
  9
$USRTIMER
 70
     1
  9
$ANGBASE
 50
0.0
  9
$ANGDIR
 70
     0
  9
$PDMODE
 70
     1
  9
$PDSIZE
 40
0.0
  9
$PLINEWID
 40
0.0
  9
$COORDS
 70
     1
  9
$SPLFRAME
 70
     0
  9
$SPLINETYPE
 70
     6
  9
$SPLINESEGS
 70
     4
  9
$ATTDIA
 70
     1
  9
$ATTREQ
 70
     1
  9
$HANDLING
 70
     1
  9
$HANDSEED
  5
4744
  9
$SURFTAB1
 70
     6
  9
$SURFTAB2
 70
     6
  9
$SURFTYPE
 70
     6
  9
$SURFU
 70
     6
  9
$SURFV
 70
     6
  9
$UCSNAME
  2

  9
$UCSORG
 10
0.0
 20
0.0
 30
0.0
  9
$UCSXDIR
 10
1.0
 20
0.0
 30
0.0
  9
$UCSYDIR
 10
0.0
 20
1.0
 30
0.0
  9
$PUCSNAME
  2

  9
$PUCSORG
 10
0.0
 20
0.0
 30
0.0
  9
$PUCSXDIR
 10
1.0
 20
0.0
 30
0.0
  9
$PUCSYDIR
 10
0.0
 20
1.0
 30
0.0
  9
$USERI1
 70
     1
  9
$USERI2
 70
     0
  9
$USERI3
 70
     0
  9
$USERI4
 70
     0
  9
$USERI5
 70
     0
  9
$USERR1
 40
0.0
  9
$USERR2
 40
0.0
  9
$USERR3
 40
0.0
  9
$USERR4
 40
0.0
  9
$USERR5
 40
0.0
  9
$WORLDVIEW
 70
     1
  9
$SHADEDGE
 70
     3
  9
$SHADEDIF
 70
    70
  9
$TILEMODE
 70
     1
  9
$MAXACTVP
 70
    16
  9
$PLIMCHECK
 70
     0
  9
$PEXTMIN
 10
1.0000000000000000E+020
 20
1.0000000000000000E+020
 30
1.0000000000000000E+020
  9
$PEXTMAX
 10
-1.0000000000000000E+020
 20
-1.0000000000000000E+020
 30
-1.0000000000000000E+020
  9
$PLIMMIN
 10
0.0
 20
0.0
  9
$PLIMMAX
 10
420.0
 20
297.0
  9
$UNITMODE
 70
     0
  9
$VISRETAIN
 70
     1
  9
$PLINEGEN
 70
     0
  9
$PSLTSCALE
 70
     1
  0
ENDSEC
  0
SECTION
  2
TABLES
  0
TABLE
  2
VPORT
 70
     1
  0
VPORT
  2
*ACTIVE
 70
     0
 10
0.0
 20
0.0
 11
1.0
 21
1.0
 12
63.050360321569848
 22
19.570599078833961
 13
0.0
 23
0.0
 14
7.0
 24
7.0
 15
7.0
 25
7.0
 16
0.0
 26
0.0
 36
1.0
 17
0.0
 27
0.0
 37
0.0
 40
122.9176782462972
 41
1.462053571428571
 42
50.0
 43
0.0
 44
0.0
 50
0.0
 51
0.0
 71
     0
 72
  2000
 73
     1
 74
     0
 75
     0
 76
     1
 77
     0
 78
     0
  0
ENDTAB
  0
TABLE
  2
LTYPE
 70
    21
  0
LTYPE
  2
CONTINUOUS
 70
     0
  3
Solid line
 72
    65
 73
     0
 40
0.0
  0
LTYPE
  2
CENTER2
 70
     0
  3
___ _ ___ _ ___ _ ___ _ ___ _ ___ _ ___ _ ___ _
 72
    65
 73
     4
 40
1.125
 49
0.75
 49
-0.125
 49
0.125
 49
-0.125
  0
LTYPE
  2
HIDDEN2
 70
     0
  3
_ _ _ _ _ _ _ _ _ _ _ _ _ _ _ _ _ _ _ _ _ _ _ _
 72
    65
 73
     2
 40
0.1875
 49
0.125
 49
-0.0625
  0
LTYPE
  2
PHANTOM2
 70
     0
  3
___ _ _ ___ _ _ ___ _ _ ___ _ _ ___ _ _ ___ _ _
 72
    65
 73
     6
 40
1.25
 49
0.625
 49
-0.125
 49
0.125
 49
-0.125
 49
0.125
 49
-0.125
  0
LTYPE
  2
AMCONSTR
 70
     0
  3
_______________________
 72
    65
 73
     2
 40
9999.0
 49
9999.0
 49
0.0
  0
LTYPE
  2
HIDDEN
 70
     0
  3
Hidden __ __ __ __ __ __ __ __ __ __ __ __ __ _
 72
    65
 73
     2
 40
0.375
 49
0.25
 49
-0.125
  0
LTYPE
  2
CENTER
 70
     0
  3
Center ____ _ ____ _ ____ _ ____ _ ____ _ ____
 72
    65
 73
     4
 40
2.0
 49
1.25
 49
-0.25
 49
0.25
 49
-0.25
  0
LTYPE
  2
AMZIGZAG2
 70
     0
  3
/\/-/\/-/\/-/\/-/\/-/\/
 72
    65
 73
     2
 40
0.4401
 49
0.0001
 49
-0.4400000000000001
  0
LTYPE
  2
ACANSTGB
 70
     0
  3
__ . . __ . .
 72
    65
 73
     6
 40
0.35433070866
 49
0.15748031496
 49
-0.03937007874
 49
0.03937007874
 49
-0.03937007874
 49
0.03937007874
 49
-0.03937007874
  0
LTYPE
  2
ACANSTGL
 70
     0
  3
_ _ _ _ _
 72
    65
 73
     2
 40
0.11811023622
 49
0.07874015748
 49
-0.03937007874
  0
ENDTAB
  0
TABLE
  2
LAYER
 70
     8
  0
LAYER
  2
0
 70
     0
 62
     7
  6
CONTINUOUS
  0
LAYER
  2
240
 70
     0
 62
     4
  6
CONTINUOUS
  0
LAYER
  2
DEFPOINTS
 70
     0
 62
     7
  6
CONTINUOUS
  0
LAYER
  2
245
 70
     0
 62
     2
  6
CENTER2
  0
LAYER
  2
241
 70
     0
 62
   211
  6
CONTINUOUS
  0
LAYER
  2
247
 70
     0
 62
    60
  6
CONTINUOUS
  0
LAYER
  2
250
 70
     0
 62
     3
  6
CONTINUOUS
  0
LAYER
  2
243
 70
     0
 62
   211
  6
HIDDEN2
  0
ENDTAB
  0
TABLE
  2
STYLE
 70
    10
  0
STYLE
  2
STANDARD
 70
     0
 40
0.0
 41
1.0
 50
0.0
 71
     0
 42
3.0
  3
romans.shx
  4
extfont.shx
  0
STYLE
  2
YOKO
 70
     0
 40
0.0
 41
1.0
 50
0.0
 71
     0
 42
3.0
  3
romans.shx
  4
extfont.shx
  0
STYLE
  2
ACJISTS
 70
     0
 40
1.0
 41
1.0
 50
0.0
 71
     0
 42
3.0
  3
amgdt.shx
  4
extfont.shx
  0
STYLE
  2

 70
     1
 40
0.0
 41
1.0
 50
0.0
 71
     0
 42
3.0
  3
genltshp.shx
  4

  0
STYLE
  2
ACANSGDT
 70
     0
 40
0.0
 41
1.0
 50
0.0
 71
     0
 42
3.0
  3
amgdt.shx
  4

  0
ENDTAB
  0
TABLE
  2
VIEW
 70
     0
  0
ENDTAB
  0
TABLE
  2
UCS
 70
     0
  0
ENDTAB
  0
TABLE
  2
APPID
 70
    37
  0
APPID
  2
ACAD
 70
     0
  0
APPID
  2
ACADANNOTATIVE
 70
     0
  0
APPID
  2
GLOBAL
 70
     0
  0
APPID
  2
DETAIL
 70
     0
  0
APPID
  2
GRPNAME
 70
     0
  0
APPID
  2
GPARA
 70
     0
  0
APPID
  2
MCAD_NO_VIS
 70
     0
  0
APPID
  2
ACAD_TEMP_GRAPHIC
 70
     0
  0
APPID
  2
ACATTRIBSERVICES
 70
     0
  0
APPID
  2
GENIUS_GENSCREG_15
 70
     0
  0
APPID
  2
GENIUS_GENODEF_13
 70
     0
  0
APPID
  2
GENIUS_GENOBJ-N-SDF_13
 70
     0
  0
APPID
  2
GENIUS_GENREC_14
 70
     0
  0
APPID
  2
GENIUS_GENOBJ-N-REC_13
 70
     0
  0
APPID
  2
GENIUS_GENDIMSH_14
 70
     0
  0
APPID
  2
GENIUS_GENOBJ-N-DIM_13
 70
     0
  0
APPID
  2
GENIUS_GENDIM_13
 70
     0
  0
APPID
  2
GENIUS_GENDTOL_13
 70
     0
  0
APPID
  2
GENIUS_GENOLIS_13
 70
     0
  0
APPID
  2
GENIUS_GENOENT_13
 70
     0
  0
APPID
  2
GENIUS_GENOBJ-F-FEM_13
 70
     0
  0
APPID
  2
GENIUS_GENOREF_13
 70
     0
  0
APPID
  2
GENIUS_GEFFEM_13
 70
     0
  0
APPID
  2
GENIUS_GEFFEMP_13
 70
     0
  0
APPID
  2
AD_DRAW
 70
     0
  0
APPID
  2
DESIGNERASSEMBLIES
 70
     0
  0
APPID
  2
ACADM_DIM_EDIT
 70
     0
  0
APPID
  2
AMDT_DM_ADJ
 70
     0
  0
APPID
  2
ITEMNAME
 70
     0
  0
APPID
  2
GENIUS_GENOBJ-N-FIL_13
 70
     0
  0
APPID
  2
GENIUS_GENFIL_13
 70
     0
  0
APPID
  2
GENIUS_GENOBJ-N-CHA_13
 70
     0
  0
APPID
  2
ACAD_NAV_VCDISPLAY
 70
     0
  0
APPID
  2
ACAD_EXEMPT_FROM_CAD_STANDARDS
 70
     0
  0
APPID
  2
ACAD_DSTYLE_DIMJAG
 70
     0
  0
APPID
  2
ACAD_DSTYLE_DIMBREAK
 70
     0
  0
APPID
  2
ACAD_MLEADERVER
 70
     0
  0
ENDTAB
  0
TABLE
  2
DIMSTYLE
 70
    31
  0
DIMSTYLE
  2
STANDARD
 70
     0
  3

  4

  5

  6

  7

 40
1.0
 41
0.18
 42
0.0625
 43
0.38
 44
0.18
 45
0.0
 46
0.0
 47
0.0
 48
0.0
140
0.18
141
0.09
142
0.0
143
25.399999999999999
144
1.0
145
0.0
146
1.0
147
0.09
 71
     0
 72
     0
 73
     1
 74
     1
 75
     0
 76
     0
 77
     0
 78
     0
170
     0
171
     2
172
     0
173
     0
174
     0
175
     0
176
     0
177
     0
178
     0
  0
DIMSTYLE
  2
BIGT
 70
     0
  3

  4

  5

  6

  7

 40
1.0
 41
2.2299999999999991
 42
0.5
 43
7.0
 44
1.0
 45
0.0
 46
0.0
 47
0.0
 48
0.01
140
2.799999999999998
141
0.0
142
0.0
143
25.399999999999999
144
1.0
145
0.0
146
1.0
147
1.0
 71
     0
 72
     0
 73
     0
 74
     0
 75
     0
 76
     0
 77
     3
 78
     9
170
     0
171
     2
172
     1
173
     0
174
     1
175
     0
176
   256
177
   256
178
    40
  0
DIMSTYLE
  2
AM_ANSI
 70
     0
  3

  4
mm
  5

  6

  7

 40
1.0
 41
0.12
 42
0.05
 43
0.5
 44
0.1
 45
0.0
 46
0.0
 47
0.1
 48
0.1
140
0.12
141
0.0
142
0.0
143
25.399999999999999
144
1.0
145
0.0
146
0.71
147
0.06
 71
     0
 72
     0
 73
     1
 74
     1
 75
     0
 76
     0
 77
     0
 78
     7
170
     0
171
     2
172
     0
173
     0
174
     0
175
     0
176
   256
177
   256
178
     2
  0
DIMSTYLE
  2
AM_ANSI$3
 70
     0
  3

  4
mm
  5

  6

  7

 40
1.0
 41
0.12
 42
0.05
 43
0.5
 44
0.1
 45
0.0
 46
0.0
 47
0.1
 48
0.1
140
0.12
141
0.0
142
0.0
143
25.399999999999999
144
1.0
145
0.0
146
0.71
147
0.06
 71
     0
 72
     0
 73
     1
 74
     1
 75
     0
 76
     0
 77
     0
 78
     7
170
     0
171
     2
172
     0
173
     0
174
     0
175
     0
176
   256
177
   256
178
     2
  0
DIMSTYLE
  2
AM_ANSI$4
 70
     0
  3

  4
mm
  5

  6

  7

 40
1.0
 41
0.12
 42
0.05
 43
0.5
 44
0.1
 45
0.0
 46
0.0
 47
0.1
 48
0.1
140
0.12
141
0.0
142
0.0
143
25.399999999999999
144
1.0
145
0.0
146
0.71
147
0.06
 71
     0
 72
     0
 73
     1
 74
     1
 75
     0
 76
     0
 77
     0
 78
     7
170
     0
171
     2
172
     0
173
     0
174
     0
175
     0
176
   256
177
   256
178
     2
  0
DIMSTYLE
  2
AM_ANSI$7
 70
     0
  3

  4
mm
  5

  6

  7

 40
1.0
 41
0.12
 42
0.05
 43
0.5
 44
0.1
 45
0.0
 46
0.0
 47
0.1
 48
0.1
140
0.12
141
0.0
142
0.0
143
25.399999999999999
144
1.0
145
0.0
146
0.71
147
0.06
 71
     0
 72
     0
 73
     1
 74
     1
 75
     0
 76
     0
 77
     0
 78
     7
170
     0
171
     2
172
     0
173
     0
174
     0
175
     0
176
   256
177
   256
178
     2
  0
DIMSTYLE
  2
AM_ANSI$SF
 70
     0
  3

  4
mm
  5

  6

  7

 40
1.0
 41
0.12
 42
0.05
 43
0.5
 44
0.1
 45
0.0
 46
0.0
 47
0.1
 48
0.1
140
0.12
141
0.0
142
0.0
143
25.399999999999999
144
1.0
145
0.0
146
0.71
147
0.06
 71
     0
 72
     0
 73
     1
 74
     1
 75
     1
 76
     1
 77
     0
 78
     7
170
     0
171
     2
172
     0
173
     0
174
     0
175
     0
176
   256
177
   256
178
     2
  0
DIMSTYLE
  2
AM_ANSI$SH
 70
     0
  3

  4
mm
  5

  6
GENAXEH
  7

 40
1.0
 41
0.12
 42
0.05
 43
0.5
 44
0.1
 45
0.0
 46
0.0
 47
0.1
 48
0.1
140
0.12
141
0.0
142
0.0
143
25.399999999999999
144
1.0
145
0.0
146
0.71
147
0.06
 71
     0
 72
     0
 73
     1
 74
     1
 75
     1
 76
     1
 77
     0
 78
     7
170
     0
171
     2
172
     0
173
     1
174
     0
175
     0
176
   256
177
   256
178
     2
  0
ENDTAB
  0
ENDSEC
  0
SECTION
  2
BLOCKS
  0
BLOCK
  8
0
  2
$MODEL_SPACE
 70
     0
 10
0.0
 20
0.0
 30
0.0
  3
$MODEL_SPACE
  1

  0
ENDBLK
  5
4602
  8
0
  0
BLOCK
 67
     1
  8
0
  2
$PAPER_SPACE
 70
     0
 10
0.0
 20
0.0
 30
0.0
  3
$PAPER_SPACE
  1

  0
ENDBLK
  5
45FE
 67
     1
  8
0
  0
BLOCK
  8
0
  2
_OPEN
 70
     0
 10
0.0
 20
0.0
 30
0.0
  3
_OPEN
  1

  0
LINE
  5
4499
  8
0
  6
BYBLOCK
 62
     0
 10
-1.0
 20
0.1666666666666666
 30
0.0
 11
0.0
 21
0.0
 31
0.0
  0
LINE
  5
449A
  8
0
  6
BYBLOCK
 62
     0
 10
-1.0
 20
-0.1666666666666666
 30
0.0
 11
0.0
 21
0.0
 31
0.0
  0
LINE
  5
449B
  8
0
  6
BYBLOCK
 62
     0
 10
0.0
 20
0.0
 30
0.0
 11
-1.0
 21
0.0
 31
0.0
  0
ENDBLK
  5
449C
  8
0
  0
BLOCK
  8
0
  2
GENAXEH
 70
     0
 10
0.0
 20
0.0
 30
0.0
  3
GENAXEH
  1

  0
LINE
  5
44D4
  8
0
 10
-1.0
 20
0.0
 30
0.0
 11
1.0
 21
0.0
 31
0.0
  0
ENDBLK
  5
44D5
  8
0
  0
BLOCK
  8
0
  2
*U5
 70
     1
 10
0.0
 20
0.0
 30
0.0
  3
*U5
  1

  0
TEXT
  5
433F
  8
250
 10
17.0
 20
-4.0380952380952362
 30
0.0
 40
3.0
  1
\U+2205
 50
90.0
  0
TEXT
  5
4340
  8
250
 10
16.899999999999999
 20
-1.3238095238095211
 30
0.0
 40
2.799999999999998
  1
10
 50
90.0
  0
ENDBLK
  5
4341
  8
0
  0
BLOCK
  8
0
  2
*U6
 70
     1
 10
0.0
 20
0.0
 30
0.0
  3
*U6
  1

  0
TEXT
  5
4344
  8
250
 10
10.0
 20
-12.299999999999979
 30
0.0
 40
3.0
  1
max.\U+03C63.25
 50
90.0
  0
ENDBLK
  5
4345
  8
0
  0
BLOCK
  8
0
  2
_ACMFILLEDHALF
 70
     0
 10
0.0
 20
0.0
 30
0.0
  3
_ACMFILLEDHALF
  1

  0
TRACE
  5
46C5
  8
240
 62
     0
 10
-0.8
 20
0.0
 30
0.0
 11
-1.0
 21
0.166666666
 31
0.0
 12
0.0
 22
0.0
 32
0.0
 13
0.0
 23
0.0
 33
0.0
  0
LINE
  5
46C6
  8
240
 62
     0
 10
-1.0
 20
0.0
 30
0.0
 11
-0.8
 21
0.0
 31
0.0
  0
ENDBLK
  5
46C4
  8
0
  0
ENDSEC
  0
SECTION
  2
ENTITIES
  0
LINE
  5
42DD
  8
250
  6
CONTINUOUS
 10
0.0
 20
28.0
 30
0.0
 11
2.2300000000000031
 21
28.0
 31
0.0
  0
LINE
  5
42DE
  8
250
  6
CONTINUOUS
 10
2.2300000000000031
 20
28.371666666666659
 30
0.0
 11
0.0
 21
28.0
 31
0.0
  0
LINE
  5
42DF
  8
250
  6
CONTINUOUS
 10
2.2300000000000031
 20
27.62833333333333
 30
0.0
 11
0.0
 21
28.0
 31
0.0
  0
LINE
  5
42E0
  8
250
  6
CONTINUOUS
 10
120.0000000000001
 20
28.0
 30
0.0
 11
117.7700000000001
 21
28.0
 31
0.0
  0
LINE
  5
42E1
  8
250
  6
CONTINUOUS
 10
117.7700000000001
 20
27.62833333333333
 30
0.0
 11
120.0000000000001
 21
28.0
 31
0.0
  0
LINE
  5
42E2
  8
250
  6
CONTINUOUS
 10
117.7700000000001
 20
28.371666666666659
 30
0.0
 11
120.0000000000001
 21
28.0
 31
0.0
  0
TEXT
  5
42E3
  8
250
  6
CONTINUOUS
 10
55.800000000000068
 20
29.0
 30
0.0
 40
2.799999999999998
  1
120
  0
LINE
  5
42E4
  8
250
  6
CONTINUOUS
 10
2.2300000000000031
 20
28.0
 30
0.0
 11
117.7700000000001
 21
28.0
 31
0.0
  0
LINE
  5
42E5
  8
250
  6
CONTINUOUS
 10
120.0000000000001
 20
5.4999999999999991
 30
0.0
 11
120.0000000000001
 21
29.0
 31
0.0
  0
LINE
  5
42E6
  8
250
  6
CONTINUOUS
 10
0.0
 20
5.5
 30
0.0
 11
0.0
 21
29.0
 31
0.0
  0
TEXT
  5
42F2
  8
241
  6
CONTINUOUS
 10
1.0
 20
42.0
 30
0.0
 40
5.0
  1
ST10-MEGA3S-120
  7
YOKO
  0
LINE
  5
431B
  8
240
  6
CONTINUOUS
 10
105.99600000001971
 20
-5.0
 30
0.0
 11
0.0
 21
-5.0
 31
0.0
  0
LINE
  5
431C
  8
240
  6
CONTINUOUS
 10
105.99600000001971
 20
5.0
 30
0.0
 11
0.0
 21
5.0
 31
0.0
  0
LINE
  5
431D
  8
240
  6
CONTINUOUS
 10
0.0
 20
5.0
 30
0.0
 11
0.0
 21
-5.0
 31
0.0
  0
LINE
  5
433B
  8
245
  6
CENTER2
 10
127.0
 20
0.0
 30
0.0
 11
-4.3559981946051201
 21
0.0
 31
0.0
  0
LINE
  5
437E
  8
250
  6
CONTINUOUS
 10
120.5000000000001
 20
-4.9999999999999991
 30
0.0
 11
139.00000000000011
 21
-5.0
 31
0.0
  0
LINE
  5
437F
  8
250
  6
CONTINUOUS
 10
120.5000000000001
 20
4.9999999999999991
 30
0.0
 11
139.00000000000011
 21
4.999999999999992
 31
0.0
  0
LINE
  5
4380
  8
250
  6
CONTINUOUS
 10
138.00000000000011
 20
-3.0000000000000031
 30
0.0
 11
138.00000000000011
 21
2.9999999999999911
 31
0.0
  0
INSERT
  5
4381
  8
250
  6
CONTINUOUS
  2
_OPEN
 10
138.00000000000011
 20
-5.0
 30
0.0
 41
2.0
 42
2.0
 43
2.0
 50
270.0
  0
INSERT
  5
4382
  8
250
  6
CONTINUOUS
  2
_OPEN
 10
138.00000000000011
 20
4.999999999999992
 30
0.0
 41
2.0
 42
2.0
 43
2.0
 50
90.0
  0
INSERT
  5
4383
  8
250
  6
CONTINUOUS
  2
*U5
 10
120.0000000000001
 20
0.0
 30
0.0
  0
LINE
  5
4384
  8
240
  6
CONTINUOUS
 10
108.7598076200001
 20
5.0
 30
0.0
 11
120.0000000000001
 21
4.9999999999999991
 31
0.0
1001
GRPNAME
1000
PASTMD01
  0
LINE
  5
4385
  8
240
  6
CONTINUOUS
 10
108.7598076200001
 20
-5.0
 30
0.0
 11
120.0000000000001
 21
-5.0
 31
0.0
1001
GRPNAME
1000
PASTMD01
  0
LINE
  5
4386
  8
240
  6
CONTINUOUS
 10
107.0000000000001
 20
-5.149999999999987
 30
0.0
 11
108.5000000000001
 21
-5.1500000000000004
 31
0.0
  0
LINE
  5
4387
  8
240
  6
CONTINUOUS
 10
107.0000000000001
 20
-5.149999999999987
 30
0.0
 11
107.0000000000001
 21
-4.3499999999999961
 31
0.0
1001
GRPNAME
1000
PASTMD01
  0
LINE
  5
4388
  8
240
  6
CONTINUOUS
 10
107.0000000000001
 20
-4.3499999999999961
 30
0.0
 11
105.9959999999738
 21
-4.349999999999949
 31
0.0
  0
LINE
  5
4389
  8
240
  6
CONTINUOUS
 10
108.7598076200001
 20
-5.0
 30
0.0
 11
108.5000000000001
 21
-5.1500000000000004
 31
0.0
  0
LINE
  5
438A
  8
240
  6
CONTINUOUS
 10
107.0000000000001
 20
5.149999999999987
 30
0.0
 11
108.5000000000001
 21
5.1500000000000004
 31
0.0
  0
LINE
  5
438B
  8
241
  6
CONTINUOUS
 10
107.0000000000001
 20
4.3499999999999961
 30
0.0
 11
107.0000000000001
 21
-4.3500000000000121
 31
0.0
1001
GRPNAME
1000
PASTMD01
  0
LINE
  5
438C
  8
240
  6
CONTINUOUS
 10
107.0000000000001
 20
5.149999999999987
 30
0.0
 11
107.0000000000001
 21
4.3499999999999961
 31
0.0
1001
GRPNAME
1000
PASTMD01
  0
LINE
  5
438D
  8
240
  6
CONTINUOUS
 10
105.99600000001639
 20
4.3499999999999952
 30
0.0
 11
107.0000000000001
 21
4.3499999999999961
 31
0.0
  0
LINE
  5
438E
  8
241
  6
CONTINUOUS
 10
108.5000000000001
 20
5.1500000000000004
 30
0.0
 11
108.5000000000001
 21
-5.150000000000019
 31
0.0
  0
LINE
  5
438F
  8
240
  6
CONTINUOUS
 10
108.7598076200001
 20
5.0
 30
0.0
 11
108.5000000000001
 21
5.1500000000000004
 31
0.0
  0
LINE
  5
4390
  8
240
  6
CONTINUOUS
 10
120.0000000000001
 20
4.9999999999999991
 30
0.0
 11
120.0000000000001
 21
-5.0
 31
0.0
  0
LINE
  5
4391
  8
243
  6
HIDDEN2
 10
117.2521469759842
 20
2.886065155432048
 30
0.0
 11
107.023414471628
 21
2.3499999999984
 31
0.0
  0
LINE
  5
4392
  8
243
  6
HIDDEN2
 10
117.2521469759842
 20
-2.886065155432048
 30
0.0
 11
107.02341447162711
 21
-2.349999999998349
 31
0.0
  0
LINE
  5
4393
  8
243
  6
HIDDEN2
 10
107.023414471628
 20
2.3499999999984
 30
0.0
 11
100.2000000000001
 21
2.3500000000001182
 31
0.0
  0
LINE
  5
4394
  8
243
  6
HIDDEN2
 10
100.2000000000001
 20
-2.3500000000000401
 30
0.0
 11
100.2000000000001
 21
2.3500000000001182
 31
0.0
  0
LINE
  5
4395
  8
243
  6
HIDDEN2
 10
118.40000000000011
 20
-3.0299762058498181
 30
0.0
 11
118.0000000000001
 21
-2.6299762058498111
 31
0.0
  0
LINE
  5
4396
  8
243
  6
HIDDEN2
 10
117.40000000000011
 20
-2.629976205849843
 30
0.0
 11
117.2521469759842
 21
-2.886065155432048
 31
0.0
1001
GRPNAME
1000
00000007
  0
LINE
  5
4397
  8
243
  6
HIDDEN2
 10
117.40000000000011
 20
-2.629976205849843
 30
0.0
 11
118.0000000000001
 21
-2.6299762058498111
 31
0.0
1001
GRPNAME
1000
00000007
  0
LINE
  5
4398
  8
243
  6
HIDDEN2
 10
118.7000000000001
 20
-3.0299762058498181
 30
0.0
 11
119.0000000000001
 21
-2.72997620584984
 31
0.0
1001
GRPNAME
1000
00000007
  0
LINE
  5
4399
  8
243
  6
HIDDEN2
 10
118.40000000000011
 20
-3.0299762058498181
 30
0.0
 11
118.7000000000001
 21
-3.0299762058498181
 31
0.0
1001
GRPNAME
1000
00000007
  0
LINE
  5
439A
  8
243
  6
HIDDEN2
 10
119.0000000000001
 20
2.7299762058495221
 30
0.0
 11
119.0000000000001
 21
-2.72997620584984
 31
0.0
1001
GRPNAME
1000
00000007
  0
LINE
  5
439B
  8
243
  6
HIDDEN2
 10
118.40000000000011
 20
3.0299762058497031
 30
0.0
 11
118.0000000000001
 21
2.6299762058497
 31
0.0
  0
LINE
  5
439C
  8
243
  6
HIDDEN2
 10
117.40000000000011
 20
2.629976205849728
 30
0.0
 11
118.0000000000001
 21
2.6299762058497
 31
0.0
1001
GRPNAME
1000
00000007
  0
LINE
  5
439D
  8
243
  6
HIDDEN2
 10
117.40000000000011
 20
2.629976205849728
 30
0.0
 11
117.2521469759842
 21
2.8860651554319352
 31
0.0
1001
GRPNAME
1000
00000007
  0
LINE
  5
439E
  8
243
  6
HIDDEN2
 10
118.7000000000001
 20
3.0299762058497031
 30
0.0
 11
119.0000000000001
 21
2.7299762058495221
 31
0.0
1001
GRPNAME
1000
00000007
  0
LINE
  5
439F
  8
243
  6
HIDDEN2
 10
118.40000000000011
 20
3.0299762058497031
 30
0.0
 11
118.7000000000001
 21
3.0299762058497031
 31
0.0
1001
GRPNAME
1000
00000007
  0
LINE
  5
43A0
  8
243
  6
HIDDEN2
 10
107.02341447162711
 20
-2.349999999998349
 30
0.0
 11
100.2000000000001
 21
-2.3500000000000401
 31
0.0
  0
LINE
  5
43A1
  8
250
  6
CONTINUOUS
 10
119.5000000000001
 20
-1.6000000000000001
 30
0.0
 11
132.00000000000011
 21
-1.6000000000000041
 31
0.0
  0
LINE
  5
43A2
  8
250
  6
CONTINUOUS
 10
119.5000000000001
 20
1.6000000000000041
 30
0.0
 11
132.00000000000011
 21
1.6000000000000001
 31
0.0
  0
LINE
  5
43A3
  8
250
  6
CONTINUOUS
 10
131.00000000000011
 20
-3.8300000000000032
 30
0.0
 11
131.00000000000011
 21
-6.0600000000000014
 31
0.0
  0
LINE
  5
43A4
  8
250
  6
CONTINUOUS
 10
131.00000000000011
 20
3.8300000000000001
 30
0.0
 11
131.00000000000011
 21
6.0599999999999961
 31
0.0
  0
LINE
  5
43A5
  8
250
  6
CONTINUOUS
 10
131.00000000000011
 20
-1.6000000000000041
 30
0.0
 11
131.00000000000011
 21
1.6000000000000001
 31
0.0
  0
INSERT
  5
43A6
  8
250
  6
CONTINUOUS
  2
_OPEN
 10
131.00000000000011
 20
-1.6000000000000041
 30
0.0
 41
2.2299999999999991
 42
2.2299999999999991
 43
2.2299999999999991
 50
90.0
  0
INSERT
  5
43A7
  8
250
  6
CONTINUOUS
  2
_OPEN
 10
131.00000000000011
 20
1.6000000000000001
 30
0.0
 41
2.2299999999999991
 42
2.2299999999999991
 43
2.2299999999999991
 50
270.0
  0
INSERT
  5
43A8
  8
250
  6
CONTINUOUS
  2
*U6
 10
120.0000000000001
 20
0.0
 30
0.0
  0
LINE
  5
43A9
  8
240
  6
CONTINUOUS
 10
105.99600000001639
 20
-4.3499999999999712
 30
0.0
 11
105.99600000001971
 21
-5.0
 31
0.0
  0
LINE
  5
43AA
  8
241
  6
CONTINUOUS
 10
105.9959999999738
 20
-4.349999999999949
 30
0.0
 11
105.99600000001639
 21
4.3499999999999952
 31
0.0
  0
LINE
  5
43AB
  8
243
  6
HIDDEN2
 10
119.0000000000001
 20
1.6000000000000001
 30
0.0
 11
100.2000000000001
 21
1.6000000000000001
 31
0.0
  0
LINE
  5
43AC
  8
243
  6
HIDDEN2
 10
119.0000000000001
 20
-1.6000000000000001
 30
0.0
 11
100.2000000000001
 21
-1.6000000000000001
 31
0.0
  0
LINE
  5
43AD
  8
240
  6
CONTINUOUS
 10
105.99600000001639
 20
4.3499999999999774
 30
0.0
 11
105.99600000001971
 21
5.0
 31
0.0
  0
LINE
  5
43D1
  8
250
  6
CONTINUOUS
 10
-2.078870508136446
 20
-14.94548471947382
 30
0.0
 11
10.054462825196881
 21
-14.94548471947382
 31
0.0
  0
LINE
  5
43D2
  8
250
  6
CONTINUOUS
 10
10.054462825196881
 20
-14.94548471947382
 30
0.0
 11
14.79439865541786
 21
-6.9201103584703088
 31
0.0
  0
LINE
  5
43D3
  8
250
  6
CONTINUOUS
 10
14.79439865541786
 20
-6.9201103584703088
 30
0.0
 11
15.928451657395721
 21
-5.0
 31
0.0
  0
LINE
  5
43D4
  8
250
  6
CONTINUOUS
 10
15.04718597862608
 20
-7.0694112679110486
 30
0.0
 11
15.928451657395721
 21
-5.0
 31
0.0
  0
LINE
  5
43D5
  8
250
  6
CONTINUOUS
 10
15.928451657395721
 20
-5.0
 30
0.0
 11
14.541611332209699
 21
-6.7708094490295689
 31
0.0
  0
TEXT
  5
43D6
  8
250
  6
CONTINUOUS
 10
-2.4788705081364242
 20
-13.545484719473849
 30
0.0
 40
2.799999999999998
  1
ST10
  7
ACJISTS
  0
LINE
  5
43D7
  8
247
  6
CONTINUOUS
 10
4.25
 20
-3.5
 30
0.0
 11
8.8846153843300026
 21
-3.5
 31
0.0
  0
LINE
  5
43D8
  8
247
  6
CONTINUOUS
 10
5.0451065000120252
 20
-1.0
 30
0.0
 11
4.4429411899426441
 21
-3.0999999999160082
 31
0.0
  0
LINE
  5
43D9
  8
247
  6
CONTINUOUS
 10
5.6748485964809561
 20
-1.9961538461138839
 30
0.0
 11
4.7594639811329671
 21
-1.9961538461138839
 31
0.0
  0
ARC
  5
43DA
  8
247
  6
CONTINUOUS
 10
5.9127365980531854
 20
-1.3847190672940981
 30
0.0
 40
0.3876715809326743
 50
342.9978896752952
 51
82.924166218513619
  0
ARC
  5
43DB
  8
247
  6
CONTINUOUS
 10
5.617522443195865
 20
-1.305223131028014
 30
0.0
 40
0.6933047965358767
 50
274.74293685219902
 51
343.84922627326682
1001
GENIUS_GENOBJ-N-FIL_13
1002
{
1000
OWNER
1000
GEN
1002
}
1001
GENIUS_GENODEF_13
1002
{
1000
HIER
1070
     0
1002
}
1002
{
1000
MANEDIT
1070
     0
1002
}
1002
{
1000
NOSEL
1070
     0
1002
}
1002
{
1000
BEHIND
1070
     0
1002
}
1002
{
1000
OTHER
1070
     0
1002
}
1002
{
1000
REACTOR
1002
}
  0
LINE
  5
43DC
  8
247
  6
CONTINUOUS
 10
5.3583258052906331
 20
-3.0999999999160082
 30
0.0
 11
4.4429411899426441
 21
-3.0999999999160082
 31
0.0
  0
LINE
  5
43DD
  8
247
  6
CONTINUOUS
 10
5.0451065000120252
 20
-1.0
 30
0.0
 11
5.960491115360071
 21
-1.0
 31
0.0
  0
ARC
  5
43DE
  8
247
  6
CONTINUOUS
 10
5.6216935237331409
 20
-2.387416962767928
 30
0.0
 40
0.394857301075386
 50
335.99094165252171
 51
82.263443459069123
  0
ARC
  5
43DF
  8
247
  6
CONTINUOUS
 10
5.2875533895730751
 20
-2.391200327332625
 30
0.0
 40
0.7123241612361686
 50
275.70198516425643
 51
347.27733843682199
1001
GENIUS_GENOBJ-N-FIL_13
1002
{
1000
OWNER
1000
GEN
1002
}
1001
GENIUS_GENODEF_13
1002
{
1000
HIER
1070
     0
1002
}
1002
{
1000
MANEDIT
1070
     0
1002
}
1002
{
1000
NOSEL
1070
     0
1002
}
1002
{
1000
BEHIND
1070
     0
1002
}
1002
{
1000
OTHER
1070
     0
1002
}
1002
{
1000
REACTOR
1002
}
  0
LINE
  5
43E0
  8
247
  6
CONTINUOUS
 10
6.3160181129366011
 20
-3.0999999999160082
 30
0.0
 11
6.9181834230060399
 21
-1.0
 31
0.0
  0
LINE
  5
43E1
  8
247
  6
CONTINUOUS
 10
8.4143372690920142
 20
-1.0
 30
0.0
 11
8.0183216356964504
 21
-1.0
 31
0.0
  0
LINE
  5
43E2
  8
247
  6
CONTINUOUS
 10
7.3912603460560131
 20
-3.0999999999160082
 30
0.0
 11
7.8220295768080623
 21
-3.0999999999160082
 31
0.0
  0
ARC
  5
43E3
  8
247
  6
CONTINUOUS
 10
8.6181834229300307
 20
-2.4582995950834161
 30
0.0
 40
1.576855057639547
 50
112.3594881415292
 51
164.9932485428464
  0
ARC
  5
43E4
  8
247
  6
CONTINUOUS
 10
8.152488633866767
 20
-1.5658188585380231
 30
0.0
 40
0.6234706797009447
 50
4.9945893190753123
 51
65.166328957307613
1001
GENIUS_GENOBJ-N-FIL_13
1002
{
1000
OWNER
1000
GEN
1002
}
1001
GENIUS_GENODEF_13
1002
{
1000
HIER
1070
     0
1002
}
1002
{
1000
MANEDIT
1070
     0
1002
}
1002
{
1000
NOSEL
1070
     0
1002
}
1002
{
1000
BEHIND
1070
     0
1002
}
1002
{
1000
OTHER
1070
     0
1002
}
1002
{
1000
REACTOR
1002
}
  0
ARC
  5
43E5
  8
247
  6
CONTINUOUS
 10
7.5558160489672419
 20
-2.162102121969383
 30
0.0
 40
0.9749472149106983
 50
285.8460965557839
 51
352.3251370041624
  0
ARC
  5
43E6
  8
247
  6
CONTINUOUS
 10
7.964788361227761
 20
-2.371470401971008
 30
0.0
 40
0.9271945638692009
 50
159.71360167048971
 51
231.7887456564151
1001
GENIUS_GENOBJ-N-FIL_13
1002
{
1000
OWNER
1000
GEN
1002
}
1001
GENIUS_GENODEF_13
1002
{
1000
HIER
1070
     0
1002
}
1002
{
1000
MANEDIT
1070
     0
1002
}
1002
{
1000
NOSEL
1070
     0
1002
}
1002
{
1000
BEHIND
1070
     0
1002
}
1002
{
1000
OTHER
1070
     0
1002
}
1002
{
1000
REACTOR
1002
}
  0
LINE
  5
43E7
  8
247
  6
CONTINUOUS
 10
8.0374141921840305
 20
-2.2923076922559158
 30
0.0
 11
8.522029576780028
 21
-2.2923076922559158
 31
0.0
  0
ARC
  5
43E8
  8
247
  6
CONTINUOUS
 10
4.25
 20
-2.25
 30
0.0
 40
1.25
 50
90.0
 51
270.0
  0
LINE
  5
43E9
  8
247
  6
CONTINUOUS
 10
4.25
 20
-1.0
 30
0.0
 11
4.6961538460860179
 21
-1.0
 31
0.0
  0
ARC
  5
43EA
  8
247
  6
CONTINUOUS
 10
8.8846153843300026
 20
-2.25
 30
0.0
 40
1.25
 50
270.0
 51
90.0
  0
VIEWPORT
  5
22
 67
     1
  8
0
 10
261.51769911504419
 20
148.5
 30
0.0
 40
523.0353982300885
 41
297.0
 68
     1
 69
     1
1001
ACAD
1000
MVIEW
1002
{
1070
    16
1010
0.0
1020
0.0
1030
0.0
1010
0.0
1020
0.0
1030
1.0
1040
0.0
1040
297.0
1040
261.51769911504419
1040
148.5
1040
50.0
1040
0.0
1040
0.0
1070
     0
1070
   100
1070
     1
1070
     1
1070
     0
1070
     0
1070
     0
1070
     0
1040
0.0
1040
0.0
1040
0.0
1040
1.0
1040
1.0
1040
10.0
1040
10.0
1070
     0
1002
{
1002
}
1002
}
1001
GENIUS_GENODEF_13
1002
{
1000
HIER
1070
     0
1002
}
1002
{
1000
MANEDIT
1070
     0
1002
}
1002
{
1000
NOSEL
1070
     0
1002
}
1002
{
1000
BEHIND
1070
     0
1002
}
1002
{
1000
OTHER
1070
     0
1002
}
1002
{
1000
REACTOR
1002
}
1001
GENIUS_GENOBJ-N-SDF_13
1002
{
1000
OWNER
1000
GEN
1002
}
1001
GENIUS_GENSCREG_15
1000
PF
1040
1.0
1000
DF
1040
1.0
1000
MIN
1011
0.0
1021
0.0
1031
0.0
1021
0.0
1031
0.0
1000
MAX
1011
523.0353982300885
1021
0.0
1031
0.0
1021
297.0
1031
0.0
1000
FLAGS
1070
     4
  0
ENDSEC
  0
EOF
