  0
SECTION
  2
HEADER
  9
$ACADVER
  1
AC1009
  9
$INSBASE
 10
0.0
 20
0.0
 30
0.0
  9
$EXTMIN
 10
-96.197799103099143
 20
-27.85217239504232
 30
-0.0015258207003583
  9
$EXTMAX
 10
15.55787695077936
 20
23.561554226979581
 30
0.0000000349246037
  9
$LIMMIN
 10
0.0
 20
0.0
  9
$LIMMAX
 10
297.0
 20
210.0
  9
$ORTHOMODE
 70
     1
  9
$REGENMODE
 70
     1
  9
$FILLMODE
 70
     1
  9
$QTEXTMODE
 70
     0
  9
$MIRRTEXT
 70
     1
  9
$DRAGMODE
 70
     2
  9
$LTSCALE
 40
10.0
  9
$OSMODE
 70
  2597
  9
$ATTMODE
 70
     1
  9
$TEXTSIZE
 40
3.0
  9
$TRACEWID
 40
1.0
  9
$TEXTSTYLE
  7
YOKO
  9
$CLAYER
  8
240
  9
$CELTYPE
  6
BYLAYER
  9
$CECOLOR
 62
   256
  9
$DIMSCALE
 40
1.0
  9
$DIMASZ
 40
2.2299999999999991
  9
$DIMEXO
 40
0.5
  9
$DIMDLI
 40
7.0
  9
$DIMRND
 40
0.0
  9
$DIMDLE
 40
0.0
  9
$DIMEXE
 40
1.0
  9
$DIMTP
 40
0.0
  9
$DIMTM
 40
0.01
  9
$DIMTXT
 40
2.7999999999999989
  9
$DIMCEN
 40
0.0
  9
$DIMTSZ
 40
0.0
  9
$DIMTOL
 70
     0
  9
$DIMLIM
 70
     0
  9
$DIMTIH
 70
     0
  9
$DIMTOH
 70
     0
  9
$DIMSE1
 70
     0
  9
$DIMSE2
 70
     0
  9
$DIMTAD
 70
     3
  9
$DIMZIN
 70
     9
  9
$DIMBLK
  1
OPEN
  9
$DIMASO
 70
     1
  9
$DIMSHO
 70
     1
  9
$DIMPOST
  1

  9
$DIMAPOST
  1

  9
$DIMALT
 70
     0
  9
$DIMALTD
 70
     2
  9
$DIMALTF
 40
25.399999999999999
  9
$DIMLFAC
 40
1.0
  9
$DIMTOFL
 70
     1
  9
$DIMTVP
 40
0.0
  9
$DIMTIX
 70
     1
  9
$DIMSOXD
 70
     0
  9
$DIMSAH
 70
     0
  9
$DIMBLK1
  1

  9
$DIMBLK2
  1

  9
$DIMSTYLE
  2
BIGT
  9
$DIMCLRD
 70
   256
  9
$DIMCLRE
 70
   256
  9
$DIMCLRT
 70
    40
  9
$DIMTFAC
 40
1.0
  9
$DIMGAP
 40
1.0
  9
$LUNITS
 70
     2
  9
$LUPREC
 70
     3
  9
$SKETCHINC
 40
1.0
  9
$FILLETRAD
 40
0.2
  9
$AUNITS
 70
     0
  9
$AUPREC
 70
     3
  9
$MENU
  1
.
  9
$ELEVATION
 40
0.0
  9
$PELEVATION
 40
0.0
  9
$THICKNESS
 40
0.0
  9
$LIMCHECK
 70
     0
  9
$BLIPMODE
 70
     0
  9
$CHAMFERA
 40
0.25
  9
$CHAMFERB
 40
0.25
  9
$SKPOLY
 70
     0
  9
$TDCREATE
 40
2454679.4157496071
  9
$TDUPDATE
 40
2454679.4264883571
  9
$TDINDWG
 40
0.0107396528
  9
$TDUSRTIMER
 40
0.0107396528
  9
$USRTIMER
 70
     1
  9
$ANGBASE
 50
0.0
  9
$ANGDIR
 70
     0
  9
$PDMODE
 70
     1
  9
$PDSIZE
 40
0.0
  9
$PLINEWID
 40
0.0
  9
$COORDS
 70
     2
  9
$SPLFRAME
 70
     0
  9
$SPLINETYPE
 70
     6
  9
$SPLINESEGS
 70
     4
  9
$ATTDIA
 70
     1
  9
$ATTREQ
 70
     1
  9
$HANDLING
 70
     1
  9
$HANDSEED
  5
193B
  9
$SURFTAB1
 70
     6
  9
$SURFTAB2
 70
     6
  9
$SURFTYPE
 70
     6
  9
$SURFU
 70
     6
  9
$SURFV
 70
     6
  9
$UCSNAME
  2

  9
$UCSORG
 10
0.0
 20
0.0
 30
0.0
  9
$UCSXDIR
 10
1.0
 20
0.0
 30
0.0
  9
$UCSYDIR
 10
0.0
 20
1.0
 30
0.0
  9
$PUCSNAME
  2

  9
$PUCSORG
 10
0.0
 20
0.0
 30
0.0
  9
$PUCSXDIR
 10
1.0
 20
0.0
 30
0.0
  9
$PUCSYDIR
 10
0.0
 20
1.0
 30
0.0
  9
$USERI1
 70
     1
  9
$USERI2
 70
     0
  9
$USERI3
 70
     0
  9
$USERI4
 70
     0
  9
$USERI5
 70
     0
  9
$USERR1
 40
0.0
  9
$USERR2
 40
0.0
  9
$USERR3
 40
0.0
  9
$USERR4
 40
0.0
  9
$USERR5
 40
0.0
  9
$WORLDVIEW
 70
     1
  9
$SHADEDGE
 70
     3
  9
$SHADEDIF
 70
    70
  9
$TILEMODE
 70
     1
  9
$MAXACTVP
 70
    16
  9
$PLIMCHECK
 70
     0
  9
$PEXTMIN
 10
1.0000000000000000E+020
 20
1.0000000000000000E+020
 30
1.0000000000000000E+020
  9
$PEXTMAX
 10
-1.0000000000000000E+020
 20
-1.0000000000000000E+020
 30
-1.0000000000000000E+020
  9
$PLIMMIN
 10
0.0
 20
0.0
  9
$PLIMMAX
 10
420.0
 20
297.0
  9
$UNITMODE
 70
     0
  9
$VISRETAIN
 70
     1
  9
$PLINEGEN
 70
     0
  9
$PSLTSCALE
 70
     1
  0
ENDSEC
  0
SECTION
  2
TABLES
  0
TABLE
  2
VPORT
 70
    61
  0
VPORT
  2
*ACTIVE
 70
     0
 10
0.0
 20
0.0
 11
1.0
 21
1.0
 12
-40.319961076159899
 22
-2.1453090840313669
 13
0.0
 23
0.0
 14
7.0
 24
7.0
 15
7.0
 25
7.0
 16
0.0
 26
0.0
 36
1.0
 17
0.0
 27
0.0
 37
0.0
 40
75.556048673563836
 41
1.4864532019704431
 42
50.0
 43
0.0
 44
0.0
 50
0.0
 51
0.0
 71
     0
 72
  2000
 73
     1
 74
     0
 75
     0
 76
     1
 77
     0
 78
     0
  0
ENDTAB
  0
TABLE
  2
LTYPE
 70
    16
  0
LTYPE
  2
CONTINUOUS
 70
     0
  3
Solid line
 72
    65
 73
     0
 40
0.0
  0
LTYPE
  2
CENTER2
 70
     0
  3
___ _ ___ _ ___ _ ___ _ ___ _ ___ _ ___ _ ___ _
 72
    65
 73
     4
 40
1.125
 49
0.75
 49
-0.125
 49
0.125
 49
-0.125
  0
LTYPE
  2
HIDDEN2
 70
     0
  3
_ _ _ _ _ _ _ _ _ _ _ _ _ _ _ _ _ _ _ _ _ _ _ _
 72
    65
 73
     2
 40
0.1875
 49
0.125
 49
-0.0625
  0
LTYPE
  2
PHANTOM2
 70
     0
  3
___ _ _ ___ _ _ ___ _ _ ___ _ _ ___ _ _ ___ _ _
 72
    65
 73
     6
 40
1.25
 49
0.625
 49
-0.125
 49
0.125
 49
-0.125
 49
0.125
 49
-0.125
  0
LTYPE
  2
CENTER
 70
     0
  3
____ _ ____ _ ____ _ ____ _ ____ _ ____ _ ____ 
 72
    65
 73
     4
 40
2.0
 49
1.25
 49
-0.25
 49
0.25
 49
-0.25
  0
LTYPE
  2
AM_ISO02W050
 70
     0
  3
__ __ __ __ __ __ __ __ __ __ __ __ __ __ __
 72
    65
 73
     2
 40
7.5
 49
6.0
 49
-1.5
  0
LTYPE
  2
AMCONSTR
 70
     0
  3
_______________________
 72
    65
 73
     2
 40
9999.0
 49
9999.0
 49
0.0
  0
LTYPE
  2
ACISOWELD
 70
     0
  3
_ _ _ _ _
 72
    65
 73
     2
 40
2.0
 49
2.0
 49
-1.0
  0
LTYPE
  2
ACISOTGB
 70
     0
  3
__ . . __ . .
 72
    65
 73
     6
 40
9.0
 49
4.0
 49
-1.0
 49
1.0
 49
-1.0
 49
1.0
 49
-1.0
  0
LTYPE
  2
ACISOTGL
 70
     0
  3
_ _ _ _ _
 72
    65
 73
     2
 40
3.0
 49
2.0
 49
-1.0
  0
LTYPE
  2
ACJISTGB
 70
     0
  3
__ . . __ . .
 72
    65
 73
     6
 40
9.0
 49
4.0
 49
-1.0
 49
1.0
 49
-1.0
 49
1.0
 49
-1.0
  0
LTYPE
  2
ACJISTGL
 70
     0
  3
_ _ _ _ _
 72
    65
 73
     2
 40
3.0
 49
2.0
 49
-1.0
  0
LTYPE
  2
HIDDEN
 70
     0
  3
Hidden __ __ __ __ __ __ __ __ __ __ __ __ __ _
 72
    65
 73
     2
 40
9.5249999999999986
 49
6.3499999999999988
 49
-3.1749999999999989
  0
LTYPE
  2
ACANSTGB
 70
     0
  3
__ . . __ . .
 72
    65
 73
     6
 40
0.35433070866
 49
0.15748031496
 49
-0.03937007874
 49
0.03937007874
 49
-0.03937007874
 49
0.03937007874
 49
-0.03937007874
  0
LTYPE
  2
ACANSTGL
 70
     0
  3
_ _ _ _ _
 72
    65
 73
     2
 40
0.11811023622
 49
0.07874015748
 49
-0.03937007874
  0
ENDTAB
  0
TABLE
  2
LAYER
 70
    14
  0
LAYER
  2
0
 70
     0
 62
     7
  6
CONTINUOUS
  0
LAYER
  2
DEFPOINTS
 70
     0
 62
     7
  6
CONTINUOUS
  0
LAYER
  2
245
 70
     0
 62
     2
  6
CENTER2
  0
LAYER
  2
240
 70
     0
 62
     4
  6
CONTINUOUS
  0
LAYER
  2
241
 70
     0
 62
   211
  6
CONTINUOUS
  0
LAYER
  2
246
 70
     0
 62
     3
  6
PHANTOM2
  0
LAYER
  2
247
 70
     0
 62
    60
  6
CONTINUOUS
  0
LAYER
  2
250
 70
     0
 62
     3
  6
CONTINUOUS
  0
ENDTAB
  0
TABLE
  2
STYLE
 70
     8
  0
STYLE
  2
STANDARD
 70
     0
 40
0.0
 41
1.0
 50
0.0
 71
     0
 42
3.0
  3
romans.shx
  4
extfont.shx
  0
STYLE
  2
ACISOTS
 70
     0
 40
1.0
 41
1.0
 50
0.0
 71
     0
 42
3.0
  3
amgdt.shx
  4
extfont.shx
  0
STYLE
  2
ACISOGDT
 70
     0
 40
0.0
 41
1.0
 50
0.0
 71
     0
 42
3.0
  3
amgdt.shx
  4
extfont.shx
  0
STYLE
  2
ACJISTS
 70
     0
 40
1.0
 41
1.0
 50
0.0
 71
     0
 42
3.0
  3
amgdt.shx
  4
extfont.shx
  0
STYLE
  2
ACJISGDT
 70
     0
 40
0.0
 41
1.0
 50
0.0
 71
     0
 42
3.0
  3
amgdt.shx
  4
extfont.shx
  0
STYLE
  2
YOKO
 70
     0
 40
0.0
 41
1.0
 50
0.0
 71
     0
 42
3.0
  3
romans.shx
  4
extfont.shx
  0
STYLE
  2
ACANSTS
 70
     0
 40
1.0
 41
1.0
 50
0.0
 71
     0
 42
3.0
  3
romans.shx
  4
extfont.shx
  0
STYLE
  2
ACANSGDT
 70
     0
 40
0.0
 41
1.0
 50
0.0
 71
     0
 42
3.0
  3
amgdtans.shx
  4

  0
ENDTAB
  0
TABLE
  2
VIEW
 70
     0
  0
ENDTAB
  0
TABLE
  2
UCS
 70
     0
  0
ENDTAB
  0
TABLE
  2
APPID
 70
    32
  0
APPID
  2
ACAD
 70
     0
  0
APPID
  2
GLOBAL
 70
     0
  0
APPID
  2
DETAIL
 70
     0
  0
APPID
  2
GRPNAME
 70
     0
  0
APPID
  2
GPARA
 70
     0
  0
APPID
  2
MCAD_NO_VIS
 70
     0
  0
APPID
  2
ACAD_TEMP_GRAPHIC
 70
     0
  0
APPID
  2
ACATTRIBSERVICES
 70
     0
  0
APPID
  2
GENIUS_GENSCREG_15
 70
     0
  0
APPID
  2
GENIUS_GENODEF_13
 70
     0
  0
APPID
  2
GENIUS_GENOBJ-N-SDF_13
 70
     0
  0
APPID
  2
GENIUS_GENREC_14
 70
     0
  0
APPID
  2
GENIUS_GENOBJ-N-REC_13
 70
     0
  0
APPID
  2
GENIUS_GENDIMSH_14
 70
     0
  0
APPID
  2
GENIUS_GENOBJ-N-DIM_13
 70
     0
  0
APPID
  2
GENIUS_GENDIM_13
 70
     0
  0
APPID
  2
GENIUS_GENDTOL_13
 70
     0
  0
APPID
  2
GENIUS_GENOLIS_13
 70
     0
  0
APPID
  2
GENIUS_GENOENT_13
 70
     0
  0
APPID
  2
GENIUS_GENOBJ-F-FEM_13
 70
     0
  0
APPID
  2
GENIUS_GENOREF_13
 70
     0
  0
APPID
  2
GENIUS_GEFFEM_13
 70
     0
  0
APPID
  2
GENIUS_GEFFEMP_13
 70
     0
  0
APPID
  2
AD_DRAW
 70
     0
  0
APPID
  2
DESIGNERASSEMBLIES
 70
     0
  0
APPID
  2
ACADM_DIM_EDIT
 70
     0
  0
APPID
  2
AMDT_DM_ADJ
 70
     0
  0
APPID
  2
ITEMNAME
 70
     0
  0
APPID
  2
GENIUS_GENOBJ-N-FIL_13
 70
     0
  0
APPID
  2
HATCH_TYPE
 70
     0
  0
APPID
  2
HATCH_DISPLAY
 70
     0
  0
APPID
  2
HATCH_DISTANCE
 70
     0
  0
ENDTAB
  0
TABLE
  2
DIMSTYLE
 70
    31
  0
DIMSTYLE
  2
BIGT
 70
     0
  3

  4

  5
OPEN
  6

  7

 40
1.0
 41
2.2299999999999991
 42
0.5
 43
7.0
 44
1.0
 45
0.0
 46
0.0
 47
0.0
 48
0.01
140
2.7999999999999989
141
0.0
142
0.0
143
25.399999999999999
144
1.0
145
0.0
146
1.0
147
1.0
 71
     0
 72
     0
 73
     0
 74
     0
 75
     0
 76
     0
 77
     3
 78
     9
170
     0
171
     2
172
     1
173
     0
174
     1
175
     0
176
   256
177
   256
178
    40
  0
DIMSTYLE
  2
AM_ISO
 70
     0
  3

  4
"
  5

  6

  7

 40
1.0
 41
2.5
 42
1.0
 43
10.0
 44
1.0
 45
0.0
 46
0.0
 47
0.1
 48
0.1
140
3.5
141
0.0
142
0.0
143
0.0393701
144
1.0
145
0.0
146
0.71
147
1.5
 71
     0
 72
     0
 73
     0
 74
     0
 75
     0
 76
     0
 77
     1
 78
     8
170
     0
171
     2
172
     1
173
     0
174
     0
175
     0
176
   256
177
   256
178
     2
  0
DIMSTYLE
  2
AM_ISO$3
 70
     0
  3

  4
"
  5

  6

  7

 40
1.0
 41
2.5
 42
1.0
 43
10.0
 44
1.0
 45
0.0
 46
0.0
 47
0.1
 48
0.1
140
3.5
141
0.0
142
0.0
143
0.0393701
144
1.0
145
0.0
146
0.71
147
1.5
 71
     0
 72
     0
 73
     0
 74
     1
 75
     0
 76
     0
 77
     1
 78
     8
170
     0
171
     2
172
     0
173
     0
174
     0
175
     0
176
   256
177
   256
178
     2
  0
DIMSTYLE
  2
AM_ISO$4
 70
     0
  3

  4
"
  5

  6

  7

 40
1.0
 41
2.5
 42
1.0
 43
10.0
 44
1.0
 45
0.0
 46
0.0
 47
0.1
 48
0.1
140
3.5
141
0.0
142
0.0
143
0.0393701
144
1.0
145
0.0
146
0.71
147
1.5
 71
     0
 72
     0
 73
     0
 74
     1
 75
     0
 76
     0
 77
     1
 78
     8
170
     0
171
     2
172
     0
173
     0
174
     0
175
     0
176
   256
177
   256
178
     2
  0
DIMSTYLE
  2
AM_ISO$6
 70
     0
  3

  4
"
  5

  6

  7

 40
1.0
 41
2.5
 42
1.0
 43
10.0
 44
1.0
 45
0.0
 46
0.0
 47
0.1
 48
0.1
140
3.5
141
0.0
142
0.0
143
0.0393701
144
1.0
145
0.0
146
0.71
147
1.5
 71
     0
 72
     0
 73
     0
 74
     0
 75
     0
 76
     0
 77
     0
 78
     8
170
     0
171
     2
172
     1
173
     0
174
     0
175
     0
176
   256
177
   256
178
     2
  0
DIMSTYLE
  2
AM_ISO$7
 70
     0
  3

  4
"
  5

  6

  7

 40
1.0
 41
2.5
 42
1.0
 43
10.0
 44
1.0
 45
0.0
 46
0.0
 47
0.1
 48
0.1
140
5.0
141
0.0
142
0.0
143
0.0393701
144
1.0
145
0.0
146
0.71
147
1.5
 71
     0
 72
     0
 73
     0
 74
     0
 75
     0
 76
     0
 77
     1
 78
     8
170
     0
171
     2
172
     1
173
     0
174
     0
175
     0
176
   256
177
   256
178
     2
  0
DIMSTYLE
  2
AM_ISO$SF
 70
     0
  3

  4
"
  5

  6

  7

 40
1.0
 41
2.5
 42
1.0
 43
10.0
 44
1.0
 45
0.0
 46
0.0
 47
0.1
 48
0.1
140
3.5
141
0.0
142
0.0
143
0.0393701
144
1.0
145
0.0
146
0.71
147
1.5
 71
     0
 72
     0
 73
     0
 74
     0
 75
     1
 76
     1
 77
     1
 78
     8
170
     0
171
     2
172
     1
173
     0
174
     0
175
     0
176
   256
177
   256
178
     2
  0
DIMSTYLE
  2
AM_ISO$SH
 70
     0
  3

  4
"
  5

  6
GENAXEH
  7

 40
1.0
 41
2.5
 42
1.0
 43
10.0
 44
1.0
 45
0.0
 46
0.0
 47
0.1
 48
0.1
140
3.5
141
0.0
142
0.0
143
0.0393701
144
2.0
145
0.0
146
0.71
147
1.5
 71
     0
 72
     0
 73
     0
 74
     0
 75
     1
 76
     1
 77
     1
 78
     8
170
     0
171
     2
172
     1
173
     1
174
     0
175
     0
176
   256
177
   256
178
     2
  0
DIMSTYLE
  2
BIGT$2
 70
     0
  3

  4

  5
OPEN
  6

  7

 40
1.0
 41
2.2299999999999991
 42
0.5
 43
7.0
 44
1.0
 45
0.0
 46
0.0
 47
0.0
 48
0.01
140
2.7999999999999989
141
0.0
142
0.0
143
25.399999999999999
144
1.0
145
0.0
146
1.0
147
1.0
 71
     0
 72
     0
 73
     0
 74
     0
 75
     0
 76
     0
 77
     3
 78
     9
170
     0
171
     2
172
     1
173
     0
174
     0
175
     0
176
   256
177
   256
178
    40
  0
DIMSTYLE
  2
BIGT$3
 70
     0
  3

  4

  5
OPEN
  6

  7

 40
1.0
 41
2.2299999999999991
 42
0.5
 43
2.5
 44
1.0
 45
0.0
 46
0.0
 47
0.0
 48
0.01
140
2.7999999999999989
141
0.0
142
0.0
143
25.399999999999999
144
1.0
145
0.0
146
1.0
147
1.0
 71
     0
 72
     0
 73
     0
 74
     0
 75
     0
 76
     0
 77
     3
 78
     9
170
     0
171
     2
172
     1
173
     0
174
     0
175
     0
176
   256
177
   256
178
    40
  0
DIMSTYLE
  2
BIGT$7
 70
     0
  3

  4

  5
OPEN
  6

  7

 40
0.0
 41
2.2299999999999991
 42
0.5
 43
7.0
 44
1.0
 45
0.0
 46
0.0
 47
0.0
 48
0.01
140
2.7999999999999989
141
0.0
142
0.0
143
25.399999999999999
144
1.0
145
0.0
146
1.0
147
1.0
 71
     0
 72
     0
 73
     0
 74
     0
 75
     0
 76
     0
 77
     3
 78
     9
170
     0
171
     2
172
     0
173
     0
174
     0
175
     0
176
   256
177
   256
178
    40
  0
DIMSTYLE
  2
BIGT$6
 70
     0
  3

  4

  5
OPEN
  6

  7

 40
1.0
 41
2.2299999999999991
 42
0.5
 43
2.5
 44
1.0
 45
0.0
 46
0.0
 47
0.0
 48
0.01
140
2.7999999999999989
141
0.0
142
0.0
143
25.399999999999999
144
1.0
145
0.0
146
1.0
147
1.0
 71
     0
 72
     0
 73
     0
 74
     0
 75
     0
 76
     0
 77
     3
 78
     9
170
     0
171
     2
172
     1
173
     0
174
     0
175
     0
176
   256
177
   256
178
    40
  0
DIMSTYLE
  2
BIGT$0
 70
     0
  3

  4

  5
OPEN
  6

  7

 40
1.0
 41
2.2299999999999991
 42
0.5
 43
7.0
 44
1.0
 45
0.0
 46
0.0
 47
0.0
 48
0.01
140
2.7999999999999989
141
0.0
142
0.0
143
25.399999999999999
144
1.0
145
0.0
146
1.0
147
1.0
 71
     0
 72
     0
 73
     0
 74
     0
 75
     0
 76
     0
 77
     3
 78
     9
170
     0
171
     2
172
     1
173
     0
174
     0
175
     0
176
   256
177
   256
178
    40
  0
DIMSTYLE
  2
BIGT$4
 70
     0
  3

  4

  5
OPEN
  6

  7

 40
1.0
 41
2.2299999999999991
 42
0.5
 43
2.5
 44
1.0
 45
0.0
 46
0.0
 47
0.0
 48
0.01
140
2.7999999999999989
141
0.0
142
0.0
143
25.399999999999999
144
1.0
145
0.0
146
1.0
147
1.0
 71
     0
 72
     0
 73
     0
 74
     0
 75
     0
 76
     0
 77
     3
 78
     9
170
     0
171
     2
172
     1
173
     0
174
     0
175
     0
176
   256
177
   256
178
    40
  0
DIMSTYLE
  2
BIGT$SH
 70
     0
  3

  4

  5
OPEN
  6

  7

 40
1.0
 41
2.2299999999999991
 42
0.5
 43
7.0
 44
1.0
 45
0.0
 46
0.0
 47
0.0
 48
0.0
140
2.7999999999999989
141
0.0
142
0.0
143
25.399999999999999
144
1.0
145
0.0
146
1.0
147
1.0
 71
     0
 72
     0
 73
     0
 74
     0
 75
     0
 76
     0
 77
     3
 78
     9
170
     0
171
     2
172
     1
173
     0
174
     0
175
     0
176
   256
177
   256
178
    40
  0
DIMSTYLE
  2
BIGT$SF
 70
     0
  3

  4

  5
OPEN
  6

  7

 40
1.0
 41
2.2299999999999991
 42
0.5
 43
7.0
 44
1.0
 45
0.0
 46
0.0
 47
0.0
 48
0.0
140
2.7999999999999989
141
0.0
142
0.0
143
25.399999999999999
144
1.0
145
0.0
146
1.0
147
1.0
 71
     0
 72
     0
 73
     0
 74
     0
 75
     0
 76
     0
 77
     3
 78
     9
170
     0
171
     2
172
     1
173
     0
174
     0
175
     0
176
   256
177
   256
178
    40
  0
DIMSTYLE
  2
TECHNICAL_OSAKA
 70
     0
  3

  4
"
  5
OPEN30
  6

  7

 40
1.0
 41
2.5
 42
1.0
 43
10.0
 44
1.0
 45
0.0
 46
0.0
 47
0.1
 48
0.1
140
2.7999999999999989
141
0.0
142
0.0
143
0.0393701
144
1.0
145
0.0
146
0.71
147
1.5
 71
     0
 72
     0
 73
     0
 74
     0
 75
     0
 76
     0
 77
     3
 78
     8
170
     0
171
     2
172
     1
173
     0
174
     0
175
     0
176
   256
177
   256
178
    40
  0
DIMSTYLE
  2
TECHNICAL_OSAKA$3
 70
     0
  3

  4
"
  5
OPEN30
  6

  7

 40
1.0
 41
2.5
 42
1.0
 43
10.0
 44
1.0
 45
0.0
 46
0.0
 47
0.1
 48
0.1
140
2.7999999999999989
141
0.0
142
0.0
143
0.0393701
144
1.0
145
0.0
146
0.71
147
1.5
 71
     0
 72
     0
 73
     0
 74
     1
 75
     0
 76
     0
 77
     3
 78
     8
170
     0
171
     2
172
     0
173
     0
174
     0
175
     0
176
   256
177
   256
178
    40
  0
DIMSTYLE
  2
TECHNICAL_OSAKA$4
 70
     0
  3

  4
"
  5
OPEN30
  6

  7

 40
1.0
 41
2.5
 42
1.0
 43
10.0
 44
1.0
 45
0.0
 46
0.0
 47
0.1
 48
0.1
140
2.7999999999999989
141
0.0
142
0.0
143
0.0393701
144
1.0
145
0.0
146
0.71
147
1.5
 71
     0
 72
     0
 73
     0
 74
     1
 75
     0
 76
     0
 77
     3
 78
     8
170
     0
171
     2
172
     0
173
     0
174
     0
175
     0
176
   256
177
   256
178
    40
  0
DIMSTYLE
  2
TECHNICAL_OSAKA$6
 70
     0
  3

  4
"
  5
OPEN30
  6

  7

 40
1.0
 41
2.5
 42
1.0
 43
10.0
 44
1.0
 45
0.0
 46
0.0
 47
0.1
 48
0.1
140
2.7999999999999989
141
0.0
142
0.0
143
0.0393701
144
1.0
145
0.0
146
0.71
147
1.5
 71
     0
 72
     0
 73
     0
 74
     0
 75
     0
 76
     0
 77
     0
 78
     8
170
     0
171
     2
172
     1
173
     0
174
     0
175
     0
176
   256
177
   256
178
    40
  0
DIMSTYLE
  2
TECHNICAL_OSAKA$7
 70
     0
  3

  4
"
  5
OPEN30
  6

  7

 40
1.0
 41
2.5
 42
1.0
 43
10.0
 44
1.0
 45
0.0
 46
0.0
 47
0.1
 48
0.1
140
2.7999999999999989
141
0.0
142
0.0
143
0.0393701
144
1.0
145
0.0
146
0.71
147
1.5
 71
     0
 72
     0
 73
     0
 74
     0
 75
     0
 76
     0
 77
     3
 78
     8
170
     0
171
     2
172
     1
173
     0
174
     0
175
     0
176
   256
177
   256
178
    40
  0
DIMSTYLE
  2
TECHNICAL_OSAKA$SF
 70
     0
  3

  4
"
  5
OPEN30
  6
OPEN30
  7
OPEN30
 40
1.0
 41
2.5
 42
1.0
 43
10.0
 44
1.0
 45
0.0
 46
0.0
 47
0.1
 48
0.1
140
3.5
141
0.0
142
0.0
143
0.0393701
144
1.0
145
0.0
146
0.71
147
1.5
 71
     0
 72
     0
 73
     0
 74
     0
 75
     1
 76
     1
 77
     3
 78
     8
170
     0
171
     2
172
     1
173
     0
174
     0
175
     0
176
   256
177
   256
178
    40
  0
DIMSTYLE
  2
TECHNICAL_OSAKA$SH
 70
     0
  3

  4
"
  5
OPEN30
  6
GENAXEH
  7
OPEN30
 40
1.0
 41
2.5
 42
1.0
 43
10.0
 44
1.0
 45
0.0
 46
0.0
 47
0.1
 48
0.1
140
3.5
141
0.0
142
0.0
143
0.0393701
144
2.0
145
0.0
146
0.71
147
1.5
 71
     0
 72
     0
 73
     0
 74
     0
 75
     1
 76
     1
 77
     3
 78
     8
170
     0
171
     2
172
     1
173
     1
174
     0
175
     0
176
   256
177
   256
178
    40
  0
DIMSTYLE
  2
AM_ANSI
 70
     0
  3

  4
mm
  5

  6

  7

 40
1.0
 41
0.1
 42
0.05
 43
0.5
 44
0.1
 45
0.0
 46
0.0
 47
0.1
 48
0.1
140
0.12
141
0.0
142
0.0
143
25.399999999999999
144
1.0
145
0.0
146
0.71
147
0.06
 71
     0
 72
     0
 73
     1
 74
     1
 75
     0
 76
     0
 77
     0
 78
     7
170
     0
171
     2
172
     0
173
     0
174
     0
175
     0
176
   256
177
   256
178
     2
  0
DIMSTYLE
  2
AM_ANSI$3
 70
     0
  3

  4
mm
  5

  6

  7

 40
1.0
 41
0.1
 42
0.05
 43
0.5
 44
0.1
 45
0.0
 46
0.0
 47
0.1
 48
0.1
140
0.12
141
0.0
142
0.0
143
25.399999999999999
144
1.0
145
0.0
146
0.71
147
0.06
 71
     0
 72
     0
 73
     1
 74
     1
 75
     0
 76
     0
 77
     0
 78
     7
170
     0
171
     2
172
     0
173
     0
174
     0
175
     0
176
   256
177
   256
178
     2
  0
DIMSTYLE
  2
AM_ANSI$4
 70
     0
  3

  4
mm
  5

  6

  7

 40
1.0
 41
0.1
 42
0.05
 43
0.5
 44
0.1
 45
0.0
 46
0.0
 47
0.1
 48
0.1
140
0.12
141
0.0
142
0.0
143
25.399999999999999
144
1.0
145
0.0
146
0.71
147
0.06
 71
     0
 72
     0
 73
     1
 74
     1
 75
     0
 76
     0
 77
     0
 78
     7
170
     0
171
     2
172
     0
173
     0
174
     0
175
     0
176
   256
177
   256
178
     2
  0
DIMSTYLE
  2
AM_ANSI$7
 70
     0
  3

  4
mm
  5

  6

  7

 40
1.0
 41
0.1
 42
0.05
 43
0.5
 44
0.1
 45
0.0
 46
0.0
 47
0.1
 48
0.1
140
0.24
141
0.0
142
0.0
143
25.399999999999999
144
1.0
145
0.0
146
0.71
147
0.06
 71
     0
 72
     0
 73
     1
 74
     1
 75
     0
 76
     0
 77
     0
 78
     7
170
     0
171
     2
172
     0
173
     0
174
     0
175
     0
176
   256
177
   256
178
     2
  0
DIMSTYLE
  2
AM_ANSI$SF
 70
     0
  3

  4
mm
  5

  6

  7

 40
1.0
 41
0.1
 42
0.05
 43
0.5
 44
0.1
 45
0.0
 46
0.0
 47
0.1
 48
0.1
140
0.12
141
0.0
142
0.0
143
25.399999999999999
144
1.0
145
0.0
146
0.71
147
0.06
 71
     0
 72
     0
 73
     1
 74
     1
 75
     1
 76
     1
 77
     0
 78
     7
170
     0
171
     2
172
     0
173
     0
174
     0
175
     0
176
   256
177
   256
178
     2
  0
DIMSTYLE
  2
AM_ANSI$SH
 70
     0
  3

  4
mm
  5

  6

  7

 40
1.0
 41
0.1
 42
0.05
 43
0.5
 44
0.1
 45
0.0
 46
0.0
 47
0.1
 48
0.1
140
0.12
141
0.0
142
0.0
143
25.399999999999999
144
1.0
145
0.0
146
0.71
147
0.06
 71
     0
 72
     0
 73
     1
 74
     1
 75
     1
 76
     1
 77
     0
 78
     7
170
     0
171
     2
172
     0
173
     1
174
     0
175
     0
176
   256
177
   256
178
     2
  0
ENDTAB
  0
ENDSEC
  0
SECTION
  2
BLOCKS
  0
BLOCK
  8
0
  2
$MODEL_SPACE
 70
     0
 10
0.0
 20
0.0
 30
0.0
  3
$MODEL_SPACE
  1

  0
ENDBLK
  5
1C
  8
0
  0
BLOCK
 67
     1
  8
0
  2
$PAPER_SPACE
 70
     0
 10
0.0
 20
0.0
 30
0.0
  3
$PAPER_SPACE
  1

  0
ENDBLK
  5
19
 67
     1
  8
0
  0
BLOCK
  8
0
  2
_OPEN
 70
     0
 10
0.0
 20
0.0
 30
0.0
  3
_OPEN
  1

  0
LINE
  5
595
  8
0
  6
BYBLOCK
 62
     0
 10
-1.0
 20
0.1666666666666666
 30
0.0
 11
0.0
 21
0.0
 31
0.0
  0
LINE
  5
596
  8
0
  6
BYBLOCK
 62
     0
 10
-1.0
 20
-0.1666666666666666
 30
0.0
 11
0.0
 21
0.0
 31
0.0
  0
LINE
  5
597
  8
0
  6
BYBLOCK
 62
     0
 10
0.0
 20
0.0
 30
0.0
 11
-1.0
 21
0.0
 31
0.0
  0
ENDBLK
  5
599
  8
0
  0
BLOCK
  8
0
  2
GENAXEH
 70
     0
 10
0.0
 20
0.0
 30
0.0
  3
GENAXEH
  1

  0
LINE
  5
6E8
  8
0
 10
-1.0
 20
0.0
 30
0.0
 11
1.0
 21
0.0
 31
0.0
  0
ENDBLK
  5
6EA
  8
0
  0
BLOCK
  8
0
  2
_OPEN30
 70
     0
 10
0.0
 20
0.0
 30
0.0
  3
_OPEN30
  1

  0
LINE
  5
E8F
  8
0
  6
BYBLOCK
 62
     0
 10
-1.0
 20
0.26794919
 30
0.0
 11
0.0
 21
0.0
 31
0.0
  0
LINE
  5
E90
  8
0
  6
BYBLOCK
 62
     0
 10
0.0
 20
0.0
 30
0.0
 11
-1.0
 21
-0.26794919
 31
0.0
  0
LINE
  5
E91
  8
0
  6
BYBLOCK
 62
     0
 10
0.0
 20
0.0
 30
0.0
 11
-1.0
 21
0.0
 31
0.0
  0
ENDBLK
  5
E93
  8
0
  0
BLOCK
  8
0
  2
*X27
 70
     1
 10
0.0
 20
0.0
 30
0.0
  3
*X27
  1

  0
LINE
  5
176C
  8
0
 62
     0
 10
4.273162646078692
 20
-5.8571670211471281
 30
0.0
 11
3.510115154589633
 21
-5.094119529658065
 31
0.0
  0
LINE
  5
176D
  8
0
 62
     0
 10
3.4940719416106631
 20
-5.3367076929658772
 30
0.0
 11
3.1883917659253971
 21
-5.03102751728062
 31
0.0
  0
LINE
  5
176E
  8
0
 62
     0
 10
4.3362546584561441
 20
-6.1788904098113671
 30
0.0
 11
4.030574482770878
 21
-5.8732102341260974
 31
0.0
  0
LINE
  5
176F
  8
0
 62
     0
 10
3.161466872339401
 20
-5.2627339999814282
 30
0.0
 11
2.940339387738502
 21
-5.0416065153805283
 31
0.0
  0
LINE
  5
1770
  8
0
 62
     0
 10
4.3383903626899851
 20
-6.4396574903320083
 30
0.0
 11
4.1045481757553324
 21
-6.2058153033973564
 31
0.0
  0
LINE
  5
1771
  8
0
 62
     0
 10
2.9211994892945912
 20
-5.281097993223403
 30
0.0
 11
2.731205010965883
 21
-5.091103514894697
 31
0.0
  0
LINE
  5
1772
  8
0
 62
     0
 10
4.338390362689978
 20
-6.6982888666187872
 30
0.0
 11
4.105585681181485
 21
-6.4654841851102951
 31
0.0
  0
LINE
  5
1773
  8
0
 62
     0
 10
2.7241461983551192
 20
-5.342676078570725
 30
0.0
 11
2.549611000613679
 21
-5.1681408808292844
 31
0.0
  0
LINE
  5
1774
  8
0
 62
     0
 10
4.338390362689978
 20
-6.9569202429055821
 30
0.0
 11
4.105585681181485
 21
-6.7241155613970891
 31
0.0
  0
LINE
  5
1775
  8
0
 62
     0
 10
2.5574155323842751
 20
-5.4345767888866652
 30
0.0
 11
2.3904879894348241
 21
-5.2676492459372142
 31
0.0
  0
LINE
  5
1776
  8
0
 62
     0
 10
4.3383903626899851
 20
-7.2155516191923699
 30
0.0
 11
4.105585681181485
 21
-6.9827469376838751
 31
0.0
  0
LINE
  5
1777
  8
0
 62
     0
 10
2.4161255819181502
 20
-5.5519182147073352
 30
0.0
 11
2.251507783582793
 21
-5.3873004163719713
 31
0.0
  0
LINE
  5
1778
  8
0
 62
     0
 10
4.3383903626899851
 20
-7.4741829954791603
 30
0.0
 11
4.105585681181493
 21
-7.2413783139706691
 31
0.0
  0
LINE
  5
1779
  8
0
 62
     0
 10
2.2989457159389901
 20
-5.6933697250149731
 30
0.0
 11
2.1319866093836382
 21
-5.526410618459618
 31
0.0
  0
LINE
  5
177A
  8
0
 62
     0
 10
4.3383903626899851
 20
-7.7328143717659659
 30
0.0
 11
4.105585681181477
 21
-7.5000096902574622
 31
0.0
  0
LINE
  5
177B
  8
0
 62
     0
 10
2.2072252078153931
 20
-5.8602805931781683
 30
0.0
 11
2.03261766024983
 21
-5.6856730456126012
 31
0.0
  0
LINE
  5
177C
  8
0
 62
     0
 10
4.338390362689978
 20
-7.9914457480527474
 30
0.0
 11
4.105585681181485
 21
-7.7586410665442571
 31
0.0
  0
LINE
  5
177D
  8
0
 62
     0
 10
2.1458777492053511
 20
-6.0575645108549052
 30
0.0
 11
1.955742399326019
 21
-5.8674291609755747
 31
0.0
  0
LINE
  5
177E
  8
0
 62
     0
 10
4.338390362689978
 20
-8.2500771243395317
 30
0.0
 11
4.105585681181485
 21
-8.0172724428310431
 31
0.0
  0
LINE
  5
177F
  8
0
 62
     0
 10
2.127884606905837
 20
-6.298202744842186
 30
0.0
 11
1.9064556573934901
 21
-6.0767737953298466
 31
0.0
  0
LINE
  5
1780
  8
0
 62
     0
 10
4.3383903626899851
 20
-8.5087085006263337
 30
0.0
 11
4.105585681181485
 21
-8.2759038191178362
 31
0.0
  0
LINE
  5
1781
  8
0
 62
     0
 10
2.0859571237484991
 20
-6.514906637971646
 30
0.0
 11
1.896203437136684
 21
-6.325152951359831
 31
0.0
  0
LINE
  5
1782
  8
0
 62
     0
 10
4.338390362689978
 20
-8.7673398769131232
 30
0.0
 11
4.105585681181485
 21
-8.5345351954046365
 31
0.0
  0
LINE
  5
1783
  8
0
 62
     0
 10
4.338390362689978
 20
-9.0259712531999199
 30
0.0
 11
4.105585681181485
 21
-8.7931665716914225
 31
0.0
  0
LINE
  5
1784
  8
0
 62
     0
 10
4.338390362689978
 20
-9.2846026294867023
 30
0.0
 11
4.105585681181485
 21
-9.0517979479782156
 31
0.0
  0
LINE
  5
1785
  8
0
 62
     0
 10
4.338390362689978
 20
-9.5432340057735008
 30
0.0
 11
4.105585681181485
 21
-9.3104293242649998
 31
0.0
  0
LINE
  5
1786
  8
0
 62
     0
 10
4.3383903626899851
 20
-9.8018653820602886
 30
0.0
 11
4.105585681181485
 21
-9.5690607005517911
 31
0.0
  0
LINE
  5
1787
  8
0
 62
     0
 10
4.3383903626899851
 20
-10.06049675834708
 30
0.0
 11
4.105585681181493
 21
-9.8276920768385896
 31
0.0
  0
LINE
  5
1788
  8
0
 62
     0
 10
4.338390362689978
 20
-10.31912813463388
 30
0.0
 11
4.105585681181485
 21
-10.086323453125379
 31
0.0
  0
LINE
  5
1789
  8
0
 62
     0
 10
4.338390362689978
 20
-10.577759510920661
 30
0.0
 11
4.105585681181485
 21
-10.34495482941217
 31
0.0
  0
LINE
  5
178A
  8
0
 62
     0
 10
4.338390362689978
 20
-10.836390887207459
 30
0.0
 11
4.105585681181485
 21
-10.60358620569896
 31
0.0
  0
LINE
  5
178B
  8
0
 62
     0
 10
4.3331743680063184
 20
-11.08980626881058
 30
0.0
 11
4.105585681181485
 21
-10.862217581985741
 31
0.0
  0
LINE
  5
178C
  8
0
 62
     0
 10
4.2927234683474307
 20
-11.30798674543848
 30
0.0
 11
4.0963826280125364
 21
-11.11164590510359
 31
0.0
  0
LINE
  5
178D
  8
0
 62
     0
 10
4.2225300722551111
 20
-11.496424725632959
 30
0.0
 11
4.044737971761033
 21
-11.31863262513888
 31
0.0
  0
LINE
  5
178E
  8
0
 62
     0
 10
4.1288343457024572
 20
-11.661360375367099
 30
0.0
 11
3.960418835935497
 21
-11.492944865600141
 31
0.0
  0
LINE
  5
178F
  8
0
 62
     0
 10
4.0145495478446014
 20
-11.80570695379603
 30
0.0
 11
3.849766277175481
 21
-11.640923683126911
 31
0.0
  0
LINE
  5
1790
  8
0
 62
     0
 10
3.8807570971702972
 20
-11.93054587940852
 30
0.0
 11
3.7149104705198961
 21
-11.76469925275811
 31
0.0
  0
LINE
  5
1791
  8
0
 62
     0
 10
3.7271431977453031
 20
-12.03556335627032
 30
0.0
 11
3.555244829520197
 21
-11.86366498804521
 31
0.0
  0
LINE
  5
1792
  8
0
 62
     0
 10
2.1267631408982761
 20
-10.69381467571009
 30
0.0
 11
1.9433546960822801
 21
-10.51040623089408
 31
0.0
  0
LINE
  5
1793
  8
0
 62
     0
 10
3.551878254361716
 20
-12.11892978917353
 30
0.0
 11
3.367040741413724
 21
-11.93409227622552
 31
0.0
  0
LINE
  5
1794
  8
0
 62
     0
 10
2.1267631408982761
 20
-10.95244605199688
 30
0.0
 11
1.8939584533982801
 21
-10.719641364496891
 31
0.0
  0
LINE
  5
1795
  8
0
 62
     0
 10
3.3508120748548631
 20
-12.17649498595347
 30
0.0
 11
3.140443698089034
 21
-11.96612660918764
 31
0.0
  0
LINE
  5
1796
  8
0
 62
     0
 10
2.164960234068348
 20
-11.24927452145374
 30
0.0
 11
1.893959103096269
 21
-10.978273390481659
 31
0.0
  0
LINE
  5
1797
  8
0
 62
     0
 10
3.1149140586925621
 20
-12.19922834607795
 30
0.0
 11
2.8439129277204782
 21
-11.928227215105871
 31
0.0
  0
LINE
  5
1798
  8
0
 62
     0
 10
2.8198068968923562
 20
-12.162752560564529
 30
0.0
 11
1.930434888609696
 21
-11.27338055228187
 31
0.0
  0
ENDBLK
  5
1799
  8
0
  0
BLOCK
  8
0
  2
*X28
 70
     1
 10
0.0
 20
0.0
 30
0.0
  3
*X28
  1

  0
LINE
  5
179C
  8
0
 62
     0
 10
3.9891833374314549
 20
-8.6767642279413888
 30
0.0
 11
3.9699999022341181
 21
-8.6575807927440565
 31
0.0
  0
LINE
  5
179D
  8
0
 62
     0
 10
3.9891833374314549
 20
-8.9353956042281784
 30
0.0
 11
3.6073930521298831
 21
-8.5536053189266141
 31
0.0
  0
LINE
  5
179E
  8
0
 62
     0
 10
3.9748178468112911
 20
-9.179661489894805
 30
0.0
 11
3.2447862020256362
 21
-8.4496298451091505
 31
0.0
  0
LINE
  5
179F
  8
0
 62
     0
 10
3.6122095777595682
 20
-9.0756845971298823
 30
0.0
 11
2.882179351921391
 21
-8.3456543712917011
 31
0.0
  0
LINE
  5
17A0
  8
0
 62
     0
 10
3.249601308707851
 20
-8.9717077043649454
 30
0.0
 11
2.5195725018171511
 21
-8.2416788974742428
 31
0.0
  0
LINE
  5
17A1
  8
0
 62
     0
 10
2.8869930396561161
 20
-8.8677308116000084
 30
0.0
 11
2.156965651712897
 21
-8.1377034236567951
 31
0.0
  0
LINE
  5
17A2
  8
0
 62
     0
 10
2.52438477060439
 20
-8.763753918835075
 30
0.0
 11
1.8939584533982801
 21
-8.1333276016289702
 31
0.0
  0
LINE
  5
17A3
  8
0
 62
     0
 10
2.1617765015526582
 20
-8.659777026070131
 30
0.0
 11
1.8939584533982901
 21
-8.3919589779157633
 31
0.0
  0
LINE
  5
17A4
  8
0
 62
     0
 10
1.918015068738405
 20
-8.674646969542664
 30
0.0
 11
1.8939584533982801
 21
-8.6505903542025422
 31
0.0
  0
ENDBLK
  5
17A5
  8
0
  0
BLOCK
  8
0
  2
*X29
 70
     1
 10
0.0
 20
0.0
 30
0.0
  3
*X29
  1

  0
LINE
  5
17A8
  8
0
 62
     0
 10
3.868211204180473
 20
-7.0040038369696571
 30
0.0
 11
3.649960323505288
 21
-6.7857529562944654
 31
0.0
  0
LINE
  5
17A9
  8
0
 62
     0
 10
3.9856529491582968
 20
-7.380076958234282
 30
0.0
 11
3.2873524678243831
 21
-6.6817764769003682
 31
0.0
  0
LINE
  5
17AA
  8
0
 62
     0
 10
3.617185728354428
 20
-7.2702411137172014
 30
0.0
 11
2.924744612143483
 21
-6.5777999975062524
 31
0.0
  0
LINE
  5
17AB
  8
0
 62
     0
 10
3.9698966386926511
 20
-7.6229520240554223
 30
0.0
 11
3.6965801245195551
 21
-7.3496355098823214
 31
0.0
  0
LINE
  5
17AC
  8
0
 62
     0
 10
3.2412377906756031
 20
-7.1529245523251603
 30
0.0
 11
2.8018861877732841
 21
-6.7135729494228391
 31
0.0
  0
LINE
  5
17AD
  8
0
 62
     0
 10
3.8992580266775021
 20
-7.8109447883270624
 30
0.0
 11
3.6959786603753511
 21
-7.6076654220249154
 31
0.0
  0
LINE
  5
17AE
  8
0
 62
     0
 10
3.034690875273276
 20
-7.2050090132096241
 30
0.0
 11
2.8018861877732761
 21
-6.9722043257096251
 31
0.0
  0
LINE
  5
17AF
  8
0
 62
     0
 10
3.792131315773708
 20
-7.9624494537100619
 30
0.0
 11
3.5455738235496872
 21
-7.7158919614860322
 31
0.0
  0
LINE
  5
17B0
  8
0
 62
     0
 10
2.202988506504409
 20
-6.6319380207275582
 30
0.0
 11
2.1787499076577741
 21
-6.6076994218809197
 31
0.0
  0
LINE
  5
17B1
  8
0
 62
     0
 10
3.6531656331833751
 20
-8.082115147406526
 30
0.0
 11
3.2290805876554312
 21
-7.658030101878575
 31
0.0
  0
LINE
  5
17B2
  8
0
 62
     0
 10
2.2677871082174681
 20
-6.9553679987274011
 30
0.0
 11
1.982121972154764
 21
-6.669702862664697
 31
0.0
  0
LINE
  5
17B3
  8
0
 62
     0
 10
3.4804499382598562
 20
-8.168030828769794
 30
0.0
 11
2.8664723785437469
 21
-7.5540532690536812
 31
0.0
  0
LINE
  5
17B4
  8
0
 62
     0
 10
2.1576583608831101
 20
-7.1038706276798393
 30
0.0
 11
1.983335797400418
 21
-6.9295480641971441
 31
0.0
  0
LINE
  5
17B5
  8
0
 62
     0
 10
3.262962952369413
 20
-8.2091752191661413
 30
0.0
 11
2.503864169432068
 21
-7.4500764362287972
 31
0.0
  0
LINE
  5
17B6
  8
0
 62
     0
 10
2.9676848492862362
 20
-8.1725284923697501
 30
0.0
 11
1.912955328823168
 21
-7.1177989719066872
 31
0.0
  0
LINE
  5
17B7
  8
0
 62
     0
 10
2.623189712588176
 20
-8.0866647319584857
 30
0.0
 11
1.8976699797883021
 21
-7.3611449991586113
 31
0.0
  0
ENDBLK
  5
17B8
  8
0
  0
BLOCK
  8
0
  2
A$C54FB6119
 70
     0
 10
0.0
 20
0.0
 30
0.0
  3
A$C54FB6119
  1

  0
TEXT
  5
17BA
  8
247
 10
-69.618770179225464
 20
-3.60503265391459
 30
0.0
 40
2.0
  1
ST10-CM08-45B-19
 41
0.7
  7
YOKO
 11
-69.618770179225464
 21
-3.60503265391459
 31
0.0
 73
     1
  0
INSERT
  5
17BB
  8
247
  6
CONTINUOUS
  2
*X27
 10
-65.618770179225265
 20
0.4365689848511506
 30
0.0
 50
270.0
1001
ACAD
1000
HATCH
1002
{
1070
    19
1000
ANSI31
1040
0.0576
1040
6.2831853071795827
1002
}
  0
INSERT
  5
17BC
  8
247
  6
CONTINUOUS
  2
*X28
 10
-65.618770179225265
 20
0.4365689848511506
 30
0.0
 50
270.0
1001
ACAD
1000
HATCH
1002
{
1070
    19
1000
ANSI31
1040
0.0576
1040
6.2831853071795827
1002
}
  0
INSERT
  5
17BD
  8
247
  6
CONTINUOUS
  2
*X29
 10
-65.618770179225265
 20
0.4365689848511506
 30
0.0
 50
270.0
1001
ACAD
1000
HATCH
1002
{
1070
    19
1000
ANSI31
1040
0.0576
1040
6.2831853071795827
1002
}
  0
LINE
  5
17BE
  8
247
 10
-74.286518706251258
 20
-1.457389468547134
 30
0.0
 11
-73.681057768751245
 21
-1.457389468547134
 31
0.0
  0
POLYLINE
  5
17BF
  8
247
 66
     1
 10
0.0
 20
0.0
 30
0.0
 70
     1
1001
HATCH_DISTANCE
1040
1.0
1001
HATCH_DISPLAY
1070
     0
1001
HATCH_TYPE
1070
     7
  0
VERTEX
  5
17C0
  8
247
 10
-74.286518706251258
 20
-1.457389468547134
 30
0.0
  0
VERTEX
  5
17C1
  8
247
 10
-74.359951323438764
 20
-1.71346759354712
 30
0.0
  0
VERTEX
  5
17C2
  8
247
 10
-74.275180815626271
 20
-1.71346759354712
 30
0.0
  0
VERTEX
  5
17C3
  8
247
 10
-74.802550932813773
 20
-3.552614352580306
 30
0.0
  0
VERTEX
  5
17C4
  8
247
 10
-74.281851714063777
 20
-3.552614352580306
 30
0.0
  0
VERTEX
  5
17C5
  8
247
 10
-73.681057768751245
 20
-1.457389468547134
 30
0.0
  0
SEQEND
  5
17C6
  8
247
  0
POLYLINE
  5
17C7
  8
247
 66
     1
 10
0.0
 20
0.0
 30
0.0
 70
     1
  0
VERTEX
  5
17C8
  8
247
 10
-74.286518706251258
 20
-1.457389468547134
 30
0.0
  0
VERTEX
  5
17C9
  8
247
 10
-74.359951323438764
 20
-1.71346759354712
 30
0.0
  0
VERTEX
  5
17CA
  8
247
 10
-74.275180815626271
 20
-1.71346759354712
 30
0.0
  0
VERTEX
  5
17CB
  8
247
 10
-74.802550932813773
 20
-3.552614352580306
 30
0.0
  0
VERTEX
  5
17CC
  8
247
 10
-74.281851714063777
 20
-3.552614352580306
 30
0.0
  0
VERTEX
  5
17CD
  8
247
 10
-73.681057768751245
 20
-1.457389468547134
 30
0.0
  0
SEQEND
  5
17CE
  8
247
  0
LINE
  5
17CF
  8
247
 10
-74.281851714063777
 20
-3.552614352580306
 30
0.0
 11
-73.681057768751245
 21
-1.457389468547134
 31
0.0
  0
LINE
  5
17D0
  8
247
 10
-76.595783354688763
 20
-3.9018213778388291
 30
0.0
 11
-71.869878081251272
 21
-3.9018213778388291
 31
0.0
  0
LINE
  5
17D1
  8
247
 10
-76.595783354688763
 20
-3.669016696330329
 30
0.0
 11
-71.869878081251272
 21
-3.669016696330329
 31
0.0
  0
ARC
  5
17D2
  8
247
 10
-73.071940581251283
 20
-2.7960076326096299
 30
0.0
 40
0.756615234375
 50
163.99975070172931
 51
304.9638732916307
  0
ARC
  5
17D3
  8
247
 10
-76.595783354688763
 20
-2.679605288859634
 30
0.0
 40
0.9894111328124999
 50
90.0
 51
270.0
  0
ARC
  5
17D4
  8
247
 10
-76.595783354688763
 20
-2.679605288859634
 30
0.0
 40
1.2222158203124971
 50
90.0
 51
270.0
  0
LINE
  5
17D5
  8
247
 10
-74.802550932813773
 20
-3.552614352580306
 30
0.0
 11
-74.281851714063777
 21
-3.552614352580306
 31
0.0
  0
LINE
  5
17D6
  8
247
 10
-75.286424028144438
 20
-3.5089784684109731
 30
0.0
 11
-74.969163104824958
 21
-3.191717545091405
 31
0.0
  0
LINE
  5
17D7
  8
247
 10
-76.364585417460944
 20
-3.552614352580306
 30
0.0
 11
-75.702544529127948
 21
-2.8905734642473369
 31
0.0
  0
LINE
  5
17D8
  8
247
 10
-76.105954041174272
 20
-3.552614352580306
 30
0.0
 11
-75.806515329080753
 21
-3.2531756404869001
 31
0.0
  0
LINE
  5
17D9
  8
247
 10
-75.588691288600671
 20
-3.5526143525803349
 30
0.0
 11
-74.930531633668934
 21
-2.894454697648611
 31
0.0
  0
LINE
  5
17DA
  8
247
 10
-75.627106191935951
 20
-2.6274793527260969
 30
0.0
 11
-75.817890154725035
 21
-3.2928457837852938
 31
0.0
  0
ARC
  5
17DB
  8
247
 10
-75.76725601093878
 20
-2.9473289216721099
 30
0.0
 40
0.3492072715759277
 50
261.66285421114719
 51
66.338192159113618
  0
LINE
  5
17DC
  8
247
 10
-75.847322664887457
 20
-3.552614352580306
 30
0.0
 11
-74.993109335076753
 21
-2.6984010227696582
 31
0.0
  0
LINE
  5
17DD
  8
247
 10
-76.473624175001163
 20
-3.552614352580306
 30
0.0
 11
-75.507530425001164
 21
-3.552614352580306
 31
0.0
  0
LINE
  5
17DE
  8
247
 10
-76.413484272785382
 20
-3.342881831617873
 30
0.0
 11
-75.428463238732974
 21
-2.3578607975654351
 31
0.0
  0
LINE
  5
17DF
  8
247
 10
-76.309508115337366
 20
-2.9802742978831831
 30
0.0
 11
-75.494591606465889
 21
-2.1653577890115652
 31
0.0
  0
ARC
  5
17E0
  8
247
 10
-75.507530425001164
 20
-2.9706111482346542
 30
0.0
 40
0.5820029296875
 50
270.0
 51
40.329840654167107
  0
LINE
  5
17E1
  8
247
 10
-75.426102625450653
 20
-2.8727629368567462
 30
0.0
 11
-74.662726234335253
 21
-2.1093865457413989
 31
0.0
  0
LINE
  5
17E2
  8
247
 10
-74.359951323438764
 20
-1.71346759354712
 30
0.0
 11
-74.286518706251258
 21
-1.457389468547134
 31
0.0
  0
LINE
  5
17E3
  8
247
 10
-74.359951323438764
 20
-1.71346759354712
 30
0.0
 11
-74.275180815626271
 21
-1.71346759354712
 31
0.0
  0
LINE
  5
17E4
  8
247
 10
-75.310700581206561
 20
-1.722835387465508
 30
0.0
 11
-75.070602676847344
 21
-1.482737483106334
 31
0.0
  0
LINE
  5
17E5
  8
247
 10
-76.053953478648566
 20
-1.690194156047182
 30
0.0
 11
-75.821148791148573
 21
-1.45738946854719
 31
0.0
  0
LINE
  5
17E6
  8
247
 10
-76.115012846876283
 20
-1.457389468547134
 30
0.0
 11
-76.181765776563651
 21
-1.6901941560471261
 31
0.0
  0
LINE
  5
17E7
  8
247
 10
-75.993925932813568
 20
-1.457389468547134
 30
0.0
 11
-76.060678862501561
 21
-1.6901941560471261
 31
0.0
  0
LINE
  5
17E8
  8
247
 10
-75.993925932813568
 20
-1.457389468547134
 30
0.0
 11
-75.242908811135834
 21
-1.4573894685472171
 31
0.0
  0
LINE
  5
17E9
  8
247
 10
-76.595783354688763
 20
-1.457389468547134
 30
0.0
 11
-76.115012846876283
 21
-1.457389468547134
 31
0.0
  0
LINE
  5
17EA
  8
247
 10
-75.188332617444672
 20
-1.859098799990462
 30
0.0
 11
-74.898042377283559
 21
-1.5688085598293191
 31
0.0
  0
LINE
  5
17EB
  8
247
 10
-76.060678862501561
 20
-1.6901941560471261
 30
0.0
 11
-75.939583159376554
 21
-1.6901941560478639
 31
0.0
  0
LINE
  5
17EC
  8
247
 10
-76.595783354688763
 20
-1.6901941560471261
 30
0.0
 11
-76.181765776563651
 21
-1.6901941560471261
 31
0.0
  0
LINE
  5
17ED
  8
247
 10
-75.997579642993657
 20
-1.8924516966790019
 30
0.0
 11
-75.562517414861873
 21
-1.45738946854719
 31
0.0
  0
LINE
  5
17EE
  8
247
 10
-75.15849366629547
 20
-2.0878912251280179
 30
0.0
 11
-74.76891749664486
 21
-1.6983150554772941
 31
0.0
  0
ARC
  5
17EF
  8
247
 10
-75.240509917188774
 20
-2.0393923982346229
 30
0.0
 40
0.5820078735351563
 50
287.66957754739968
 51
90.236159842671583
  0
LINE
  5
17F0
  8
247
 10
-76.10155580044156
 20
-2.2550592304137491
 30
0.0
 11
-75.303886038575058
 21
-1.4573894685472171
 31
0.0
  0
LINE
  5
17F1
  8
247
 10
-75.516383214111158
 20
-2.7044121492305768
 30
0.0
 11
-74.683296590674672
 21
-1.8713255257939481
 31
0.0
  0
LINE
  5
17F2
  8
247
 10
-74.802550932813773
 20
-3.552614352580306
 30
0.0
 11
-74.275180815626271
 21
-1.71346759354712
 31
0.0
  0
LINE
  5
17F3
  8
247
 10
-75.360088462690072
 20
-1.6962790819928411
 30
0.0
 11
-75.550869286893459
 21
-2.3616257782043819
 31
0.0
  0
ARC
  5
17F4
  8
247
 10
-75.500235503126163
 20
-2.0161189607346581
 30
0.0
 40
0.349197280883789
 50
261.6626016879294
 51
66.338155095189762
  0
LINE
  5
17F5
  8
247
 10
-76.205531957889576
 20
-2.6176667641484381
 30
0.0
 11
-75.39061888098496
 21
-1.802753687243962
 31
0.0
  0
LINE
  5
17F6
  8
247
 10
-76.473624175001163
 20
-3.552614352580306
 30
0.0
 11
-75.939583159376554
 21
-1.6901941560478639
 31
0.0
  0
ARC
  5
17F7
  8
247
 10
-71.869878081251272
 20
-2.679605288859634
 30
0.0
 40
1.2222158203124971
 50
270.0
 51
104.7707939660941
  0
ARC
  5
17F8
  8
247
 10
-71.869878081251272
 20
-2.679605288859634
 30
0.0
 40
0.9894111328124999
 50
270.0
 51
104.1274364964102
  0
LINE
  5
17F9
  8
247
 10
-72.861961089063783
 20
-3.1194627107346231
 30
0.0
 11
-72.712467925001164
 21
-2.5981218904221208
 31
0.0
  0
LINE
  5
17FA
  8
247
 10
-72.906214018751257
 20
-2.5981218904221208
 30
0.0
 11
-72.712467925001164
 21
-2.5981218904221208
 31
0.0
  0
LINE
  5
17FB
  8
247
 10
-72.638358550001271
 20
-3.4160586885178481
 30
0.0
 11
-72.501794096876267
 21
-3.552614352580306
 31
0.0
  0
LINE
  5
17FC
  8
247
 10
-72.906214018751257
 20
-2.5981218904221208
 30
0.0
 11
-72.839461089063775
 21
-2.3653172029221259
 31
0.0
  0
LINE
  5
17FD
  8
247
 10
-72.839461089063775
 20
-2.3653172029221259
 30
0.0
 11
-72.161340971876257
 21
-2.3653172029221259
 31
0.0
  0
LINE
  5
17FE
  8
247
 10
-72.501794096876267
 20
-3.552614352580306
 30
0.0
 11
-72.161340971876257
 21
-2.3653172029221259
 31
0.0
  0
POLYLINE
  5
17FF
  8
247
 66
     1
 10
0.0
 20
0.0
 30
0.0
 70
     1
1001
HATCH_DISTANCE
1040
1.0
1001
HATCH_DISPLAY
1070
     0
1001
HATCH_TYPE
1070
     7
  0
VERTEX
  5
1800
  8
247
 10
-72.111375151563763
 20
-1.7201121247971269
 30
0.0
  0
VERTEX
  5
1801
  8
247
 10
-72.181485503126282
 20
-1.497775210734644
 30
0.0
  0
VERTEX
  5
1802
  8
247
 10
-72.181485503126282
 20
-1.497775210734644
 30
0.0
  0
VERTEX
  5
1803
  8
247
 10
-72.111375151563763
 20
-1.7201121247971269
 30
0.0
  0
SEQEND
  5
1804
  8
247
  0
POLYLINE
  5
1805
  8
247
 66
     1
 10
0.0
 20
0.0
 30
0.0
 70
     1
  0
VERTEX
  5
1806
  8
247
 10
-72.111375151563763
 20
-1.7201121247971269
 30
0.0
  0
VERTEX
  5
1807
  8
247
 10
-72.181485503126282
 20
-1.497775210734644
 30
0.0
  0
VERTEX
  5
1808
  8
247
 10
-72.181485503126282
 20
-1.497775210734644
 30
0.0
  0
VERTEX
  5
1809
  8
247
 10
-72.111375151563763
 20
-1.7201121247971269
 30
0.0
  0
SEQEND
  5
180A
  8
247
  0
LINE
  5
180B
  8
247
 10
-72.111375151563763
 20
-1.7201121247971269
 30
0.0
 11
-72.181485503126282
 21
-1.497775210734644
 31
0.0
  0
POLYLINE
  5
180C
  8
247
 66
     1
 10
0.0
 20
0.0
 30
0.0
 70
     1
1001
HATCH_DISTANCE
1040
1.0
1001
HATCH_DISPLAY
1070
     0
1001
HATCH_TYPE
1070
     7
  0
VERTEX
  5
180D
  8
247
 10
-72.111375151563763
 20
-1.7201121247971269
 30
0.0
  0
VERTEX
  5
180E
  8
247
 10
-72.181485503126282
 20
-1.497775210734644
 30
0.0
  0
VERTEX
  5
180F
  8
247
 10
-72.181485503126282
 20
-1.497775210734644
 30
0.0
  0
VERTEX
  5
1810
  8
247
 10
-72.111375151563763
 20
-1.7201121247971269
 30
0.0
  0
SEQEND
  5
1811
  8
247
  0
POLYLINE
  5
1812
  8
247
 66
     1
 10
0.0
 20
0.0
 30
0.0
 70
     1
  0
VERTEX
  5
1813
  8
247
 10
-72.111375151563763
 20
-1.7201121247971269
 30
0.0
  0
VERTEX
  5
1814
  8
247
 10
-72.181485503126282
 20
-1.497775210734644
 30
0.0
  0
VERTEX
  5
1815
  8
247
 10
-72.181485503126282
 20
-1.497775210734644
 30
0.0
  0
VERTEX
  5
1816
  8
247
 10
-72.111375151563763
 20
-1.7201121247971269
 30
0.0
  0
SEQEND
  5
1817
  8
247
  0
LINE
  5
1818
  8
247
 10
-72.222389800001281
 20
-1.755118960734634
 30
0.0
 11
-72.292500151563758
 21
-1.5327820466720949
 31
0.0
  0
ARC
  5
1819
  8
247
 10
-71.869878081251272
 20
-2.679605288859634
 30
0.0
 40
1.222216369628905
 50
110.22964506332001
 51
118.57168892371681
  0
ARC
  5
181A
  8
247
 10
-72.783184721876268
 20
-1.95791778885963
 30
0.0
 40
0.2444448051452637
 50
1.7101213820626879
 51
163.9983983544472
  0
ARC
  5
181B
  8
247
 10
-71.869878081251272
 20
-2.679605288859634
 30
0.0
 40
0.9894138793945311
 50
110.8721834020737
 51
132.54194893738779
  0
ARC
  5
181C
  8
247
 10
-71.834915190626162
 20
-2.8357869294846259
 30
0.0
 40
1.9799648437499999
 50
155.20517736984121
 51
172.79482596205219
  0
ARC
  5
181D
  8
247
 10
-73.096936675001302
 20
-3.0520857576096438
 30
0.0
 40
0.2444446334838867
 50
164.00027305718169
 51
344.00027305718208
  0
LINE
  5
181E
  8
247
 10
-73.331912260938765
 20
-2.9847088044846388
 30
0.0
 11
-73.018160307813758
 21
-1.8905320466721349
 31
0.0
  0
ARC
  5
181F
  8
247
 10
-72.905053862501148
 20
-2.2139959138596179
 30
0.0
 40
0.7566075439453125
 50
53.444012197057539
 51
164.0001843876851
  0
LINE
  5
1820
  8
241
 10
-3.828417468389901
 20
3.1500000000000612
 30
0.0
 11
-4.1448486771489854
 21
2.8279972629759378
 31
0.0
  0
LINE
  5
1821
  8
240
 10
-0.3554841181569515
 20
0.2458108096552101
 30
0.0
 11
-0.149908169683556
 21
0.2989763648095732
 31
0.0
  0
LINE
  5
1822
  8
241
 10
-22.03416377459731
 20
-3.7999999999999541
 30
0.0
 11
-22.034163774597321
 21
-2.6868458482157109
 31
0.0
  0
ARC
  5
1823
  8
241
 10
-12.542170975717379
 20
-2.6538485482405179
 30
0.0
 40
9.4920501534596937
 50
168.25857748901561
 51
180.199178238765
  0
ARC
  5
1824
  8
241
 10
-20.07450691893348
 20
-1.0611011374120669
 30
0.0
 40
1.7934024524304331
 50
84.828140169647611
 51
169.10927831196179
  0
CIRCLE
  5
1825
  8
246
 10
-2.405484117761886
 20
1.7659518816689039
 30
0.0
 40
1.984999999821041
  0
ARC
  5
1826
  8
241
 10
16.19677821628602
 20
2.65258807218901
 30
0.0
 40
17.240702648197431
 50
188.45957984906701
 51
194.6231311618657
  0
ARC
  5
1827
  8
240
 10
-0.8087696489140512
 20
2.6878154100331479
 30
0.0
 40
0.2
 50
15.500000000000149
 51
44.499999963544738
1001
GENIUS_GENODEF_13
1002
{
1000
HIER
1070
     0
1002
}
1002
{
1000
MANEDIT
1070
     0
1002
}
1002
{
1000
NOSEL
1070
     0
1002
}
1002
{
1000
BEHIND
1070
     0
1002
}
1002
{
1000
OTHER
1070
     0
1002
}
1002
{
1000
REACTOR
1002
}
1001
GENIUS_GENOBJ-N-FIL_13
1002
{
1000
OWNER
1000
GEN
1002
}
  0
ARC
  5
1828
  8
240
 10
-0.1999841704578102
 20
0.4926058928946702
 30
0.0
 40
0.2
 50
284.49999998915843
 51
15.50000000000048
1001
GENIUS_GENODEF_13
1002
{
1000
HIER
1070
     0
1002
}
1002
{
1000
MANEDIT
1070
     0
1002
}
1002
{
1000
NOSEL
1070
     0
1002
}
1002
{
1000
BEHIND
1070
     0
1002
}
1002
{
1000
OTHER
1070
     0
1002
}
1002
{
1000
REACTOR
1002
}
1001
GENIUS_GENOBJ-N-FIL_13
1002
{
1000
OWNER
1000
GEN
1002
}
  0
ARC
  5
1829
  8
241
 10
-2.4054841198790622
 20
-0.0777751758764528
 30
0.0
 40
0.2
 50
255.50000000000099
 51
284.49999999999937
1001
GENIUS_GENODEF_13
1002
{
1000
HIER
1070
     0
1002
}
1002
{
1000
MANEDIT
1070
     0
1002
}
1002
{
1000
NOSEL
1070
     0
1002
}
1002
{
1000
BEHIND
1070
     0
1002
}
1002
{
1000
OTHER
1070
     0
1002
}
1002
{
1000
REACTOR
1002
}
1001
GENIUS_GENOBJ-N-FIL_13
1002
{
1000
OWNER
1000
GEN
1002
}
  0
ARC
  5
182A
  8
241
 10
-4.6109840658561856
 20
0.4926058928945225
 30
0.0
 40
0.2
 50
164.49999999999949
 51
255.50000000000099
1001
GENIUS_GENOBJ-N-FIL_13
1002
{
1000
OWNER
1000
GEN
1002
}
1001
GENIUS_GENODEF_13
1002
{
1000
HIER
1070
     0
1002
}
1002
{
1000
MANEDIT
1070
     0
1002
}
1002
{
1000
NOSEL
1070
     0
1002
}
1002
{
1000
BEHIND
1070
     0
1002
}
1002
{
1000
OTHER
1070
     0
1002
}
1002
{
1000
REACTOR
1002
}
  0
ARC
  5
182B
  8
241
 10
-4.0021985874000299
 20
2.687815410032647
 30
0.0
 40
0.2
 50
135.49999996653389
 51
164.49999999999949
1001
GENIUS_GENOBJ-N-FIL_13
1002
{
1000
OWNER
1000
GEN
1002
}
1001
GENIUS_GENODEF_13
1002
{
1000
HIER
1070
     0
1002
}
1002
{
1000
MANEDIT
1070
     0
1002
}
1002
{
1000
NOSEL
1070
     0
1002
}
1002
{
1000
BEHIND
1070
     0
1002
}
1002
{
1000
OTHER
1070
     0
1002
}
1002
{
1000
REACTOR
1002
}
  0
ARC
  5
182C
  8
240
 10
-2.405484116124625
 20
4.3126438584001088
 30
0.0
 40
0.2
 50
44.499999966534588
 51
135.49999996653389
1001
GENIUS_GENOBJ-N-FIL_13
1002
{
1000
OWNER
1000
GEN
1002
}
1001
GENIUS_GENODEF_13
1002
{
1000
HIER
1070
     0
1002
}
1002
{
1000
MANEDIT
1070
     0
1002
}
1002
{
1000
NOSEL
1070
     0
1002
}
1002
{
1000
BEHIND
1070
     0
1002
}
1002
{
1000
OTHER
1070
     0
1002
}
1002
{
1000
REACTOR
1002
}
  0
ARC
  5
182D
  8
240
 10
-79.955484118156988
 20
4.0000000000000551
 30
0.0
 40
1.0
 50
90.0
 51
180.0
  0
LINE
  5
182E
  8
241
 10
-4.7540839188629169
 20
0.7250000000000505
 30
0.0
 11
-19.912843431037679
 21
0.7250000000000505
 31
0.0
  0
LINE
  5
182F
  8
240
 10
-3.828417468389901
 20
3.1500000000000621
 30
0.0
 11
-19.912843431037679
 21
3.1500000000000621
 31
0.0
  0
LINE
  5
1830
  8
240
 10
-19.934163774597319
 20
-1.69999999999996
 30
0.0
 11
-0.485451996650113
 21
-1.69999999999996
 31
0.0
  0
LINE
  5
1831
  8
241
 10
-2.3554081190681719
 20
-0.2714047039520749
 30
0.0
 11
-0.3554841181569515
 21
0.2458108096552101
 31
0.0
  0
LINE
  5
1832
  8
240
 10
-0.6661195589940263
 20
2.8279972628023549
 30
0.0
 11
-2.2628340262119049
 21
4.45282571117676
 31
0.0
  0
LINE
  5
1833
  8
240
 10
-0.0072580798160828
 20
0.5460535681103231
 30
0.0
 11
-0.6160435582723239
 21
2.7412630852488
 31
0.0
  0
LINE
  5
1834
  8
240
 10
-0.4854519966501414
 20
-1.69999999999996
 30
0.0
 11
-0.3554841181569657
 21
-1.2999999999999829
 31
0.0
  0
LINE
  5
1835
  8
240
 10
-0.3554841181569657
 20
-1.2999999999999829
 30
0.0
 11
-0.3554841181569657
 21
0.2458108096552114
 31
0.0
  0
LINE
  5
1836
  8
241
 10
-4.1948720792231589
 20
2.7414527504608648
 30
0.0
 11
-4.803710156497913
 21
0.5460535681101755
 31
0.0
  0
LINE
  5
1837
  8
241
 10
-4.6610600666670763
 20
0.2989763648189001
 30
0.0
 11
-2.455560120689952
 21
-0.2714047039520752
 31
0.0
  0
LINE
  5
1838
  8
241
 10
-4.0244960777473011
 20
3.1500000000000621
 30
0.0
 11
-4.0251445149796723
 21
3.1476618108772798
 31
0.0
  0
LINE
  5
1839
  8
240
 10
-2.5481342061221279
 20
4.4528257112600693
 30
0.0
 11
-3.828417468389901
 21
3.1500000000000612
 31
0.0
  0
LINE
  5
183A
  8
240
 10
-23.005484118156939
 20
5.0000000000000844
 30
0.0
 11
-79.955484118156988
 21
5.0000000000000844
 31
0.0
  0
LINE
  5
183B
  8
240
 10
-79.955484118156988
 20
-4.9999999999999716
 30
0.0
 11
-23.005484118156939
 21
-4.9999999999999716
 31
0.0
  0
LINE
  5
183C
  8
241
 10
-23.005484118156939
 20
-4.9999999999999716
 30
0.0
 11
-23.005484118156939
 21
0.0000000000000278
 31
0.0
  0
ARC
  5
183D
  8
240
 10
-19.934163774597319
 20
-3.7999999999999541
 30
0.0
 40
2.0999999999999939
 50
90.0
 51
180.0
  0
LINE
  5
183E
  8
240
 10
-22.034163774597321
 20
-4.028679656440346
 30
0.0
 11
-22.03416377459731
 21
-3.7999999999999541
 31
0.0
  0
LINE
  5
183F
  8
240
 10
-23.005484118156939
 20
-4.9999999999999716
 30
0.0
 11
-22.034163774597321
 21
-4.028679656440346
 31
0.0
  0
LINE
  5
1840
  8
241
 10
-23.005484118156939
 20
0.0000000000000278
 30
0.0
 11
-23.005484118156939
 21
5.0000000000000844
 31
0.0
  0
POLYLINE
  8
241
  5
18B9
  66
     1
 10
0.000000
 20
0.000000
 30
0.000000
  70
     8
  0
VERTEX
  8
241
  5
18BA
 10
-19.9342
 20
0.725165
 30
0.000000
  70
    32
  0
VERTEX
  8
241
  5
18BB
 10
-19.9340
 20
0.725162
 30
0.000000
  70
    32
  0
VERTEX
  8
241
  5
18BC
 10
-19.9338
 20
0.725159
 30
0.000000
  70
    32
  0
VERTEX
  8
241
  5
18BD
 10
-19.9337
 20
0.725157
 30
0.000000
  70
    32
  0
VERTEX
  8
241
  5
18BE
 10
-19.9335
 20
0.725154
 30
0.000000
  70
    32
  0
VERTEX
  8
241
  5
18BF
 10
-19.9333
 20
0.725152
 30
0.000000
  70
    32
  0
VERTEX
  8
241
  5
18C0
 10
-19.9332
 20
0.725149
 30
0.000000
  70
    32
  0
VERTEX
  8
241
  5
18C1
 10
-19.9330
 20
0.725147
 30
0.000000
  70
    32
  0
VERTEX
  8
241
  5
18C2
 10
-19.9328
 20
0.725145
 30
0.000000
  70
    32
  0
VERTEX
  8
241
  5
18C3
 10
-19.9327
 20
0.725142
 30
0.000000
  70
    32
  0
VERTEX
  8
241
  5
18C4
 10
-19.9325
 20
0.725140
 30
0.000000
  70
    32
  0
VERTEX
  8
241
  5
18C5
 10
-19.9323
 20
0.725137
 30
0.000000
  70
    32
  0
VERTEX
  8
241
  5
18C6
 10
-19.9321
 20
0.725135
 30
0.000000
  70
    32
  0
VERTEX
  8
241
  5
18C7
 10
-19.9320
 20
0.725133
 30
0.000000
  70
    32
  0
VERTEX
  8
241
  5
18C8
 10
-19.9318
 20
0.725130
 30
0.000000
  70
    32
  0
VERTEX
  8
241
  5
18C9
 10
-19.9316
 20
0.725128
 30
0.000000
  70
    32
  0
VERTEX
  8
241
  5
18CA
 10
-19.9315
 20
0.725126
 30
0.000000
  70
    32
  0
VERTEX
  8
241
  5
18CB
 10
-19.9313
 20
0.725123
 30
0.000000
  70
    32
  0
VERTEX
  8
241
  5
18CC
 10
-19.9311
 20
0.725121
 30
0.000000
  70
    32
  0
VERTEX
  8
241
  5
18CD
 10
-19.9310
 20
0.725119
 30
0.000000
  70
    32
  0
VERTEX
  8
241
  5
18CE
 10
-19.9308
 20
0.725117
 30
0.000000
  70
    32
  0
VERTEX
  8
241
  5
18CF
 10
-19.9306
 20
0.725115
 30
0.000000
  70
    32
  0
VERTEX
  8
241
  5
18D0
 10
-19.9305
 20
0.725113
 30
0.000000
  70
    32
  0
VERTEX
  8
241
  5
18D1
 10
-19.9303
 20
0.725110
 30
0.000000
  70
    32
  0
VERTEX
  8
241
  5
18D2
 10
-19.9301
 20
0.725108
 30
0.000000
  70
    32
  0
VERTEX
  8
241
  5
18D3
 10
-19.9300
 20
0.725106
 30
0.000000
  70
    32
  0
VERTEX
  8
241
  5
18D4
 10
-19.9298
 20
0.725104
 30
0.000000
  70
    32
  0
VERTEX
  8
241
  5
18D5
 10
-19.9296
 20
0.725102
 30
0.000000
  70
    32
  0
VERTEX
  8
241
  5
18D6
 10
-19.9295
 20
0.725100
 30
0.000000
  70
    32
  0
VERTEX
  8
241
  5
18D7
 10
-19.9293
 20
0.725098
 30
0.000000
  70
    32
  0
VERTEX
  8
241
  5
18D8
 10
-19.9291
 20
0.725096
 30
0.000000
  70
    32
  0
VERTEX
  8
241
  5
18D9
 10
-19.9290
 20
0.725094
 30
0.000000
  70
    32
  0
VERTEX
  8
241
  5
18DA
 10
-19.9288
 20
0.725092
 30
0.000000
  70
    32
  0
VERTEX
  8
241
  5
18DB
 10
-19.9286
 20
0.725090
 30
0.000000
  70
    32
  0
VERTEX
  8
241
  5
18DC
 10
-19.9285
 20
0.725088
 30
0.000000
  70
    32
  0
VERTEX
  8
241
  5
18DD
 10
-19.9283
 20
0.725086
 30
0.000000
  70
    32
  0
VERTEX
  8
241
  5
18DE
 10
-19.9281
 20
0.725085
 30
0.000000
  70
    32
  0
VERTEX
  8
241
  5
18DF
 10
-19.9280
 20
0.725083
 30
0.000000
  70
    32
  0
VERTEX
  8
241
  5
18E0
 10
-19.9278
 20
0.725081
 30
0.000000
  70
    32
  0
VERTEX
  8
241
  5
18E1
 10
-19.9276
 20
0.725079
 30
0.000000
  70
    32
  0
VERTEX
  8
241
  5
18E2
 10
-19.9274
 20
0.725077
 30
0.000000
  70
    32
  0
VERTEX
  8
241
  5
18E3
 10
-19.9273
 20
0.725075
 30
0.000000
  70
    32
  0
VERTEX
  8
241
  5
18E4
 10
-19.9271
 20
0.725074
 30
0.000000
  70
    32
  0
VERTEX
  8
241
  5
18E5
 10
-19.9269
 20
0.725072
 30
0.000000
  70
    32
  0
VERTEX
  8
241
  5
18E6
 10
-19.9268
 20
0.725070
 30
0.000000
  70
    32
  0
VERTEX
  8
241
  5
18E7
 10
-19.9266
 20
0.725069
 30
0.000000
  70
    32
  0
VERTEX
  8
241
  5
18E8
 10
-19.9264
 20
0.725067
 30
0.000000
  70
    32
  0
VERTEX
  8
241
  5
18E9
 10
-19.9263
 20
0.725065
 30
0.000000
  70
    32
  0
VERTEX
  8
241
  5
18EA
 10
-19.9261
 20
0.725064
 30
0.000000
  70
    32
  0
VERTEX
  8
241
  5
18EB
 10
-19.9259
 20
0.725062
 30
0.000000
  70
    32
  0
VERTEX
  8
241
  5
18EC
 10
-19.9258
 20
0.725061
 30
0.000000
  70
    32
  0
VERTEX
  8
241
  5
18ED
 10
-19.9256
 20
0.725059
 30
0.000000
  70
    32
  0
VERTEX
  8
241
  5
18EE
 10
-19.9254
 20
0.725057
 30
0.000000
  70
    32
  0
VERTEX
  8
241
  5
18EF
 10
-19.9253
 20
0.725056
 30
0.000000
  70
    32
  0
VERTEX
  8
241
  5
18F0
 10
-19.9251
 20
0.725054
 30
0.000000
  70
    32
  0
VERTEX
  8
241
  5
18F1
 10
-19.9249
 20
0.725053
 30
0.000000
  70
    32
  0
VERTEX
  8
241
  5
18F2
 10
-19.9248
 20
0.725051
 30
0.000000
  70
    32
  0
VERTEX
  8
241
  5
18F3
 10
-19.9246
 20
0.725050
 30
0.000000
  70
    32
  0
VERTEX
  8
241
  5
18F4
 10
-19.9244
 20
0.725049
 30
0.000000
  70
    32
  0
VERTEX
  8
241
  5
18F5
 10
-19.9243
 20
0.725047
 30
0.000000
  70
    32
  0
VERTEX
  8
241
  5
18F6
 10
-19.9241
 20
0.725046
 30
0.000000
  70
    32
  0
VERTEX
  8
241
  5
18F7
 10
-19.9239
 20
0.725044
 30
0.000000
  70
    32
  0
VERTEX
  8
241
  5
18F8
 10
-19.9238
 20
0.725043
 30
0.000000
  70
    32
  0
VERTEX
  8
241
  5
18F9
 10
-19.9236
 20
0.725042
 30
0.000000
  70
    32
  0
VERTEX
  8
241
  5
18FA
 10
-19.9234
 20
0.725041
 30
0.000000
  70
    32
  0
VERTEX
  8
241
  5
18FB
 10
-19.9233
 20
0.725039
 30
0.000000
  70
    32
  0
VERTEX
  8
241
  5
18FC
 10
-19.9231
 20
0.725038
 30
0.000000
  70
    32
  0
VERTEX
  8
241
  5
18FD
 10
-19.9229
 20
0.725037
 30
0.000000
  70
    32
  0
VERTEX
  8
241
  5
18FE
 10
-19.9227
 20
0.725036
 30
0.000000
  70
    32
  0
VERTEX
  8
241
  5
18FF
 10
-19.9226
 20
0.725034
 30
0.000000
  70
    32
  0
VERTEX
  8
241
  5
1900
 10
-19.9224
 20
0.725033
 30
0.000000
  70
    32
  0
VERTEX
  8
241
  5
1901
 10
-19.9222
 20
0.725032
 30
0.000000
  70
    32
  0
VERTEX
  8
241
  5
1902
 10
-19.9221
 20
0.725031
 30
0.000000
  70
    32
  0
VERTEX
  8
241
  5
1903
 10
-19.9219
 20
0.725030
 30
0.000000
  70
    32
  0
VERTEX
  8
241
  5
1904
 10
-19.9217
 20
0.725029
 30
0.000000
  70
    32
  0
VERTEX
  8
241
  5
1905
 10
-19.9216
 20
0.725028
 30
0.000000
  70
    32
  0
VERTEX
  8
241
  5
1906
 10
-19.9214
 20
0.725027
 30
0.000000
  70
    32
  0
VERTEX
  8
241
  5
1907
 10
-19.9212
 20
0.725026
 30
0.000000
  70
    32
  0
VERTEX
  8
241
  5
1908
 10
-19.9211
 20
0.725025
 30
0.000000
  70
    32
  0
VERTEX
  8
241
  5
1909
 10
-19.9209
 20
0.725024
 30
0.000000
  70
    32
  0
VERTEX
  8
241
  5
190A
 10
-19.9207
 20
0.725023
 30
0.000000
  70
    32
  0
VERTEX
  8
241
  5
190B
 10
-19.9206
 20
0.725022
 30
0.000000
  70
    32
  0
VERTEX
  8
241
  5
190C
 10
-19.9204
 20
0.725021
 30
0.000000
  70
    32
  0
VERTEX
  8
241
  5
190D
 10
-19.9202
 20
0.725020
 30
0.000000
  70
    32
  0
VERTEX
  8
241
  5
190E
 10
-19.9201
 20
0.725019
 30
0.000000
  70
    32
  0
VERTEX
  8
241
  5
190F
 10
-19.9199
 20
0.725018
 30
0.000000
  70
    32
  0
VERTEX
  8
241
  5
1910
 10
-19.9197
 20
0.725017
 30
0.000000
  70
    32
  0
VERTEX
  8
241
  5
1911
 10
-19.9196
 20
0.725016
 30
0.000000
  70
    32
  0
VERTEX
  8
241
  5
1912
 10
-19.9194
 20
0.725016
 30
0.000000
  70
    32
  0
VERTEX
  8
241
  5
1913
 10
-19.9192
 20
0.725015
 30
0.000000
  70
    32
  0
VERTEX
  8
241
  5
1914
 10
-19.9191
 20
0.725014
 30
0.000000
  70
    32
  0
VERTEX
  8
241
  5
1915
 10
-19.9189
 20
0.725013
 30
0.000000
  70
    32
  0
VERTEX
  8
241
  5
1916
 10
-19.9187
 20
0.725013
 30
0.000000
  70
    32
  0
VERTEX
  8
241
  5
1917
 10
-19.9186
 20
0.725012
 30
0.000000
  70
    32
  0
VERTEX
  8
241
  5
1918
 10
-19.9184
 20
0.725011
 30
0.000000
  70
    32
  0
VERTEX
  8
241
  5
1919
 10
-19.9182
 20
0.725010
 30
0.000000
  70
    32
  0
VERTEX
  8
241
  5
191A
 10
-19.9180
 20
0.725010
 30
0.000000
  70
    32
  0
VERTEX
  8
241
  5
191B
 10
-19.9179
 20
0.725009
 30
0.000000
  70
    32
  0
VERTEX
  8
241
  5
191C
 10
-19.9177
 20
0.725009
 30
0.000000
  70
    32
  0
VERTEX
  8
241
  5
191D
 10
-19.9175
 20
0.725008
 30
0.000000
  70
    32
  0
VERTEX
  8
241
  5
191E
 10
-19.9174
 20
0.725007
 30
0.000000
  70
    32
  0
VERTEX
  8
241
  5
191F
 10
-19.9172
 20
0.725007
 30
0.000000
  70
    32
  0
VERTEX
  8
241
  5
1920
 10
-19.9170
 20
0.725006
 30
0.000000
  70
    32
  0
VERTEX
  8
241
  5
1921
 10
-19.9169
 20
0.725006
 30
0.000000
  70
    32
  0
VERTEX
  8
241
  5
1922
 10
-19.9167
 20
0.725005
 30
0.000000
  70
    32
  0
VERTEX
  8
241
  5
1923
 10
-19.9165
 20
0.725005
 30
0.000000
  70
    32
  0
VERTEX
  8
241
  5
1924
 10
-19.9164
 20
0.725005
 30
0.000000
  70
    32
  0
VERTEX
  8
241
  5
1925
 10
-19.9162
 20
0.725004
 30
0.000000
  70
    32
  0
VERTEX
  8
241
  5
1926
 10
-19.9160
 20
0.725004
 30
0.000000
  70
    32
  0
VERTEX
  8
241
  5
1927
 10
-19.9159
 20
0.725003
 30
0.000000
  70
    32
  0
VERTEX
  8
241
  5
1928
 10
-19.9157
 20
0.725003
 30
0.000000
  70
    32
  0
VERTEX
  8
241
  5
1929
 10
-19.9155
 20
0.725003
 30
0.000000
  70
    32
  0
VERTEX
  8
241
  5
192A
 10
-19.9154
 20
0.725002
 30
0.000000
  70
    32
  0
VERTEX
  8
241
  5
192B
 10
-19.9152
 20
0.725002
 30
0.000000
  70
    32
  0
VERTEX
  8
241
  5
192C
 10
-19.9150
 20
0.725002
 30
0.000000
  70
    32
  0
VERTEX
  8
241
  5
192D
 10
-19.9149
 20
0.725001
 30
0.000000
  70
    32
  0
VERTEX
  8
241
  5
192E
 10
-19.9147
 20
0.725001
 30
0.000000
  70
    32
  0
VERTEX
  8
241
  5
192F
 10
-19.9145
 20
0.725001
 30
0.000000
  70
    32
  0
VERTEX
  8
241
  5
1930
 10
-19.9144
 20
0.725001
 30
0.000000
  70
    32
  0
VERTEX
  8
241
  5
1931
 10
-19.9142
 20
0.725001
 30
0.000000
  70
    32
  0
VERTEX
  8
241
  5
1932
 10
-19.9140
 20
0.725001
 30
0.000000
  70
    32
  0
VERTEX
  8
241
  5
1933
 10
-19.9139
 20
0.725000
 30
0.000000
  70
    32
  0
VERTEX
  8
241
  5
1934
 10
-19.9137
 20
0.725000
 30
0.000000
  70
    32
  0
VERTEX
  8
241
  5
1935
 10
-19.9135
 20
0.725000
 30
0.000000
  70
    32
  0
VERTEX
  8
241
  5
1936
 10
-19.9133
 20
0.725000
 30
0.000000
  70
    32
  0
VERTEX
  8
241
  5
1937
 10
-19.9132
 20
0.725000
 30
0.000000
  70
    32
  0
VERTEX
  8
241
  5
1938
 10
-19.9130
 20
0.725000
 30
0.000000
  70
    32
  0
VERTEX
  8
241
  5
1939
 10
-19.9128
 20
0.725000
 30
0.000000
  70
    32
  0
SEQEND
  8
241
  5
193A
  0
LINE
  5
1842
  8
240
 10
-22.034163774597321
 20
4.028679656440401
 30
0.0
 11
-23.005484118156939
 21
5.0000000000000844
 31
0.0
  0
ARC
  5
1843
  8
240
 10
-19.912843431037679
 20
6.1500000000000332
 30
0.0
 40
3.0
 50
225.0
 51
270.0
  0
LINE
  5
1844
  8
240
 10
-80.955484118156974
 20
-3.9999999999999711
 30
0.0
 11
-80.955484118156974
 21
0.0000000000000278
 31
0.0
  0
ARC
  5
1845
  8
240
 10
-79.955484118156988
 20
-4.0
 30
0.0
 40
1.0
 50
180.0
 51
270.0
  0
LINE
  5
1846
  8
240
 10
-80.955484118156974
 20
0.0000000000000278
 30
0.0
 11
-80.955484118156974
 21
4.0000000000000844
 31
0.0
  0
LINE
  5
1847
  8
245
 10
-82.978575481205226
 20
0.0000000000000278
 30
0.0
 11
1.9045226540711999
 21
-0.0000000000000006
 31
0.0
  0
LINE
  5
1848
  8
241
 10
-21.15548411815703
 20
3.419460836626711
 30
0.0
 11
-21.15548411815703
 21
0.4316485808566023
 31
0.0
  0
LINE
  5
1849
  8
245
 10
1.9045226540711999
 20
1.4499999999999871
 30
0.0
 11
-22.420179805713051
 21
1.4500000000000159
 31
0.0
  0
ENDBLK
  5
184C
  8
0
  0
BLOCK
  8
0
  2
*U31
 70
     1
 10
0.0
 20
0.0
 30
0.0
  3
*U31
  1

  0
TEXT
  5
1866
  8
250
 62
    40
 10
61.999999999999972
 20
172.77536757771639
 30
0.0
 40
3.0
  1
\U+2205
 50
90.0
  0
TEXT
  5
1867
  8
250
 62
    40
 10
61.999999999999972
 20
175.48965329200209
 30
0.0
 40
3.0
  1
10
 50
90.0
  0
ENDBLK
  5
1869
  8
0
  0
BLOCK
  8
0
  2
*U32
 70
     1
 10
0.0
 20
0.0
 30
0.0
  3
*U32
  1

  0
TEXT
  5
186B
  8
250
 62
    40
 10
139.6992549267305
 20
151.00000000000011
 30
0.0
 40
3.0
  1
21.2
  0
ENDBLK
  5
186D
  8
0
  0
BLOCK
  8
0
  2
*U33
 70
     1
 10
0.0
 20
0.0
 30
0.0
  3
*U33
  1

  0
TEXT
  5
186F
  8
250
 62
    40
 10
99.221512867651967
 20
151.00000000000011
 30
0.0
 40
3.0
  1
59.8
  0
ENDBLK
  5
1871
  8
0
  0
BLOCK
  8
0
  2
*U34
 70
     1
 10
0.0
 20
0.0
 30
0.0
  3
*U34
  1

  0
TEXT
  5
1873
  8
250
 62
    40
 10
112.370683498159
 20
144.00000000000011
 30
0.0
 40
3.0
  1
81
  0
ENDBLK
  5
1875
  8
0
  0
BLOCK
  8
0
  2
*U35
 70
     1
 10
0.0
 20
0.0
 30
0.0
  3
*U35
  1

  0
TEXT
  5
1877
  8
250
 62
    40
 10
145.99999999999989
 20
186.62108186343059
 30
0.0
 40
3.0
  1
\U+2205
 50
90.0
  0
TEXT
  5
1878
  8
250
 62
    40
 10
145.99999999999989
 20
189.33536757771631
 30
0.0
 40
3.0
  1
6.3
 50
90.0
  0
ENDBLK
  5
187A
  8
0
  0
BLOCK
  8
0
  2
*U36
 70
     1
 10
0.0
 20
0.0
 30
0.0
  3
*U36
  1

  0
TEXT
  5
187C
  8
250
 62
    40
 10
140.51365244862731
 20
158.95108139846741
 30
0.0
 40
3.0
  1
\U+2205
 50
90.0
  0
TEXT
  5
187D
  8
250
 62
    40
 10
140.51365244862731
 20
161.6653671127531
 30
0.0
 40
3.0
  1
6.3
 50
90.0
  0
ENDBLK
  5
187F
  8
0
  0
BLOCK
  8
0
  2
*U37
 70
     1
 10
0.0
 20
0.0
 30
0.0
  3
*U37
  1

  0
TEXT
  5
1881
  8
250
 62
    40
 10
149.11970967257909
 20
186.7048422564186
 30
0.0
 40
3.0
  1
45üï
 50
9.0285333698251016
  0
ENDBLK
  5
1883
  8
0
  0
BLOCK
  8
0
  2
*U38
 70
     1
 10
0.0
 20
0.0
 30
0.0
  3
*U38
  1

  0
TEXT
  5
1885
  8
250
 62
    40
 10
166.99999999999989
 20
161.8153675777163
 30
0.0
 40
3.0
  1
1.45
 50
90.0
  0
ENDBLK
  5
1887
  8
0
  0
BLOCK
  8
0
  2
*U39
 70
     1
 10
0.0
 20
0.0
 30
0.0
  3
*U39
  1

  0
TEXT
  5
1889
  8
250
 62
    40
 10
174.00000253324731
 20
172.06108186343059
 30
0.0
 40
3.0
  1
\U+2205
 50
90.0
  0
TEXT
  5
188A
  8
250
 62
    40
 10
174.00000253324731
 20
174.77536757771631
 30
0.0
 40
3.0
  1
9.2
 50
90.0
  0
ENDBLK
  5
188C
  8
0
  0
BLOCK
  8
0
  2
*U40
 70
     1
 10
0.0
 20
0.0
 30
0.0
  3
*U40
  1

  0
TEXT
  5
188E
  8
240
 62
    40
 10
-14.44106081380543
 20
17.488003311335799
 30
0.0
 40
3.0
  1
\U+25CFST10-CM08-45B-19
  7
YOKO
  0
ENDBLK
  5
1890
  8
0
  0
BLOCK
  8
0
  2
*U41
 70
     1
 10
0.0
 20
0.0
 30
0.0
  3
*U41
  1

  0
TEXT
  5
1892
  8
250
 62
    40
 10
66.192139580975351
 20
-17.67190522686797
 30
0.0
 40
3.0
  1
\U+2205
 50
90.0
  0
TEXT
  5
1893
  8
250
 62
    40
 10
66.092139580975356
 20
-14.95761951258225
 30
0.0
 40
2.7999999999999989
  1
6.3
 50
90.0
  0
ENDBLK
  5
1895
  8
0
  0
BLOCK
  8
0
  2
*U42
 70
     1
 10
0.0
 20
0.0
 30
0.0
  3
*U42
  1

  0
TEXT
  5
1897
  8
250
 62
    40
 10
71.678487132347982
 20
9.9980952380951855
 30
0.0
 40
3.0
  1
\U+2205
 50
90.0
  0
TEXT
  5
1898
  8
250
 62
    40
 10
71.578487132347973
 20
12.712380952380901
 30
0.0
 40
2.7999999999999989
  1
6.3
 50
90.0
  0
ENDBLK
  5
189A
  8
0
  0
BLOCK
  8
0
  2
*U43
 70
     1
 10
0.0
 20
0.0
 30
0.0
  3
*U43
  1

  0
TEXT
  5
189C
  8
250
 62
    40
 10
-12.32151286765199
 20
-3.8952380952380921
 30
0.0
 40
3.0
  1
\U+2205
 50
90.0
  0
TEXT
  5
189D
  8
250
 62
    40
 10
-12.421512867651989
 20
-1.1809523809523781
 30
0.0
 40
2.7999999999999989
  1
10
 50
90.0
  0
ENDBLK
  5
189F
  8
0
  0
BLOCK
  8
0
  2
*U44
 70
     1
 10
0.0
 20
0.0
 30
0.0
  3
*U44
  1

  0
TEXT
  5
18A1
  8
250
 62
    40
 10
25.23333333333332
 20
-25.84679614914484
 30
0.0
 40
2.7999999999999989
  1
59.8
  0
ENDBLK
  5
18A3
  8
0
  0
BLOCK
  8
0
  2
*U45
 70
     1
 10
0.0
 20
0.0
 30
0.0
  3
*U45
  1

  0
TEXT
  5
18A5
  8
250
 62
    40
 10
38.211075392411828
 20
-25.84679614914484
 30
0.0
 40
2.7999999999999989
  1
81
  0
ENDBLK
  5
18A7
  8
0
  0
BLOCK
  8
0
  2
*U46
 70
     1
 10
0.0
 20
0.0
 30
0.0
  3
*U46
  1

  0
TEXT
  5
18A9
  8
250
 62
    40
 10
65.7110753924118
 20
-18.846796149144829
 30
0.0
 40
2.7999999999999989
  1
21.2
  0
ENDBLK
  5
18AB
  8
0
  0
BLOCK
  8
0
  2
*U47
 70
     1
 10
0.0
 20
0.0
 30
0.0
  3
*U47
  1

  0
TEXT
  5
18AD
  8
250
 62
    40
 10
74.046301129818801
 20
10.05778654085605
 30
0.0
 40
2.7999999999999989
  1
45üï
 50
15.487944428477199
  0
ENDBLK
  5
18AF
  8
0
  0
BLOCK
  8
0
  2
*U48
 70
     1
 10
0.0
 20
0.0
 30
0.0
  3
*U48
  1

  0
TEXT
  5
18B1
  8
250
 62
    40
 10
87.511490078468341
 20
-14.683809523809529
 30
0.0
 40
2.7999999999999989
  1
1.45
 50
90.0
  0
ENDBLK
  5
18B3
  8
0
  0
BLOCK
  8
0
  2
*U49
 70
     1
 10
0.0
 20
0.0
 30
0.0
  3
*U49
  1

  0
TEXT
  5
18B5
  8
250
 62
    40
 10
94.511492611715681
 20
-4.5619047619047768
 30
0.0
 40
3.0
  1
\U+2205
 50
90.0
  0
TEXT
  5
18B6
  8
250
 62
    40
 10
94.411492611715687
 20
-1.847619047619063
 30
0.0
 40
2.7999999999999989
  1
9.2
 50
90.0
  0
ENDBLK
  5
18B8
  8
0
  0
ENDSEC
  0
SECTION
  2
ENTITIES
  0
TEXT
  5
170C
  8
241
 10
-81.423454940577798
 20
20.552663028150931
 30
0.0
 40
3.0
  1
ST10-CM08-45B-19
  7
YOKO
1001
ITEMNAME
1000
DI010
  0
LINE
  5
1713
  8
250
 10
-80.455484118156988
 20
-4.9999999999999716
 30
0.0
 11
-93.276996985808978
 21
-4.999999999999968
 31
0.0
  0
LINE
  5
1714
  8
250
 10
-80.455484118156988
 20
5.0000000000000266
 30
0.0
 11
-93.276996985808978
 21
5.0000000000000311
 31
0.0
  0
LINE
  5
1715
  8
250
 10
-92.276996985808964
 20
-2.769999999999968
 30
0.0
 11
-92.276996985808964
 21
2.7700000000000311
 31
0.0
  0
LINE
  5
1719
  8
250
 10
-80.955484118156974
 20
-4.4999999999999716
 30
0.0
 11
-80.955484118156974
 21
-27.846796149144811
 31
0.0
  0
LINE
  5
171A
  8
250
 10
0.0
 20
0.2531025640077183
 30
0.0
 11
0.0
 21
-27.846796149144811
 31
0.0
  0
LINE
  5
171B
  8
250
 10
-78.725484118156984
 20
-26.846796149144811
 30
0.0
 11
-2.2300000000000031
 21
-26.846796149144811
 31
0.0
  0
LINE
  5
171F
  8
250
 10
-21.15548411815703
 20
-0.0683514170519579
 30
0.0
 11
-21.15548411815703
 21
-20.846796149144811
 31
0.0
  0
LINE
  5
1720
  8
250
 10
0.0
 20
0.2531025640077183
 30
0.0
 11
0.0
 21
-20.846796149144811
 31
0.0
  0
LINE
  5
1721
  8
250
 10
-18.925484118157041
 20
-19.846796149144811
 30
0.0
 11
-2.2300000000000031
 21
-19.846796149144811
 31
0.0
  0
LINE
  5
1725
  8
250
 10
0.0
 20
2.650149074966424
 30
0.0
 11
0.0000000000000142
 21
11.45007671678599
 31
0.0
  0
LINE
  5
1726
  8
250
 10
-2.6138314871351152
 20
4.8100033202585131
 30
0.0
 11
-6.5184054414694961
 21
8.7833266425957017
 31
0.0
  0
ARC
  5
1727
  8
250
 10
0.0
 20
2.150149074966428
 30
0.0
 40
8.2999276418195596
 50
105.44074297359739
 51
119.0592570264018
  0
LINE
  5
172B
  8
250
 10
2.4045226540711999
 20
-0.0000000000000008
 30
0.0
 11
8.5560059603113512
 21
-0.0000000000000025
 31
0.0
  0
LINE
  5
172C
  8
250
 10
2.4045226540711999
 20
1.4499999999999871
 30
0.0
 11
8.5560059603113512
 21
1.4499999999999851
 31
0.0
  0
LINE
  5
172D
  8
250
 10
7.5560059603113521
 20
3.6799999999999859
 30
0.0
 11
7.5560059603113521
 21
5.909999999999985
 31
0.0
  0
LINE
  5
172E
  8
250
 10
7.5560059603113521
 20
-2.2300000000000009
 30
0.0
 11
7.5560059603113521
 21
-14.88380952380952
 31
0.0
  0
LINE
  5
172F
  8
250
 10
7.5560059603113521
 20
1.449999999999986
 30
0.0
 11
7.5560059603113521
 21
-0.0000000000000022
 31
0.0
  0
LINE
  5
1733
  8
250
 10
-1.905484118156977
 20
4.5999999999999934
 30
0.0
 11
15.556008493558689
 21
4.5999999999999881
 31
0.0
  0
LINE
  5
1734
  8
250
 10
14.556008493558689
 20
2.369999999999989
 30
0.0
 11
14.556008493558689
 21
-5.2761904761904797
 31
0.0
  0
TEXT
  5
1737
  8
250
 10
13.556008493558689
 20
-4.5619047619047501
 30
0.0
 40
3.0
  1
\U+2205
 50
90.0
  0
TEXT
  5
1738
  8
250
 10
13.4560084935587
 20
-1.8476190476190351
 30
0.0
 40
2.7999999999999989
  1
9.2
 50
90.0
  0
LINE
  5
1739
  8
250
 10
14.18434182689202
 20
2.369999999999989
 30
0.0
 11
14.556008493558689
 21
4.5999999999999881
 31
0.0
  0
LINE
  5
173A
  8
250
 10
14.927675160225361
 20
2.369999999999989
 30
0.0
 11
14.556008493558689
 21
4.5999999999999881
 31
0.0
  0
LINE
  5
173B
  8
250
 10
14.556008493558689
 20
4.5999999999999881
 30
0.0
 11
14.556008493558689
 21
2.369999999999989
 31
0.0
  0
TEXT
  5
173C
  8
250
 10
6.5560059603113521
 20
-14.683809523809501
 30
0.0
 40
2.7999999999999989
  1
1.45
 50
90.0
  0
LINE
  5
173D
  8
250
 10
7.1843392936446833
 20
-2.2300000000000022
 30
0.0
 11
7.5560059603113521
 21
-0.0000000000000022
 31
0.0
  0
LINE
  5
173E
  8
250
 10
7.9276726269780218
 20
-2.2300000000000022
 30
0.0
 11
7.5560059603113521
 21
-0.0000000000000022
 31
0.0
  0
LINE
  5
173F
  8
250
 10
7.5560059603113521
 20
-0.0000000000000022
 30
0.0
 11
7.5560059603113521
 21
-2.2300000000000022
 31
0.0
  0
LINE
  5
1740
  8
250
 10
7.9276726269780218
 20
3.6799999999999859
 30
0.0
 11
7.5560059603113521
 21
1.449999999999986
 31
0.0
  0
LINE
  5
1741
  8
250
 10
7.1843392936446833
 20
3.6799999999999859
 30
0.0
 11
7.5560059603113521
 21
1.449999999999986
 31
0.0
  0
LINE
  5
1742
  8
250
 10
7.5560059603113521
 20
1.449999999999986
 30
0.0
 11
7.5560059603113521
 21
3.6799999999999859
 31
0.0
  0
TEXT
  5
1743
  8
250
 10
-6.9091829883381868
 20
10.05778654085608
 30
0.0
 40
2.7999999999999989
  1
45üï
 50
15.487944428477199
  0
LINE
  5
1744
  8
250
 10
-3.8088591050653662
 20
9.1075795542454188
 30
0.0
 11
-5.8174961771696578
 21
8.0700761934415102
 31
0.0
  0
LINE
  5
1745
  8
250
 10
-4.253921658412807
 20
9.7029481527222767
 30
0.0
 11
-5.8174961771696578
 21
8.0700761934415102
 31
0.0
  0
LINE
  5
1746
  8
250
 10
-5.8174961771696578
 20
8.0700761934415102
 30
0.0
 11
-4.0313903817390857
 21
9.4052638534838486
 31
0.0
  0
LINE
  5
1747
  8
250
 10
-2.259715311464674
 20
10.518799509534441
 30
0.0
 11
0.0000000000000142
 21
10.450076716785979
 31
0.0
  0
LINE
  5
1748
  8
250
 10
-2.1598570111958111
 20
9.7822041224243517
 30
0.0
 11
0.0000000000000142
 21
10.450076716785979
 31
0.0
  0
LINE
  5
1749
  8
250
 10
0.0000000000000142
 20
10.450076716785979
 30
0.0
 11
-2.2097861613302419
 21
10.150501815979389
 31
0.0
  0
TEXT
  5
174A
  8
250
 10
-15.24440872574519
 20
-18.846796149144811
 30
0.0
 40
2.7999999999999989
  1
21.2
  0
LINE
  5
174B
  8
250
 10
-2.2300000000000031
 20
-19.475129482478138
 30
0.0
 11
0.0
 21
-19.846796149144811
 31
0.0
  0
LINE
  5
174C
  8
250
 10
-2.2300000000000031
 20
-20.218462815811471
 30
0.0
 11
0.0
 21
-19.846796149144811
 31
0.0
  0
LINE
  5
174D
  8
250
 10
0.0
 20
-19.846796149144811
 30
0.0
 11
-2.2300000000000031
 21
-19.846796149144811
 31
0.0
  0
LINE
  5
174E
  8
250
 10
-18.925484118157041
 20
-20.218462815811471
 30
0.0
 11
-21.15548411815703
 21
-19.846796149144811
 31
0.0
  0
LINE
  5
174F
  8
250
 10
-18.925484118157041
 20
-19.475129482478138
 30
0.0
 11
-21.15548411815703
 21
-19.846796149144811
 31
0.0
  0
LINE
  5
1750
  8
250
 10
-21.15548411815703
 20
-19.846796149144811
 30
0.0
 11
-18.925484118157041
 21
-19.846796149144811
 31
0.0
  0
TEXT
  5
1751
  8
250
 10
-42.744408725745153
 20
-25.846796149144811
 30
0.0
 40
2.7999999999999989
  1
81
  0
LINE
  5
1752
  8
250
 10
-2.2300000000000031
 20
-26.475129482478138
 30
0.0
 11
0.0
 21
-26.846796149144811
 31
0.0
  0
LINE
  5
1753
  8
250
 10
-2.2300000000000031
 20
-27.218462815811471
 30
0.0
 11
0.0
 21
-26.846796149144811
 31
0.0
  0
LINE
  5
1754
  8
250
 10
0.0
 20
-26.846796149144811
 30
0.0
 11
-2.2300000000000031
 21
-26.846796149144811
 31
0.0
  0
LINE
  5
1755
  8
250
 10
-78.725484118156984
 20
-27.218462815811471
 30
0.0
 11
-80.955484118156974
 21
-26.846796149144811
 31
0.0
  0
LINE
  5
1756
  8
250
 10
-78.725484118156984
 20
-26.475129482478138
 30
0.0
 11
-80.955484118156974
 21
-26.846796149144811
 31
0.0
  0
LINE
  5
1757
  8
250
 10
-80.955484118156974
 20
-26.846796149144811
 30
0.0
 11
-78.725484118156984
 21
-26.846796149144811
 31
0.0
  0
TEXT
  5
1758
  8
250
 10
-93.276996985808978
 20
-3.895238095238065
 30
0.0
 40
3.0
  1
\U+2205
 50
90.0
  0
TEXT
  5
1759
  8
250
 10
-93.376996985808958
 20
-1.180952380952351
 30
0.0
 40
2.7999999999999989
  1
10
 50
90.0
  0
LINE
  5
175A
  8
250
 10
-92.648663652475648
 20
2.7700000000000311
 30
0.0
 11
-92.276996985808964
 21
5.0000000000000311
 31
0.0
  0
LINE
  5
175B
  8
250
 10
-91.905330319142308
 20
2.7700000000000311
 30
0.0
 11
-92.276996985808964
 21
5.0000000000000311
 31
0.0
  0
LINE
  5
175C
  8
250
 10
-92.276996985808964
 20
5.0000000000000311
 30
0.0
 11
-92.276996985808964
 21
2.7700000000000311
 31
0.0
  0
LINE
  5
175D
  8
250
 10
-91.905330319142308
 20
-2.769999999999968
 30
0.0
 11
-92.276996985808964
 21
-4.999999999999968
 31
0.0
  0
LINE
  5
175E
  8
250
 10
-92.648663652475648
 20
-2.769999999999968
 30
0.0
 11
-92.276996985808964
 21
-4.999999999999968
 31
0.0
  0
LINE
  5
175F
  8
250
 10
-92.276996985808964
 20
-4.999999999999968
 30
0.0
 11
-92.276996985808964
 21
-2.769999999999968
 31
0.0
  0
INSERT
  5
184D
  8
240
  2
A$C54FB6119
 10
0.0
 20
0.0
 30
0.0
  0
VIEWPORT
  5
22
 67
     1
  8
0
 10
261.51769911504419
 20
148.5
 30
0.0
 40
523.0353982300885
 41
297.0
 68
     1
 69
     1
1001
ACAD
1000
MVIEW
1002
{
1070
    16
1010
0.0
1020
0.0
1030
0.0
1010
0.0
1020
0.0
1030
1.0
1040
0.0
1040
297.0
1040
261.51769911504419
1040
148.5
1040
50.0
1040
0.0
1040
0.0
1070
     0
1070
   100
1070
     1
1070
     1
1070
     0
1070
     0
1070
     0
1070
     0
1040
0.0
1040
0.0
1040
0.0
1040
1.0
1040
1.0
1040
10.0
1040
10.0
1070
     0
1002
{
1002
}
1002
}
1001
GENIUS_GENODEF_13
1002
{
1000
HIER
1070
     0
1002
}
1002
{
1000
MANEDIT
1070
     0
1002
}
1002
{
1000
NOSEL
1070
     0
1002
}
1002
{
1000
BEHIND
1070
     0
1002
}
1002
{
1000
OTHER
1070
     0
1002
}
1002
{
1000
REACTOR
1002
}
1001
GENIUS_GENOBJ-N-SDF_13
1002
{
1000
OWNER
1000
GEN
1002
}
1001
GENIUS_GENSCREG_15
1000
PF
1040
1.0
1000
DF
1040
1.0
1000
MIN
1011
0.0
1021
0.0
1031
9.1440182970058183E+287
1021
0.0
1031
0.0
1000
MAX
1011
523.0353982300885
1021
0.0
1031
9.1440182970058183E+287
1021
297.0
1031
0.0
1000
FLAGS
1070
     2
  0
ENDSEC
  0
EOF
