  0
SECTION
  2
HEADER
  9
$ACADVER
  1
AC1009
  9
$INSBASE
 10
0.0
 20
0.0
 30
0.0
  9
$EXTMIN
 10
-100.4775045745132
 20
-25.135878136936132
 30
0.0
  9
$EXTMAX
 10
13.522497551224429
 20
33.000000000000021
 30
0.0
  9
$LIMMIN
 10
0.0
 20
0.0
  9
$LIMMAX
 10
297.0
 20
210.0
  9
$ORTHOMODE
 70
     0
  9
$REGENMODE
 70
     1
  9
$FILLMODE
 70
     1
  9
$QTEXTMODE
 70
     0
  9
$MIRRTEXT
 70
     1
  9
$DRAGMODE
 70
     2
  9
$LTSCALE
 40
10.0
  9
$OSMODE
 70
  2799
  9
$ATTMODE
 70
     1
  9
$TEXTSIZE
 40
3.0
  9
$TRACEWID
 40
1.0
  9
$TEXTSTYLE
  7
YOKO
  9
$CLAYER
  8
240
  9
$CELTYPE
  6
BYLAYER
  9
$CECOLOR
 62
   256
  9
$DIMSCALE
 40
1.0
  9
$DIMASZ
 40
2.2299999999999991
  9
$DIMEXO
 40
0.5
  9
$DIMDLI
 40
7.0
  9
$DIMRND
 40
0.0
  9
$DIMDLE
 40
0.0
  9
$DIMEXE
 40
1.0
  9
$DIMTP
 40
0.0
  9
$DIMTM
 40
0.01
  9
$DIMTXT
 40
2.7999999999999989
  9
$DIMCEN
 40
0.0
  9
$DIMTSZ
 40
0.0
  9
$DIMTOL
 70
     0
  9
$DIMLIM
 70
     0
  9
$DIMTIH
 70
     0
  9
$DIMTOH
 70
     0
  9
$DIMSE1
 70
     0
  9
$DIMSE2
 70
     0
  9
$DIMTAD
 70
     3
  9
$DIMZIN
 70
     9
  9
$DIMBLK
  1
OPEN
  9
$DIMASO
 70
     1
  9
$DIMSHO
 70
     1
  9
$DIMPOST
  1

  9
$DIMAPOST
  1

  9
$DIMALT
 70
     0
  9
$DIMALTD
 70
     2
  9
$DIMALTF
 40
25.399999999999999
  9
$DIMLFAC
 40
1.0
  9
$DIMTOFL
 70
     1
  9
$DIMTVP
 40
0.0
  9
$DIMTIX
 70
     1
  9
$DIMSOXD
 70
     0
  9
$DIMSAH
 70
     0
  9
$DIMBLK1
  1

  9
$DIMBLK2
  1

  9
$DIMSTYLE
  2
BIGT
  9
$DIMCLRD
 70
   256
  9
$DIMCLRE
 70
   256
  9
$DIMCLRT
 70
    40
  9
$DIMTFAC
 40
1.0
  9
$DIMGAP
 40
1.0
  9
$LUNITS
 70
     2
  9
$LUPREC
 70
     3
  9
$SKETCHINC
 40
1.0
  9
$FILLETRAD
 40
0.2
  9
$AUNITS
 70
     0
  9
$AUPREC
 70
     3
  9
$MENU
  1
.
  9
$ELEVATION
 40
0.0
  9
$PELEVATION
 40
0.0
  9
$THICKNESS
 40
0.0
  9
$LIMCHECK
 70
     0
  9
$BLIPMODE
 70
     0
  9
$CHAMFERA
 40
0.25
  9
$CHAMFERB
 40
0.25
  9
$SKPOLY
 70
     0
  9
$TDCREATE
 40
2454809.4072790048
  9
$TDUPDATE
 40
2454809.4341256139
  9
$TDINDWG
 40
0.005064375
  9
$TDUSRTIMER
 40
0.005064375
  9
$USRTIMER
 70
     1
  9
$ANGBASE
 50
0.0
  9
$ANGDIR
 70
     0
  9
$PDMODE
 70
     1
  9
$PDSIZE
 40
0.0
  9
$PLINEWID
 40
0.0
  9
$COORDS
 70
     0
  9
$SPLFRAME
 70
     0
  9
$SPLINETYPE
 70
     6
  9
$SPLINESEGS
 70
     4
  9
$ATTDIA
 70
     1
  9
$ATTREQ
 70
     1
  9
$HANDLING
 70
     1
  9
$HANDSEED
  5
1A05
  9
$SURFTAB1
 70
     6
  9
$SURFTAB2
 70
     6
  9
$SURFTYPE
 70
     6
  9
$SURFU
 70
     6
  9
$SURFV
 70
     6
  9
$UCSNAME
  2

  9
$UCSORG
 10
0.0
 20
0.0
 30
0.0
  9
$UCSXDIR
 10
1.0
 20
0.0
 30
0.0
  9
$UCSYDIR
 10
0.0
 20
1.0
 30
0.0
  9
$PUCSNAME
  2

  9
$PUCSORG
 10
0.0
 20
0.0
 30
0.0
  9
$PUCSXDIR
 10
1.0
 20
0.0
 30
0.0
  9
$PUCSYDIR
 10
0.0
 20
1.0
 30
0.0
  9
$USERI1
 70
     1
  9
$USERI2
 70
     0
  9
$USERI3
 70
     0
  9
$USERI4
 70
     0
  9
$USERI5
 70
     0
  9
$USERR1
 40
0.0
  9
$USERR2
 40
0.0
  9
$USERR3
 40
0.0
  9
$USERR4
 40
0.0
  9
$USERR5
 40
0.0
  9
$WORLDVIEW
 70
     1
  9
$SHADEDGE
 70
     3
  9
$SHADEDIF
 70
    70
  9
$TILEMODE
 70
     1
  9
$MAXACTVP
 70
    16
  9
$PLIMCHECK
 70
     0
  9
$PEXTMIN
 10
1.0000000000000000E+020
 20
1.0000000000000000E+020
 30
1.0000000000000000E+020
  9
$PEXTMAX
 10
-1.0000000000000000E+020
 20
-1.0000000000000000E+020
 30
-1.0000000000000000E+020
  9
$PLIMMIN
 10
0.0
 20
0.0
  9
$PLIMMAX
 10
420.0
 20
297.0
  9
$UNITMODE
 70
     0
  9
$VISRETAIN
 70
     1
  9
$PLINEGEN
 70
     0
  9
$PSLTSCALE
 70
     1
  0
ENDSEC
  0
SECTION
  2
TABLES
  0
TABLE
  2
VPORT
 70
     3
  0
VPORT
  2
*ACTIVE
 70
     0
 10
0.0
 20
0.0
 11
1.0
 21
1.0
 12
-43.480881442353159
 22
3.9292288965374729
 13
0.0
 23
0.0
 14
7.0
 24
7.0
 15
7.0
 25
7.0
 16
0.0
 26
0.0
 36
1.0
 17
0.0
 27
0.0
 37
0.0
 40
73.934001093101372
 41
1.5487804878048781
 42
50.0
 43
0.0
 44
0.0
 50
0.0
 51
0.0
 71
     0
 72
  2000
 73
     1
 74
     0
 75
     0
 76
     1
 77
     0
 78
     0
  0
ENDTAB
  0
TABLE
  2
LTYPE
 70
    13
  0
LTYPE
  2
CONTINUOUS
 70
     0
  3
Solid line
 72
    65
 73
     0
 40
0.0
  0
LTYPE
  2
CENTER2
 70
     0
  3
___ _ ___ _ ___ _ ___ _ ___ _ ___ _ ___ _ ___ _
 72
    65
 73
     4
 40
1.125
 49
0.75
 49
-0.125
 49
0.125
 49
-0.125
  0
LTYPE
  2
HIDDEN2
 70
     0
  3
_ _ _ _ _ _ _ _ _ _ _ _ _ _ _ _ _ _ _ _ _ _ _ _
 72
    65
 73
     2
 40
0.1875
 49
0.125
 49
-0.0625
  0
LTYPE
  2
PHANTOM2
 70
     0
  3
___ _ _ ___ _ _ ___ _ _ ___ _ _ ___ _ _ ___ _ _
 72
    65
 73
     6
 40
1.25
 49
0.625
 49
-0.125
 49
0.125
 49
-0.125
 49
0.125
 49
-0.125
  0
LTYPE
  2
CENTER
 70
     0
  3
____ _ ____ _ ____ _ ____ _ ____ _ ____ _ ____ 
 72
    65
 73
     4
 40
2.0
 49
1.25
 49
-0.25
 49
0.25
 49
-0.25
  0
LTYPE
  2
AM_ISO02W050
 70
     0
  3
__ __ __ __ __ __ __ __ __ __ __ __ __ __ __
 72
    65
 73
     2
 40
7.5
 49
6.0
 49
-1.5
  0
LTYPE
  2
AMCONSTR
 70
     0
  3
_______________________
 72
    65
 73
     2
 40
9999.0
 49
9999.0
 49
0.0
  0
LTYPE
  2
ACISOWELD
 70
     0
  3
_ _ _ _ _
 72
    65
 73
     2
 40
2.0
 49
2.0
 49
-1.0
  0
LTYPE
  2
ACISOTGB
 70
     0
  3
__ . . __ . .
 72
    65
 73
     6
 40
9.0
 49
4.0
 49
-1.0
 49
1.0
 49
-1.0
 49
1.0
 49
-1.0
  0
LTYPE
  2
ACISOTGL
 70
     0
  3
_ _ _ _ _
 72
    65
 73
     2
 40
3.0
 49
2.0
 49
-1.0
  0
LTYPE
  2
ACJISTGB
 70
     0
  3
__ . . __ . .
 72
    65
 73
     6
 40
9.0
 49
4.0
 49
-1.0
 49
1.0
 49
-1.0
 49
1.0
 49
-1.0
  0
LTYPE
  2
ACJISTGL
 70
     0
  3
_ _ _ _ _
 72
    65
 73
     2
 40
3.0
 49
2.0
 49
-1.0
  0
LTYPE
  2
HIDDEN
 70
     0
  3
Hidden __ __ __ __ __ __ __ __ __ __ __ __ __ _
 72
    65
 73
     2
 40
9.5249999999999986
 49
6.3499999999999988
 49
-3.1749999999999989
  0
ENDTAB
  0
TABLE
  2
LAYER
 70
     8
  0
LAYER
  2
0
 70
     0
 62
     7
  6
CONTINUOUS
  0
LAYER
  2
DEFPOINTS
 70
     0
 62
     7
  6
CONTINUOUS
  0
LAYER
  2
245
 70
     0
 62
     2
  6
CENTER2
  0
LAYER
  2
240
 70
     0
 62
     4
  6
CONTINUOUS
  0
LAYER
  2
241
 70
     0
 62
   211
  6
CONTINUOUS
  0
LAYER
  2
246
 70
     0
 62
     3
  6
PHANTOM2
  0
LAYER
  2
247
 70
     0
 62
    60
  6
CONTINUOUS
  0
LAYER
  2
250
 70
     0
 62
     3
  6
CONTINUOUS
  0
ENDTAB
  0
TABLE
  2
STYLE
 70
     6
  0
STYLE
  2
STANDARD
 70
     0
 40
0.0
 41
1.0
 50
0.0
 71
     0
 42
3.0
  3
romans.shx
  4
extfont.shx
  0
STYLE
  2
ACISOTS
 70
     0
 40
1.0
 41
1.0
 50
0.0
 71
     0
 42
3.0
  3
amgdt.shx
  4
extfont.shx
  0
STYLE
  2
ACISOGDT
 70
     0
 40
0.0
 41
1.0
 50
0.0
 71
     0
 42
3.0
  3
amgdt.shx
  4
extfont.shx
  0
STYLE
  2
ACJISTS
 70
     0
 40
1.0
 41
1.0
 50
0.0
 71
     0
 42
3.0
  3
amgdt.shx
  4
extfont.shx
  0
STYLE
  2
ACJISGDT
 70
     0
 40
0.0
 41
1.0
 50
0.0
 71
     0
 42
3.0
  3
amgdt.shx
  4
extfont.shx
  0
STYLE
  2
YOKO
 70
     0
 40
0.0
 41
1.0
 50
0.0
 71
     0
 42
3.0
  3
romans.shx
  4
extfont.shx
  0
ENDTAB
  0
TABLE
  2
VIEW
 70
     0
  0
ENDTAB
  0
TABLE
  2
UCS
 70
     0
  0
ENDTAB
  0
TABLE
  2
APPID
 70
    31
  0
APPID
  2
ACAD
 70
     0
  0
APPID
  2
GLOBAL
 70
     0
  0
APPID
  2
DETAIL
 70
     0
  0
APPID
  2
GRPNAME
 70
     0
  0
APPID
  2
GPARA
 70
     0
  0
APPID
  2
MCAD_NO_VIS
 70
     0
  0
APPID
  2
ACAD_TEMP_GRAPHIC
 70
     0
  0
APPID
  2
ACATTRIBSERVICES
 70
     0
  0
APPID
  2
GENIUS_GENSCREG_15
 70
     0
  0
APPID
  2
GENIUS_GENODEF_13
 70
     0
  0
APPID
  2
GENIUS_GENOBJ-N-SDF_13
 70
     0
  0
APPID
  2
GENIUS_GENREC_14
 70
     0
  0
APPID
  2
GENIUS_GENOBJ-N-REC_13
 70
     0
  0
APPID
  2
GENIUS_GENDIMSH_14
 70
     0
  0
APPID
  2
GENIUS_GENOBJ-N-DIM_13
 70
     0
  0
APPID
  2
GENIUS_GENDIM_13
 70
     0
  0
APPID
  2
GENIUS_GENDTOL_13
 70
     0
  0
APPID
  2
GENIUS_GENOLIS_13
 70
     0
  0
APPID
  2
GENIUS_GENOENT_13
 70
     0
  0
APPID
  2
GENIUS_GENOBJ-F-FEM_13
 70
     0
  0
APPID
  2
GENIUS_GENOREF_13
 70
     0
  0
APPID
  2
GENIUS_GEFFEM_13
 70
     0
  0
APPID
  2
GENIUS_GEFFEMP_13
 70
     0
  0
APPID
  2
AD_DRAW
 70
     0
  0
APPID
  2
DESIGNERASSEMBLIES
 70
     0
  0
APPID
  2
ACADM_DIM_EDIT
 70
     0
  0
APPID
  2
AMDT_DM_ADJ
 70
     0
  0
APPID
  2
GENIUS_GENOBJ-N-FIL_13
 70
     0
  0
APPID
  2
HATCH_TYPE
 70
     0
  0
APPID
  2
HATCH_DISPLAY
 70
     0
  0
APPID
  2
HATCH_DISTANCE
 70
     0
  0
ENDTAB
  0
TABLE
  2
DIMSTYLE
 70
    23
  0
DIMSTYLE
  2
BIGT
 70
     0
  3

  4

  5
OPEN
  6

  7

 40
1.0
 41
2.2299999999999991
 42
0.5
 43
7.0
 44
1.0
 45
0.0
 46
0.0
 47
0.0
 48
0.01
140
2.7999999999999989
141
0.0
142
0.0
143
25.399999999999999
144
1.0
145
0.0
146
1.0
147
1.0
 71
     0
 72
     0
 73
     0
 74
     0
 75
     0
 76
     0
 77
     3
 78
     9
170
     0
171
     2
172
     1
173
     0
174
     1
175
     0
176
   256
177
   256
178
    40
  0
DIMSTYLE
  2
AM_ISO
 70
     0
  3

  4
"
  5

  6

  7

 40
1.0
 41
2.5
 42
1.0
 43
10.0
 44
1.0
 45
0.0
 46
0.0
 47
0.1
 48
0.1
140
3.5
141
0.0
142
0.0
143
0.0393701
144
1.0
145
0.0
146
0.71
147
1.5
 71
     0
 72
     0
 73
     0
 74
     0
 75
     0
 76
     0
 77
     1
 78
     8
170
     0
171
     2
172
     1
173
     0
174
     0
175
     0
176
   256
177
   256
178
     2
  0
DIMSTYLE
  2
AM_ISO$3
 70
     0
  3

  4
"
  5

  6

  7

 40
1.0
 41
2.5
 42
1.0
 43
10.0
 44
1.0
 45
0.0
 46
0.0
 47
0.1
 48
0.1
140
3.5
141
0.0
142
0.0
143
0.0393701
144
1.0
145
0.0
146
0.71
147
1.5
 71
     0
 72
     0
 73
     0
 74
     1
 75
     0
 76
     0
 77
     1
 78
     8
170
     0
171
     2
172
     0
173
     0
174
     0
175
     0
176
   256
177
   256
178
     2
  0
DIMSTYLE
  2
AM_ISO$4
 70
     0
  3

  4
"
  5

  6

  7

 40
1.0
 41
2.5
 42
1.0
 43
10.0
 44
1.0
 45
0.0
 46
0.0
 47
0.1
 48
0.1
140
3.5
141
0.0
142
0.0
143
0.0393701
144
1.0
145
0.0
146
0.71
147
1.5
 71
     0
 72
     0
 73
     0
 74
     1
 75
     0
 76
     0
 77
     1
 78
     8
170
     0
171
     2
172
     0
173
     0
174
     0
175
     0
176
   256
177
   256
178
     2
  0
DIMSTYLE
  2
AM_ISO$6
 70
     0
  3

  4
"
  5

  6

  7

 40
1.0
 41
2.5
 42
1.0
 43
10.0
 44
1.0
 45
0.0
 46
0.0
 47
0.1
 48
0.1
140
3.5
141
0.0
142
0.0
143
0.0393701
144
1.0
145
0.0
146
0.71
147
1.5
 71
     0
 72
     0
 73
     0
 74
     0
 75
     0
 76
     0
 77
     0
 78
     8
170
     0
171
     2
172
     1
173
     0
174
     0
175
     0
176
   256
177
   256
178
     2
  0
DIMSTYLE
  2
AM_ISO$7
 70
     0
  3

  4
"
  5

  6

  7

 40
1.0
 41
2.5
 42
1.0
 43
10.0
 44
1.0
 45
0.0
 46
0.0
 47
0.1
 48
0.1
140
5.0
141
0.0
142
0.0
143
0.0393701
144
1.0
145
0.0
146
0.71
147
1.5
 71
     0
 72
     0
 73
     0
 74
     0
 75
     0
 76
     0
 77
     1
 78
     8
170
     0
171
     2
172
     1
173
     0
174
     0
175
     0
176
   256
177
   256
178
     2
  0
DIMSTYLE
  2
AM_ISO$SF
 70
     0
  3

  4
"
  5

  6

  7

 40
1.0
 41
2.5
 42
1.0
 43
10.0
 44
1.0
 45
0.0
 46
0.0
 47
0.1
 48
0.1
140
3.5
141
0.0
142
0.0
143
0.0393701
144
1.0
145
0.0
146
0.71
147
1.5
 71
     0
 72
     0
 73
     0
 74
     0
 75
     1
 76
     1
 77
     1
 78
     8
170
     0
171
     2
172
     1
173
     0
174
     0
175
     0
176
   256
177
   256
178
     2
  0
DIMSTYLE
  2
AM_ISO$SH
 70
     0
  3

  4
"
  5

  6
GENAXEH
  7

 40
1.0
 41
2.5
 42
1.0
 43
10.0
 44
1.0
 45
0.0
 46
0.0
 47
0.1
 48
0.1
140
3.5
141
0.0
142
0.0
143
0.0393701
144
2.0
145
0.0
146
0.71
147
1.5
 71
     0
 72
     0
 73
     0
 74
     0
 75
     1
 76
     1
 77
     1
 78
     8
170
     0
171
     2
172
     1
173
     1
174
     0
175
     0
176
   256
177
   256
178
     2
  0
DIMSTYLE
  2
BIGT$2
 70
     0
  3

  4

  5
OPEN
  6

  7

 40
1.0
 41
2.2299999999999991
 42
0.5
 43
7.0
 44
1.0
 45
0.0
 46
0.0
 47
0.0
 48
0.01
140
2.7999999999999989
141
0.0
142
0.0
143
25.399999999999999
144
1.0
145
0.0
146
1.0
147
1.0
 71
     0
 72
     0
 73
     0
 74
     0
 75
     0
 76
     0
 77
     3
 78
     9
170
     0
171
     2
172
     1
173
     0
174
     0
175
     0
176
   256
177
   256
178
    40
  0
DIMSTYLE
  2
BIGT$3
 70
     0
  3

  4

  5
OPEN
  6

  7

 40
1.0
 41
2.2299999999999991
 42
0.5
 43
2.5
 44
1.0
 45
0.0
 46
0.0
 47
0.0
 48
0.01
140
2.7999999999999989
141
0.0
142
0.0
143
25.399999999999999
144
1.0
145
0.0
146
1.0
147
1.0
 71
     0
 72
     0
 73
     0
 74
     0
 75
     0
 76
     0
 77
     3
 78
     9
170
     0
171
     2
172
     1
173
     0
174
     0
175
     0
176
   256
177
   256
178
    40
  0
DIMSTYLE
  2
BIGT$7
 70
     0
  3

  4

  5
OPEN
  6

  7

 40
0.0
 41
2.2299999999999991
 42
0.5
 43
7.0
 44
1.0
 45
0.0
 46
0.0
 47
0.0
 48
0.01
140
2.7999999999999989
141
0.0
142
0.0
143
25.399999999999999
144
1.0
145
0.0
146
1.0
147
1.0
 71
     0
 72
     0
 73
     0
 74
     0
 75
     0
 76
     0
 77
     3
 78
     9
170
     0
171
     2
172
     0
173
     0
174
     0
175
     0
176
   256
177
   256
178
    40
  0
DIMSTYLE
  2
BIGT$6
 70
     0
  3

  4

  5
OPEN
  6

  7

 40
1.0
 41
2.2299999999999991
 42
0.5
 43
2.5
 44
1.0
 45
0.0
 46
0.0
 47
0.0
 48
0.01
140
2.7999999999999989
141
0.0
142
0.0
143
25.399999999999999
144
1.0
145
0.0
146
1.0
147
1.0
 71
     0
 72
     0
 73
     0
 74
     0
 75
     0
 76
     0
 77
     3
 78
     9
170
     0
171
     2
172
     1
173
     0
174
     0
175
     0
176
   256
177
   256
178
    40
  0
DIMSTYLE
  2
BIGT$0
 70
     0
  3

  4

  5
OPEN
  6

  7

 40
1.0
 41
2.2299999999999991
 42
0.5
 43
7.0
 44
1.0
 45
0.0
 46
0.0
 47
0.0
 48
0.01
140
2.7999999999999989
141
0.0
142
0.0
143
25.399999999999999
144
1.0
145
0.0
146
1.0
147
1.0
 71
     0
 72
     0
 73
     0
 74
     0
 75
     0
 76
     0
 77
     3
 78
     9
170
     0
171
     2
172
     1
173
     0
174
     0
175
     0
176
   256
177
   256
178
    40
  0
DIMSTYLE
  2
BIGT$4
 70
     0
  3

  4

  5
OPEN
  6

  7

 40
1.0
 41
2.2299999999999991
 42
0.5
 43
2.5
 44
1.0
 45
0.0
 46
0.0
 47
0.0
 48
0.01
140
2.7999999999999989
141
0.0
142
0.0
143
25.399999999999999
144
1.0
145
0.0
146
1.0
147
1.0
 71
     0
 72
     0
 73
     0
 74
     0
 75
     0
 76
     0
 77
     3
 78
     9
170
     0
171
     2
172
     1
173
     0
174
     0
175
     0
176
   256
177
   256
178
    40
  0
DIMSTYLE
  2
BIGT$SH
 70
     0
  3

  4

  5
OPEN
  6

  7

 40
1.0
 41
2.2299999999999991
 42
0.5
 43
7.0
 44
1.0
 45
0.0
 46
0.0
 47
0.0
 48
0.0
140
2.7999999999999989
141
0.0
142
0.0
143
25.399999999999999
144
1.0
145
0.0
146
1.0
147
1.0
 71
     0
 72
     0
 73
     0
 74
     0
 75
     0
 76
     0
 77
     3
 78
     9
170
     0
171
     2
172
     1
173
     0
174
     0
175
     0
176
   256
177
   256
178
    40
  0
DIMSTYLE
  2
BIGT$SF
 70
     0
  3

  4

  5
OPEN
  6

  7

 40
1.0
 41
2.2299999999999991
 42
0.5
 43
7.0
 44
1.0
 45
0.0
 46
0.0
 47
0.0
 48
0.0
140
2.7999999999999989
141
0.0
142
0.0
143
25.399999999999999
144
1.0
145
0.0
146
1.0
147
1.0
 71
     0
 72
     0
 73
     0
 74
     0
 75
     0
 76
     0
 77
     3
 78
     9
170
     0
171
     2
172
     1
173
     0
174
     0
175
     0
176
   256
177
   256
178
    40
  0
DIMSTYLE
  2
TECHNICAL_OSAKA
 70
     0
  3

  4
"
  5
OPEN30
  6

  7

 40
1.0
 41
2.5
 42
1.0
 43
10.0
 44
1.0
 45
0.0
 46
0.0
 47
0.1
 48
0.1
140
2.7999999999999989
141
0.0
142
0.0
143
0.0393701
144
1.0
145
0.0
146
0.71
147
1.5
 71
     0
 72
     0
 73
     0
 74
     0
 75
     0
 76
     0
 77
     3
 78
     8
170
     0
171
     2
172
     1
173
     0
174
     0
175
     0
176
   256
177
   256
178
    40
  0
DIMSTYLE
  2
TECHNICAL_OSAKA$3
 70
     0
  3

  4
"
  5
OPEN30
  6

  7

 40
1.0
 41
2.5
 42
1.0
 43
10.0
 44
1.0
 45
0.0
 46
0.0
 47
0.1
 48
0.1
140
2.7999999999999989
141
0.0
142
0.0
143
0.0393701
144
1.0
145
0.0
146
0.71
147
1.5
 71
     0
 72
     0
 73
     0
 74
     1
 75
     0
 76
     0
 77
     3
 78
     8
170
     0
171
     2
172
     0
173
     0
174
     0
175
     0
176
   256
177
   256
178
    40
  0
DIMSTYLE
  2
TECHNICAL_OSAKA$4
 70
     0
  3

  4
"
  5
OPEN30
  6

  7

 40
1.0
 41
2.5
 42
1.0
 43
10.0
 44
1.0
 45
0.0
 46
0.0
 47
0.1
 48
0.1
140
2.7999999999999989
141
0.0
142
0.0
143
0.0393701
144
1.0
145
0.0
146
0.71
147
1.5
 71
     0
 72
     0
 73
     0
 74
     1
 75
     0
 76
     0
 77
     3
 78
     8
170
     0
171
     2
172
     0
173
     0
174
     0
175
     0
176
   256
177
   256
178
    40
  0
DIMSTYLE
  2
TECHNICAL_OSAKA$6
 70
     0
  3

  4
"
  5
OPEN30
  6

  7

 40
1.0
 41
2.5
 42
1.0
 43
10.0
 44
1.0
 45
0.0
 46
0.0
 47
0.1
 48
0.1
140
2.7999999999999989
141
0.0
142
0.0
143
0.0393701
144
1.0
145
0.0
146
0.71
147
1.5
 71
     0
 72
     0
 73
     0
 74
     0
 75
     0
 76
     0
 77
     0
 78
     8
170
     0
171
     2
172
     1
173
     0
174
     0
175
     0
176
   256
177
   256
178
    40
  0
DIMSTYLE
  2
TECHNICAL_OSAKA$7
 70
     0
  3

  4
"
  5
OPEN30
  6

  7

 40
1.0
 41
2.5
 42
1.0
 43
10.0
 44
1.0
 45
0.0
 46
0.0
 47
0.1
 48
0.1
140
2.7999999999999989
141
0.0
142
0.0
143
0.0393701
144
1.0
145
0.0
146
0.71
147
1.5
 71
     0
 72
     0
 73
     0
 74
     0
 75
     0
 76
     0
 77
     3
 78
     8
170
     0
171
     2
172
     1
173
     0
174
     0
175
     0
176
   256
177
   256
178
    40
  0
DIMSTYLE
  2
TECHNICAL_OSAKA$SF
 70
     0
  3

  4
"
  5
OPEN30
  6
OPEN30
  7
OPEN30
 40
1.0
 41
2.5
 42
1.0
 43
10.0
 44
1.0
 45
0.0
 46
0.0
 47
0.1
 48
0.1
140
3.5
141
0.0
142
0.0
143
0.0393701
144
1.0
145
0.0
146
0.71
147
1.5
 71
     0
 72
     0
 73
     0
 74
     0
 75
     1
 76
     1
 77
     3
 78
     8
170
     0
171
     2
172
     1
173
     0
174
     0
175
     0
176
   256
177
   256
178
    40
  0
DIMSTYLE
  2
TECHNICAL_OSAKA$SH
 70
     0
  3

  4
"
  5
OPEN30
  6
GENAXEH
  7
OPEN30
 40
1.0
 41
2.5
 42
1.0
 43
10.0
 44
1.0
 45
0.0
 46
0.0
 47
0.1
 48
0.1
140
3.5
141
0.0
142
0.0
143
0.0393701
144
2.0
145
0.0
146
0.71
147
1.5
 71
     0
 72
     0
 73
     0
 74
     0
 75
     1
 76
     1
 77
     3
 78
     8
170
     0
171
     2
172
     1
173
     1
174
     0
175
     0
176
   256
177
   256
178
    40
  0
ENDTAB
  0
ENDSEC
  0
SECTION
  2
BLOCKS
  0
BLOCK
  8
0
  2
$MODEL_SPACE
 70
     0
 10
0.0
 20
0.0
 30
0.0
  3
$MODEL_SPACE
  1

  0
ENDBLK
  5
1C
  8
0
  0
BLOCK
 67
     1
  8
0
  2
$PAPER_SPACE
 70
     0
 10
0.0
 20
0.0
 30
0.0
  3
$PAPER_SPACE
  1

  0
ENDBLK
  5
19
 67
     1
  8
0
  0
BLOCK
  8
0
  2
_OPEN
 70
     0
 10
0.0
 20
0.0
 30
0.0
  3
_OPEN
  1

  0
LINE
  5
199B
  8
0
  6
BYBLOCK
 62
     0
 10
-1.0
 20
0.1666666666666666
 30
0.0
 11
0.0
 21
0.0
 31
0.0
  0
LINE
  5
199C
  8
0
  6
BYBLOCK
 62
     0
 10
-1.0
 20
-0.1666666666666666
 30
0.0
 11
0.0
 21
0.0
 31
0.0
  0
LINE
  5
199D
  8
0
  6
BYBLOCK
 62
     0
 10
0.0
 20
0.0
 30
0.0
 11
-1.0
 21
0.0
 31
0.0
  0
ENDBLK
  5
199E
  8
0
  0
BLOCK
  8
0
  2
GENAXEH
 70
     0
 10
0.0
 20
0.0
 30
0.0
  3
GENAXEH
  1

  0
LINE
  5
19C6
  8
0
 10
-1.0
 20
0.0
 30
0.0
 11
1.0
 21
0.0
 31
0.0
  0
ENDBLK
  5
19C7
  8
0
  0
BLOCK
  8
0
  2
_OPEN30
 70
     0
 10
0.0
 20
0.0
 30
0.0
  3
_OPEN30
  1

  0
LINE
  5
19EB
  8
0
  6
BYBLOCK
 62
     0
 10
-1.0
 20
0.26794919
 30
0.0
 11
0.0
 21
0.0
 31
0.0
  0
LINE
  5
19EC
  8
0
  6
BYBLOCK
 62
     0
 10
0.0
 20
0.0
 30
0.0
 11
-1.0
 21
-0.26794919
 31
0.0
  0
LINE
  5
19ED
  8
0
  6
BYBLOCK
 62
     0
 10
0.0
 20
0.0
 30
0.0
 11
-1.0
 21
0.0
 31
0.0
  0
ENDBLK
  5
19EE
  8
0
  0
BLOCK
  8
0
  2
A$C55B85F12
 70
     0
 10
0.0
 20
0.0
 30
0.0
  3
A$C55B85F12
  1

  0
ARC
  5
1844
  8
240
 10
-0.6531358191362529
 20
-1.3814281878352681
 30
0.0
 40
0.4000000000000341
 50
313.9999999999979
 51
0.0
  0
LINE
  5
1845
  8
240
 10
-0.2531358191362187
 20
1.028292491930471
 30
0.0
 11
-0.2531358191362187
 21
-1.381428187835297
 31
0.0
  0
LINE
  5
1846
  8
241
 10
-3.3117144628988959
 20
-2.0302861518322071
 30
0.0
 11
-0.2531358191362187
 21
1.028292491930471
 31
0.0
  0
LINE
  5
1847
  8
241
 10
-1.4945108013818069
 20
-0.2130824903151166
 30
0.0
 11
-1.4945108013818069
 21
-2.75
 31
0.0
  0
LINE
  5
1848
  8
240
 10
-1.4945108013818069
 20
-2.75
 30
0.0
 11
-0.375272470952666
 21
-1.6691641079707431
 31
0.0
  0
LINE
  5
1849
  8
240
 10
-5.7864875492912233
 20
2.5660085736411702
 30
0.0
 11
-8.0777148158570622
 21
2.5660085736411702
 31
0.0
  0
LINE
  5
184A
  8
241
 10
-6.9038169113265822
 20
1.3921106691106879
 30
0.0
 11
-8.0777148158570622
 21
2.5660085736411689
 31
0.0
  0
ARC
  5
184B
  8
240
 10
-5.6655504654977733
 20
-3.2000000000000171
 30
0.0
 40
0.500000000000008
 50
64.158067236836914
 51
90.0
  0
LINE
  5
184C
  8
241
 10
-5.4476055183207563
 20
-0.1772378088849998
 30
0.0
 11
-5.4476055183207563
 21
-2.75
 31
0.0
  0
LINE
  5
184D
  8
241
 10
-5.665550465497744
 20
-2.700000000000045
 30
0.0
 11
-5.665550465497744
 21
0.0
 31
0.0
  0
LINE
  5
184E
  8
241
 10
-6.8472483688316617
 20
1.222405041625878
 30
0.0
 11
-3.5945571753735139
 21
-2.030286151832208
 31
0.0
  0
LINE
  5
184F
  8
240
 10
-5.4476055183207563
 20
-2.75
 30
0.0
 11
-1.4945108013818069
 21
-2.75
 31
0.0
  0
LINE
  5
1850
  8
240
 10
-3.5945571753735761
 20
4.7579389475586469
 30
0.0
 11
-5.7864875492911159
 21
2.5660085736410641
 31
0.0
  0
LINE
  5
1851
  8
240
 10
-0.0590232694408074
 20
1.505247754100502
 30
0.0
 11
-3.3122526138557191
 21
4.7584770985154128
 31
0.0
  0
LINE
  5
1852
  8
240
 10
-23.577491472118371
 20
3.637822173508936
 30
0.0
 11
-25.936852676544621
 21
5.0
 31
0.0
  0
ARC
  5
1853
  8
240
 10
-20.077491472118371
 20
-9.6999999999999886
 30
0.0
 40
6.9999999999999982
 50
90.0
 51
119.9999999999997
  0
LINE
  5
1854
  8
240
 10
-25.936852676544621
 20
-5.0
 30
0.0
 11
-23.577491472118371
 21
-3.637822173508936
 31
0.0
  0
LINE
  5
1855
  8
241
 10
-21.953135819136271
 20
2.9559686919839971
 30
0.0
 11
-21.953135819136271
 21
-2.9559686919839971
 31
0.0
  0
LINE
  5
1856
  8
241
 10
-25.936852676544621
 20
-5.0
 30
0.0
 11
-25.936852676544621
 21
0.0
 31
0.0
  0
LINE
  5
1857
  8
241
 10
-25.936852676544621
 20
0.0
 30
0.0
 11
-25.936852676544621
 21
5.0
 31
0.0
  0
ARC
  5
1858
  8
240
 10
-20.077491472118371
 20
9.6999999999999886
 30
0.0
 40
6.9999999999999982
 50
240.0000000000002
 51
270.0
  0
LINE
  5
1859
  8
240
 10
-20.077491472118371
 20
-2.7000000000000171
 30
0.0
 11
-5.665550465497744
 21
-2.700000000000045
 31
0.0
  0
LINE
  5
185A
  8
240
 10
-8.2117062422158806
 20
2.6999999999999882
 30
0.0
 11
-20.077491472118371
 21
2.7000000000000171
 31
0.0
  0
LINE
  5
185B
  8
240
 10
-85.953135819136236
 20
-4.0
 30
0.0
 11
-85.953135819136236
 21
0.0
 31
0.0
  0
LINE
  5
185C
  8
240
 10
-85.953135819136236
 20
0.0
 30
0.0
 11
-85.953135819136236
 21
4.0
 31
0.0
  0
ARC
  5
185D
  8
240
 10
-84.953135819136222
 20
-4.0
 30
0.0
 40
1.0
 50
180.0
 51
270.0
  0
ARC
  5
185E
  8
240
 10
-84.953135819136222
 20
4.0
 30
0.0
 40
1.0
 50
90.0
 51
180.0
  0
LINE
  5
185F
  8
240
 10
-84.953135819136236
 20
-5.0
 30
0.0
 11
-25.936852676544621
 21
-5.0
 31
0.0
  0
LINE
  5
1860
  8
245
 10
-89.091712443224424
 20
0.0
 30
0.0
 11
2.3741131748991791
 21
0.0
 31
0.0
  0
LINE
  5
1861
  8
240
 10
-25.936852676544621
 20
5.0
 30
0.0
 11
-84.953135819136236
 21
5.0
 31
0.0
  0
ARC
  5
1862
  8
240
 10
-3.4531358191362651
 20
4.6165175913213394
 30
0.0
 40
0.2
 50
45.0
 51
135.00000000000051
1001
GENIUS_GENODEF_13
1002
{
1000
HIER
1070
     0
1002
}
1002
{
1000
MANEDIT
1070
     0
1002
}
1002
{
1000
NOSEL
1070
     0
1002
}
1002
{
1000
BEHIND
1070
     0
1002
}
1002
{
1000
OTHER
1070
     0
1002
}
1002
{
1000
REACTOR
1002
}
1001
GENIUS_GENOBJ-N-FIL_13
1002
{
1000
OWNER
1000
GEN
1002
}
  0
ARC
  5
1863
  8
240
 10
-0.2004446256781169
 20
1.3638263978631919
 30
0.0
 40
0.2
 50
315.0
 51
45.0
1001
GENIUS_GENODEF_13
1002
{
1000
HIER
1070
     0
1002
}
1002
{
1000
MANEDIT
1070
     0
1002
}
1002
{
1000
NOSEL
1070
     0
1002
}
1002
{
1000
BEHIND
1070
     0
1002
}
1002
{
1000
OTHER
1070
     0
1002
}
1002
{
1000
REACTOR
1002
}
1001
GENIUS_GENOBJ-N-FIL_13
1002
{
1000
OWNER
1000
GEN
1002
}
  0
ARC
  5
1864
  8
241
 10
-3.453135819136206
 20
-1.888864795594897
 30
0.0
 40
0.2
 50
225.00000000000051
 51
315.0
1001
GENIUS_GENOBJ-N-FIL_13
1002
{
1000
OWNER
1000
GEN
1002
}
1001
GENIUS_GENODEF_13
1002
{
1000
HIER
1070
     0
1002
}
1002
{
1000
MANEDIT
1070
     0
1002
}
1002
{
1000
NOSEL
1070
     0
1002
}
1002
{
1000
BEHIND
1070
     0
1002
}
1002
{
1000
OTHER
1070
     0
1002
}
1002
{
1000
REACTOR
1002
}
  0
ARC
  5
1865
  8
241
 10
-6.7058270125943542
 20
1.363826397863189
 30
0.0
 40
0.2
 50
135.00000000000051
 51
225.00000000000051
1001
GENIUS_GENOBJ-N-FIL_13
1002
{
1000
OWNER
1000
GEN
1002
}
1001
GENIUS_GENODEF_13
1002
{
1000
HIER
1070
     0
1002
}
1002
{
1000
MANEDIT
1070
     0
1002
}
1002
{
1000
NOSEL
1070
     0
1002
}
1002
{
1000
BEHIND
1070
     0
1002
}
1002
{
1000
OTHER
1070
     0
1002
}
1002
{
1000
REACTOR
1002
}
  0
CIRCLE
  5
1866
  8
246
 10
-3.4531358191362478
 20
1.3638263978632059
 30
0.0
 40
2.5
  0
LINE
  5
1867
  8
240
 10
-0.2531358191362187
 20
1.028292491930471
 30
0.0
 11
-0.0590232694408074
 21
1.2224050416258829
 31
0.0
  0
LINE
  5
1868
  8
241
 10
-5.7864875492911159
 20
2.5660085736410641
 30
0.0
 11
-6.8472483688316652
 21
1.505247754100498
 31
0.0
  0
LINE
  5
1869
  8
240
 10
-8.0777148158570622
 20
2.5660085736411689
 30
0.0
 11
-8.2117062422158806
 21
2.6999999999999882
 31
0.0
  0
TEXT
  5
186A
  8
247
 10
-74.817349916415452
 20
-4.1051336540454377
 30
0.0
 40
2.0
  1
ST10-C0409-45B-20
 41
0.7
  7
YOKO
 11
-74.817349916415452
 21
-4.1051336540454377
 31
0.0
 73
     1
  0
LINE
  5
186B
  8
247
 10
-79.485098443441245
 20
-1.957490468677981
 30
0.0
 11
-78.879637505941247
 21
-1.957490468677981
 31
0.0
  0
LINE
  5
186C
  8
247
 10
-79.480431451253764
 20
-4.0527153527111546
 30
0.0
 11
-78.879637505941247
 21
-1.957490468677981
 31
0.0
  0
LINE
  5
186D
  8
247
 10
-81.794363091878765
 20
-4.4019223779696759
 30
0.0
 11
-77.06845781844126
 21
-4.4019223779696759
 31
0.0
  0
LINE
  5
186E
  8
247
 10
-81.794363091878765
 20
-4.1691176964611802
 30
0.0
 11
-77.06845781844126
 21
-4.1691176964611802
 31
0.0
  0
ARC
  5
186F
  8
247
 10
-78.270520318441243
 20
-3.2961086327404758
 30
0.0
 40
0.756615234375
 50
163.99975070172931
 51
304.9638732916307
  0
ARC
  5
1870
  8
247
 10
-81.794363091878765
 20
-3.1797062889904781
 30
0.0
 40
0.9894111328124999
 50
90.0
 51
270.0
  0
ARC
  5
1871
  8
247
 10
-81.794363091878765
 20
-3.1797062889904781
 30
0.0
 40
1.2222158203124971
 50
90.0
 51
270.0
  0
LINE
  5
1872
  8
247
 10
-80.001130670003747
 20
-4.0527153527111546
 30
0.0
 11
-79.480431451253764
 21
-4.0527153527111546
 31
0.0
  0
LINE
  5
1873
  8
247
 10
-80.485003765334525
 20
-4.0090794685418203
 30
0.0
 11
-80.167742842014945
 21
-3.6918185452222549
 31
0.0
  0
LINE
  5
1874
  8
247
 10
-81.56316515465096
 20
-4.0527153527111546
 30
0.0
 11
-80.901124266317964
 21
-3.3906744643781881
 31
0.0
  0
LINE
  5
1875
  8
247
 10
-81.304533778364259
 20
-4.0527153527111546
 30
0.0
 11
-81.005095066270755
 21
-3.75327664061775
 31
0.0
  0
LINE
  5
1876
  8
247
 10
-80.787271025790645
 20
-4.0527153527111821
 30
0.0
 11
-80.129111370858965
 21
-3.39455569777946
 31
0.0
  0
LINE
  5
1877
  8
247
 10
-80.825685929125967
 20
-3.1275803528569468
 30
0.0
 11
-81.016469891915023
 21
-3.792946783916145
 31
0.0
  0
ARC
  5
1878
  8
247
 10
-80.965835748128725
 20
-3.4474299218029549
 30
0.0
 40
0.3492072715759277
 50
261.66285421114719
 51
66.338192159113603
  0
LINE
  5
1879
  8
247
 10
-81.045902402077445
 20
-4.0527153527111546
 30
0.0
 11
-80.19168907226674
 21
-3.198502022900505
 31
0.0
  0
LINE
  5
187A
  8
247
 10
-81.672203912191165
 20
-4.0527153527111546
 30
0.0
 11
-80.706110162191266
 21
-4.0527153527111546
 31
0.0
  0
LINE
  5
187B
  8
247
 10
-81.612064009975256
 20
-3.8429828317487189
 30
0.0
 11
-80.627042975922848
 21
-2.8579617976962828
 31
0.0
  0
LINE
  5
187C
  8
247
 10
-81.508087852527353
 20
-3.480375298014033
 30
0.0
 11
-80.693171343655848
 21
-2.665458789142412
 31
0.0
  0
ARC
  5
187D
  8
247
 10
-80.706110162191266
 20
-3.4707121483654979
 30
0.0
 40
0.5820029296875
 50
270.0
 51
40.329840654167192
  0
LINE
  5
187E
  8
247
 10
-80.624682362640655
 20
-3.3728639369875921
 30
0.0
 11
-79.861305971525354
 21
-2.6094875458722502
 31
0.0
  0
LINE
  5
187F
  8
247
 10
-79.558531060628752
 20
-2.2135685936779712
 30
0.0
 11
-79.485098443441245
 21
-1.957490468677981
 31
0.0
  0
LINE
  5
1880
  8
247
 10
-79.558531060628752
 20
-2.2135685936779712
 30
0.0
 11
-79.473760552816259
 21
-2.2135685936779712
 31
0.0
  0
LINE
  5
1881
  8
247
 10
-80.509280318396549
 20
-2.2229363875963548
 30
0.0
 11
-80.269182414037459
 21
-1.982838483237181
 31
0.0
  0
LINE
  5
1882
  8
247
 10
-81.252533215838554
 20
-2.1902951561780322
 30
0.0
 11
-81.019728528338561
 21
-1.957490468678039
 31
0.0
  0
LINE
  5
1883
  8
247
 10
-81.313592584066228
 20
-1.957490468677981
 30
0.0
 11
-81.380345513753738
 21
-2.1902951561779762
 31
0.0
  0
LINE
  5
1884
  8
247
 10
-81.192505670003669
 20
-1.957490468677981
 30
0.0
 11
-81.259258599691549
 21
-2.1902951561779762
 31
0.0
  0
LINE
  5
1885
  8
247
 10
-81.192505670003669
 20
-1.957490468677981
 30
0.0
 11
-80.44148854832585
 21
-1.957490468678067
 31
0.0
  0
LINE
  5
1886
  8
247
 10
-81.794363091878765
 20
-1.957490468677981
 30
0.0
 11
-81.313592584066228
 21
-1.957490468677981
 31
0.0
  0
LINE
  5
1887
  8
247
 10
-80.386912354634646
 20
-2.359199800121309
 30
0.0
 11
-80.096622114473661
 21
-2.0689095599601699
 31
0.0
  0
LINE
  5
1888
  8
247
 10
-81.259258599691549
 20
-2.1902951561779762
 30
0.0
 11
-81.138162896566541
 21
-2.1902951561787152
 31
0.0
  0
LINE
  5
1889
  8
247
 10
-81.794363091878765
 20
-2.1902951561779762
 30
0.0
 11
-81.380345513753738
 21
-2.1902951561779762
 31
0.0
  0
LINE
  5
188A
  8
247
 10
-81.196159380183644
 20
-2.3925526968098501
 30
0.0
 11
-80.76109715205186
 21
-1.957490468678039
 31
0.0
  0
LINE
  5
188B
  8
247
 10
-80.357073403485543
 20
-2.587992225258867
 30
0.0
 11
-79.967497233834834
 21
-2.1984160556081411
 31
0.0
  0
ARC
  5
188C
  8
247
 10
-80.439089654378634
 20
-2.5394933983654679
 30
0.0
 40
0.5820078735351563
 50
287.66957754739968
 51
90.236159842671583
  0
LINE
  5
188D
  8
247
 10
-81.300135537631533
 20
-2.7551602305445959
 30
0.0
 11
-80.502465775765046
 21
-1.957490468678067
 31
0.0
  0
LINE
  5
188E
  8
247
 10
-80.71496295130126
 20
-3.2045131493614241
 30
0.0
 11
-79.88187632786466
 21
-2.371426525924798
 31
0.0
  0
LINE
  5
188F
  8
247
 10
-80.001130670003747
 20
-4.0527153527111546
 30
0.0
 11
-79.473760552816259
 21
-2.2135685936779712
 31
0.0
  0
LINE
  5
1890
  8
247
 10
-80.558668199880017
 20
-2.1963800821236901
 30
0.0
 11
-80.749449024083447
 21
-2.8617267783352309
 31
0.0
  0
ARC
  5
1891
  8
247
 10
-80.698815240316264
 20
-2.5162199608655031
 30
0.0
 40
0.349197280883789
 50
261.6626016879294
 51
66.338155095189762
  0
LINE
  5
1892
  8
247
 10
-81.404111695079564
 20
-3.1177677642792849
 30
0.0
 11
-80.589198618175047
 21
-2.3028546873748121
 31
0.0
  0
LINE
  5
1893
  8
247
 10
-81.672203912191165
 20
-4.0527153527111546
 30
0.0
 11
-81.138162896566541
 21
-2.1902951561787152
 31
0.0
  0
ARC
  5
1894
  8
247
 10
-77.06845781844126
 20
-3.1797062889904821
 30
0.0
 40
1.2222158203124971
 50
270.0
 51
104.7707939660925
  0
ARC
  5
1895
  8
247
 10
-77.06845781844126
 20
-3.1797062889904821
 30
0.0
 40
0.9894111328124999
 50
270.0
 51
104.1274364964102
  0
LINE
  5
1896
  8
247
 10
-78.060540826253742
 20
-3.6195637108654708
 30
0.0
 11
-77.911047662191265
 21
-3.0982228905529681
 31
0.0
  0
LINE
  5
1897
  8
247
 10
-78.104793755941245
 20
-3.0982228905529681
 30
0.0
 11
-77.911047662191265
 21
-3.0982228905529681
 31
0.0
  0
LINE
  5
1898
  8
247
 10
-77.836938287191259
 20
-3.9161596886486989
 30
0.0
 11
-77.700373834066255
 21
-4.0527153527111546
 31
0.0
  0
LINE
  5
1899
  8
247
 10
-78.104793755941245
 20
-3.0982228905529681
 30
0.0
 11
-78.038040826253763
 21
-2.8654182030529771
 31
0.0
  0
LINE
  5
189A
  8
247
 10
-78.038040826253763
 20
-2.8654182030529771
 30
0.0
 11
-77.359920709066245
 21
-2.8654182030529771
 31
0.0
  0
LINE
  5
189B
  8
247
 10
-77.700373834066255
 20
-4.0527153527111546
 30
0.0
 11
-77.359920709066245
 21
-2.8654182030529771
 31
0.0
  0
LINE
  5
189C
  8
247
 10
-77.309954888753765
 20
-2.2202131249279722
 30
0.0
 11
-77.38006524031627
 21
-1.9978762108654911
 31
0.0
  0
LINE
  5
189D
  8
247
 10
-77.420969537191255
 20
-2.2552199608654822
 30
0.0
 11
-77.491079888753745
 21
-2.0328830468029429
 31
0.0
  0
ARC
  5
189E
  8
247
 10
-77.06845781844126
 20
-3.1797062889904821
 30
0.0
 40
1.222216369628905
 50
110.22964506332001
 51
118.57168892371681
  0
ARC
  5
189F
  8
247
 10
-77.981764459066255
 20
-2.4580187889904801
 30
0.0
 40
0.2444448051452637
 50
1.7101213820627561
 51
163.9983983544472
  0
ARC
  5
18A0
  8
247
 10
-77.06845781844126
 20
-3.1797062889904821
 30
0.0
 40
0.9894138793945311
 50
110.8721834020737
 51
132.5419489373877
  0
ARC
  5
18A1
  8
247
 10
-77.033494927816264
 20
-3.3358879296154731
 30
0.0
 40
1.9799648437499999
 50
155.20517736984041
 51
172.79482596205219
  0
ARC
  5
18A2
  8
247
 10
-78.295516412191262
 20
-3.5521867577404951
 30
0.0
 40
0.2444446334838867
 50
164.0002730571824
 51
344.00027305718248
  0
LINE
  5
18A3
  8
247
 10
-78.530491998128753
 20
-3.4848098046154892
 30
0.0
 11
-78.216740045003746
 21
-2.3906330468029822
 31
0.0
  0
ARC
  5
18A4
  8
247
 10
-78.10363359969125
 20
-2.714096913990466
 30
0.0
 40
0.7566075439453125
 50
53.444012197057539
 51
164.0001843876851
  0
LINE
  5
18A5
  8
247
 10
-77.309954888753765
 20
-2.2202131249279722
 30
0.0
 11
-77.38006524031627
 21
-1.9978762108654911
 31
0.0
  0
LINE
  5
18A6
  8
247
 10
-77.38006524031627
 20
-1.9978762108654911
 30
0.0
 11
-77.38006524031627
 21
-1.9978762108654911
 31
0.0
  0
LINE
  5
18A7
  8
247
 10
-77.38006524031627
 20
-1.9978762108654911
 30
0.0
 11
-77.309954888753765
 21
-2.2202131249279722
 31
0.0
  0
LINE
  5
18A8
  8
247
 10
-77.309954888753765
 20
-2.2202131249279722
 30
0.0
 11
-77.309954888753765
 21
-2.2202131249279722
 31
0.0
  0
LINE
  5
18A9
  8
247
 10
-77.309954888753765
 20
-2.2202131249279722
 30
0.0
 11
-77.38006524031627
 21
-1.9978762108654911
 31
0.0
1001
HATCH_DISTANCE
1040
1.0
1001
HATCH_DISPLAY
1070
     0
1001
HATCH_TYPE
1070
     7
  0
LINE
  5
18AA
  8
247
 10
-77.38006524031627
 20
-1.9978762108654911
 30
0.0
 11
-77.38006524031627
 21
-1.9978762108654911
 31
0.0
1001
HATCH_DISTANCE
1040
1.0
1001
HATCH_DISPLAY
1070
     0
1001
HATCH_TYPE
1070
     7
  0
LINE
  5
18AB
  8
247
 10
-77.38006524031627
 20
-1.9978762108654911
 30
0.0
 11
-77.309954888753765
 21
-2.2202131249279722
 31
0.0
1001
HATCH_DISTANCE
1040
1.0
1001
HATCH_DISPLAY
1070
     0
1001
HATCH_TYPE
1070
     7
  0
LINE
  5
18AC
  8
247
 10
-77.309954888753765
 20
-2.2202131249279722
 30
0.0
 11
-77.309954888753765
 21
-2.2202131249279722
 31
0.0
1001
HATCH_DISTANCE
1040
1.0
1001
HATCH_DISPLAY
1070
     0
1001
HATCH_TYPE
1070
     7
  0
LINE
  5
18AD
  8
247
 10
-77.309954888753765
 20
-2.2202131249279722
 30
0.0
 11
-77.38006524031627
 21
-1.9978762108654911
 31
0.0
  0
LINE
  5
18AE
  8
247
 10
-77.38006524031627
 20
-1.9978762108654911
 30
0.0
 11
-77.38006524031627
 21
-1.9978762108654911
 31
0.0
  0
LINE
  5
18AF
  8
247
 10
-77.38006524031627
 20
-1.9978762108654911
 30
0.0
 11
-77.309954888753765
 21
-2.2202131249279722
 31
0.0
  0
LINE
  5
18B0
  8
247
 10
-77.309954888753765
 20
-2.2202131249279722
 30
0.0
 11
-77.309954888753765
 21
-2.2202131249279722
 31
0.0
  0
LINE
  5
18B1
  8
247
 10
-77.309954888753765
 20
-2.2202131249279722
 30
0.0
 11
-77.38006524031627
 21
-1.9978762108654911
 31
0.0
1001
HATCH_DISTANCE
1040
1.0
1001
HATCH_DISPLAY
1070
     0
1001
HATCH_TYPE
1070
     7
  0
LINE
  5
18B2
  8
247
 10
-77.38006524031627
 20
-1.9978762108654911
 30
0.0
 11
-77.38006524031627
 21
-1.9978762108654911
 31
0.0
1001
HATCH_DISTANCE
1040
1.0
1001
HATCH_DISPLAY
1070
     0
1001
HATCH_TYPE
1070
     7
  0
LINE
  5
18B3
  8
247
 10
-77.38006524031627
 20
-1.9978762108654911
 30
0.0
 11
-77.309954888753765
 21
-2.2202131249279722
 31
0.0
1001
HATCH_DISTANCE
1040
1.0
1001
HATCH_DISPLAY
1070
     0
1001
HATCH_TYPE
1070
     7
  0
LINE
  5
18B4
  8
247
 10
-77.309954888753765
 20
-2.2202131249279722
 30
0.0
 11
-77.309954888753765
 21
-2.2202131249279722
 31
0.0
1001
HATCH_DISTANCE
1040
1.0
1001
HATCH_DISPLAY
1070
     0
1001
HATCH_TYPE
1070
     7
  0
LINE
  5
18B5
  8
247
 10
-79.485098443441245
 20
-1.957490468677981
 30
0.0
 11
-79.558531060628752
 21
-2.2135685936779712
 31
0.0
  0
LINE
  5
18B6
  8
247
 10
-79.558531060628752
 20
-2.2135685936779712
 30
0.0
 11
-79.473760552816259
 21
-2.2135685936779712
 31
0.0
  0
LINE
  5
18B7
  8
247
 10
-79.473760552816259
 20
-2.2135685936779712
 30
0.0
 11
-80.001130670003846
 21
-4.0527153527111546
 31
0.0
  0
LINE
  5
18B8
  8
247
 10
-80.001130670003846
 20
-4.0527153527111546
 30
0.0
 11
-79.480431451253764
 21
-4.0527153527111546
 31
0.0
  0
LINE
  5
18B9
  8
247
 10
-79.480431451253764
 20
-4.0527153527111546
 30
0.0
 11
-78.879637505941247
 21
-1.957490468677981
 31
0.0
  0
LINE
  5
18BA
  8
247
 10
-78.879637505941247
 20
-1.957490468677981
 30
0.0
 11
-79.485098443441245
 21
-1.957490468677981
 31
0.0
  0
LINE
  5
18BB
  8
247
 10
-79.485098443441245
 20
-1.957490468677981
 30
0.0
 11
-79.558531060628752
 21
-2.2135685936779712
 31
0.0
1001
HATCH_DISTANCE
1040
1.0
1001
HATCH_DISPLAY
1070
     0
1001
HATCH_TYPE
1070
     7
  0
LINE
  5
18BC
  8
247
 10
-79.558531060628752
 20
-2.2135685936779712
 30
0.0
 11
-79.473760552816259
 21
-2.2135685936779712
 31
0.0
1001
HATCH_DISTANCE
1040
1.0
1001
HATCH_DISPLAY
1070
     0
1001
HATCH_TYPE
1070
     7
  0
LINE
  5
18BD
  8
247
 10
-79.473760552816259
 20
-2.2135685936779712
 30
0.0
 11
-80.001130670003846
 21
-4.0527153527111546
 31
0.0
1001
HATCH_DISTANCE
1040
1.0
1001
HATCH_DISPLAY
1070
     0
1001
HATCH_TYPE
1070
     7
  0
LINE
  5
18BE
  8
247
 10
-80.001130670003846
 20
-4.0527153527111546
 30
0.0
 11
-79.480431451253764
 21
-4.0527153527111546
 31
0.0
1001
HATCH_DISTANCE
1040
1.0
1001
HATCH_DISPLAY
1070
     0
1001
HATCH_TYPE
1070
     7
  0
LINE
  5
18BF
  8
247
 10
-79.480431451253764
 20
-4.0527153527111546
 30
0.0
 11
-78.879637505941247
 21
-1.957490468677981
 31
0.0
1001
HATCH_DISTANCE
1040
1.0
1001
HATCH_DISPLAY
1070
     0
1001
HATCH_TYPE
1070
     7
  0
LINE
  5
18C0
  8
247
 10
-78.879637505941247
 20
-1.957490468677981
 30
0.0
 11
-79.485098443441245
 21
-1.957490468677981
 31
0.0
1001
HATCH_DISTANCE
1040
1.0
1001
HATCH_DISPLAY
1070
     0
1001
HATCH_TYPE
1070
     7
  0
LINE
  5
18C1
  8
247
 10
-77.821353753384955
 20
-3.93174321946017
 30
0.0
 11
-77.603102872709741
 21
-3.713492338784985
 31
0.0
  0
LINE
  5
18C2
  8
247
 10
-78.197426874649551
 20
-4.0491849644379982
 30
0.0
 11
-77.499126393315663
 21
-3.35088448310408
 31
0.0
  0
LINE
  5
18C3
  8
247
 10
-78.087591030132529
 20
-3.6807177436341258
 30
0.0
 11
-77.395149913921557
 21
-2.98827662742318
 31
0.0
  0
LINE
  5
18C4
  8
247
 10
-78.440301940470761
 20
-4.0334286539723481
 30
0.0
 11
-78.166985426297643
 21
-3.7601121397992499
 31
0.0
  0
LINE
  5
18C5
  8
247
 10
-77.970274468740456
 20
-3.3047698059553001
 30
0.0
 11
-77.530922865838164
 21
-2.865418203052982
 31
0.0
  0
LINE
  5
18C6
  8
247
 10
-78.628294704742373
 20
-3.9627900419572031
 30
0.0
 11
-78.425015338440261
 21
-3.759510675655048
 31
0.0
  0
LINE
  5
18C7
  8
247
 10
-78.022358929624943
 20
-3.0982228905529738
 30
0.0
 11
-77.78955424212495
 21
-2.8654182030529718
 31
0.0
  0
LINE
  5
18C8
  8
247
 10
-78.779799370125318
 20
-3.8556633310534041
 30
0.0
 11
-78.533241877901389
 21
-3.6091058388293851
 31
0.0
  0
LINE
  5
18C9
  8
247
 10
-77.449287937142856
 20
-2.2665205217841069
 30
0.0
 11
-77.425049338296247
 21
-2.2422819229374711
 31
0.0
  0
LINE
  5
18CA
  8
247
 10
-78.899465063821864
 20
-3.7166976484630729
 30
0.0
 11
-78.475380018293862
 21
-3.2926126029351281
 31
0.0
  0
LINE
  5
18CB
  8
247
 10
-77.772717915142763
 20
-2.3313191234971642
 30
0.0
 11
-77.487052779080045
 21
-2.045653987434461
 31
0.0
  0
LINE
  5
18CC
  8
247
 10
-78.98538074518504
 20
-3.5439819535395549
 30
0.0
 11
-78.371403185468949
 21
-2.9300043938234439
 31
0.0
  0
LINE
  5
18CD
  8
247
 10
-77.921220544095164
 20
-2.2211903761628058
 30
0.0
 11
-77.746897980612445
 21
-2.0468678126801159
 31
0.0
  0
LINE
  5
18CE
  8
247
 10
-79.026525135581466
 20
-3.3264949676491109
 30
0.0
 11
-78.267426352644179
 21
-2.5673961847117659
 31
0.0
  0
LINE
  5
18CF
  8
247
 10
-78.989878408785046
 20
-3.0312168645659341
 30
0.0
 11
-77.935148888322061
 21
-1.9764873441028681
 31
0.0
  0
LINE
  5
18D0
  8
247
 10
-78.90401464837376
 20
-2.686721727867873
 30
0.0
 11
-78.178494915573964
 21
-1.961201995068002
 31
0.0
  0
LINE
  5
18D1
  8
247
 10
-79.494114144356757
 20
-4.0527153527111528
 30
0.0
 11
-79.474930709159395
 21
-4.0335319175138169
 31
0.0
  0
LINE
  5
18D2
  8
247
 10
-79.752745520643543
 20
-4.0527153527111528
 30
0.0
 11
-79.370955235341995
 21
-3.6709250674095819
 31
0.0
  0
LINE
  5
18D3
  8
247
 10
-79.997011406310151
 20
-4.038349862090989
 30
0.0
 11
-79.266979761524453
 21
-3.3083182173053332
 31
0.0
  0
LINE
  5
18D4
  8
247
 10
-79.89303451354516
 20
-3.6757415930392661
 30
0.0
 11
-79.163004287707054
 21
-2.9457113672010911
 31
0.0
  0
LINE
  5
18D5
  8
247
 10
-79.789057620780255
 20
-3.313133323987548
 30
0.0
 11
-79.05902881388954
 21
-2.583104517096849
 31
0.0
  0
LINE
  5
18D6
  8
247
 10
-79.68508072801535
 20
-2.9505250549358131
 30
0.0
 11
-78.955053340072141
 21
-2.2204976669925962
 31
0.0
  0
LINE
  5
18D7
  8
247
 10
-79.581103835250445
 20
-2.587916785884087
 30
0.0
 11
-78.950677518044273
 21
-1.9574904686779779
 31
0.0
  0
LINE
  5
18D8
  8
247
 10
-79.477126942485455
 20
-2.2253085168323539
 30
0.0
 11
-79.209308894331031
 21
-1.957490468677987
 31
0.0
  0
LINE
  5
18D9
  8
247
 10
-79.491996885957946
 20
-1.9815470840181011
 30
0.0
 11
-79.467940270617845
 21
-1.9574904686779779
 31
0.0
  0
LINE
  5
18DA
  8
247
 10
-76.674516937562458
 20
-4.3366946613583934
 30
0.0
 11
-75.911469446073312
 21
-3.5736471698693322
 31
0.0
  0
LINE
  5
18DB
  8
247
 10
-76.154057609381255
 20
-3.5576039568903601
 30
0.0
 11
-75.848377433695987
 21
-3.2519237812050981
 31
0.0
  0
LINE
  5
18DC
  8
247
 10
-76.996240326226683
 20
-4.399786673735842
 30
0.0
 11
-76.690560150541444
 21
-4.0941064980505768
 31
0.0
  0
LINE
  5
18DD
  8
247
 10
-76.080083916396745
 20
-3.2249988876190989
 30
0.0
 11
-75.858956431795832
 21
-3.0038714030182012
 31
0.0
  0
LINE
  5
18DE
  8
247
 10
-77.257007406747391
 20
-4.4019223779696812
 30
0.0
 11
-77.023165219812654
 21
-4.1680801910350302
 31
0.0
  0
LINE
  5
18DF
  8
247
 10
-76.098447909638679
 20
-2.984731504574289
 30
0.0
 11
-75.908453431310051
 21
-2.7947370262455831
 31
0.0
  0
LINE
  5
18E0
  8
247
 10
-77.515638783034177
 20
-4.401922377969675
 30
0.0
 11
-77.282834101525566
 21
-4.1691176964611829
 31
0.0
  0
LINE
  5
18E1
  8
247
 10
-76.160025994986029
 20
-2.7876782136348162
 30
0.0
 11
-75.985490797244552
 21
-2.6131430158933782
 31
0.0
  0
LINE
  5
18E2
  8
247
 10
-77.774270159320992
 20
-4.401922377969675
 30
0.0
 11
-77.541465477812423
 21
-4.1691176964611829
 31
0.0
  0
LINE
  5
18E3
  8
247
 10
-76.251926705301941
 20
-2.6209475476639721
 30
0.0
 11
-76.084999162352545
 21
-2.4540200047145211
 31
0.0
  0
LINE
  5
18E4
  8
247
 10
-78.032901535607664
 20
-4.4019223779696812
 30
0.0
 11
-77.800096854099252
 21
-4.1691176964611829
 31
0.0
  0
LINE
  5
18E5
  8
247
 10
-76.369268131122652
 20
-2.4796575971978481
 30
0.0
 11
-76.204650332787253
 21
-2.3150397988624909
 31
0.0
  0
LINE
  5
18E6
  8
247
 10
-78.29153291189445
 20
-4.4019223779696812
 30
0.0
 11
-78.058728230385952
 21
-4.16911769646119
 31
0.0
  0
LINE
  5
18E7
  8
247
 10
-76.510719641430256
 20
-2.3624777312186871
 30
0.0
 11
-76.343760534874946
 21
-2.195518624663336
 31
0.0
  0
LINE
  5
18E8
  8
247
 10
-78.550164288181264
 20
-4.4019223779696812
 30
0.0
 11
-78.317359606672767
 21
-4.169117696461174
 31
0.0
  0
LINE
  5
18E9
  8
247
 10
-76.677630509593456
 20
-2.2707572230950941
 30
0.0
 11
-76.503022962027842
 21
-2.0961496755295279
 31
0.0
  0
LINE
  5
18EA
  8
247
 10
-78.80879566446805
 20
-4.401922377969675
 30
0.0
 11
-78.575990982959524
 21
-4.1691176964611829
 31
0.0
  0
LINE
  5
18EB
  8
247
 10
-76.874914427270255
 20
-2.2094097644850499
 30
0.0
 11
-76.684779077390857
 21
-2.0192744146057162
 31
0.0
  0
LINE
  5
18EC
  8
247
 10
-79.067427040754865
 20
-4.401922377969675
 30
0.0
 11
-78.834622359246396
 21
-4.1691176964611829
 31
0.0
  0
LINE
  5
18ED
  8
247
 10
-77.115552661257453
 20
-2.1914166221855349
 30
0.0
 11
-76.894123711745152
 21
-1.969987672673188
 31
0.0
  0
LINE
  5
18EE
  8
247
 10
-79.326058417041651
 20
-4.4019223779696812
 30
0.0
 11
-79.093253735533153
 21
-4.1691176964611829
 31
0.0
  0
LINE
  5
18EF
  8
247
 10
-77.332256554386987
 20
-2.149489139028196
 30
0.0
 11
-77.142502867775164
 21
-1.959735452416381
 31
0.0
  0
LINE
  5
18F0
  8
247
 10
-79.584689793328465
 20
-4.401922377969675
 30
0.0
 11
-79.351885111819939
 21
-4.1691176964611829
 31
0.0
  0
LINE
  5
18F1
  8
247
 10
-79.84332116961528
 20
-4.401922377969675
 30
0.0
 11
-79.610516488106754
 21
-4.1691176964611829
 31
0.0
  0
LINE
  5
18F2
  8
247
 10
-80.101952545902037
 20
-4.401922377969675
 30
0.0
 11
-79.86914786439354
 21
-4.1691176964611829
 31
0.0
  0
LINE
  5
18F3
  8
247
 10
-80.360583922188852
 20
-4.401922377969675
 30
0.0
 11
-80.127779240680269
 21
-4.1691176964611829
 31
0.0
  0
LINE
  5
18F4
  8
247
 10
-80.619215298475666
 20
-4.4019223779696812
 30
0.0
 11
-80.386410616967126
 21
-4.1691176964611829
 31
0.0
  0
LINE
  5
18F5
  8
247
 10
-80.877846674762452
 20
-4.4019223779696812
 30
0.0
 11
-80.645041993253869
 21
-4.16911769646119
 31
0.0
  0
LINE
  5
18F6
  8
247
 10
-81.136478051049181
 20
-4.401922377969675
 30
0.0
 11
-80.903673369540684
 21
-4.1691176964611829
 31
0.0
  0
LINE
  5
18F7
  8
247
 10
-81.395109427335996
 20
-4.401922377969675
 30
0.0
 11
-81.162304745827441
 21
-4.1691176964611829
 31
0.0
  0
LINE
  5
18F8
  8
247
 10
-81.653740803622739
 20
-4.401922377969675
 30
0.0
 11
-81.420936122114256
 21
-4.1691176964611829
 31
0.0
  0
LINE
  5
18F9
  8
247
 10
-81.907156185225858
 20
-4.3967063832860163
 30
0.0
 11
-81.679567498401042
 21
-4.1691176964611829
 31
0.0
  0
LINE
  5
18FA
  8
247
 10
-82.125336661853737
 20
-4.356255483627125
 30
0.0
 11
-81.928995821518853
 21
-4.1599146432922369
 31
0.0
  0
LINE
  5
18FB
  8
247
 10
-82.313774642048244
 20
-4.2860620875348081
 30
0.0
 11
-82.135982541554114
 21
-4.1082699870407318
 31
0.0
  0
LINE
  5
18FC
  8
247
 10
-82.478710291782448
 20
-4.1923663609821533
 30
0.0
 11
-82.310294782015475
 21
-4.0239508512151927
 31
0.0
  0
LINE
  5
18FD
  8
247
 10
-82.623056870211315
 20
-4.0780815631242966
 30
0.0
 11
-82.458273599542238
 21
-3.9132982924551771
 31
0.0
  0
LINE
  5
18FE
  8
247
 10
-82.747895795823865
 20
-3.9442891124499959
 30
0.0
 11
-82.582049169173445
 21
-3.7784424857995891
 31
0.0
  0
LINE
  5
18FF
  8
247
 10
-82.852913272685655
 20
-3.790675213025001
 30
0.0
 11
-82.681014904460554
 21
-3.6187768447998918
 31
0.0
  0
LINE
  5
1900
  8
247
 10
-81.511164592125454
 20
-2.1902951561779722
 30
0.0
 11
-81.327756147309316
 21
-2.006886711361977
 31
0.0
  0
LINE
  5
1901
  8
247
 10
-82.936279705588845
 20
-3.615410269641413
 30
0.0
 11
-82.751442192640866
 21
-3.4305727566934192
 31
0.0
  0
LINE
  5
1902
  8
247
 10
-81.769795968412197
 20
-2.1902951561779709
 30
0.0
 11
-81.536991280912176
 21
-1.9574904686779779
 31
0.0
  0
LINE
  5
1903
  8
247
 10
-82.993844902368735
 20
-3.4143440901345601
 30
0.0
 11
-82.783476525602964
 21
-3.203975713368731
 31
0.0
  0
LINE
  5
1904
  8
247
 10
-82.066624437869024
 20
-2.2284922493480481
 30
0.0
 11
-81.795623306896942
 21
-1.9574911183759649
 31
0.0
  0
LINE
  5
1905
  8
247
 10
-83.016578262493255
 20
-3.1784460739722582
 30
0.0
 11
-82.745577131521117
 21
-2.907444943000177
 31
0.0
  0
LINE
  5
1906
  8
247
 10
-82.980102476979866
 20
-2.883338912172055
 30
0.0
 11
-82.090730468697174
 21
-1.9939669038893919
 31
0.0
  0
ENDBLK
  5
1909
  8
0
  0
ENDSEC
  0
SECTION
  2
ENTITIES
  0
LINE
  5
138E
  8
250
 10
0.0000000000000284
 20
11.28180203003131
 30
0.0
 11
-2.2156243674621692
 21
11.029000403636729
 31
0.0
  0
LINE
  5
138F
  8
250
 10
-2.1734907630630569
 20
10.65972967572637
 30
0.0
 11
0.0000000000000284
 21
11.28180203003131
 31
0.0
  0
LINE
  5
1390
  8
250
 10
-2.2577579718612522
 20
11.398271131547091
 30
0.0
 11
0.0000000000000284
 21
11.28180203003131
 31
0.0
  0
LINE
  5
1391
  8
250
 10
-6.9548035792183782
 20
8.4010280638781296
 30
0.0
 11
-5.2093628201050981
 21
9.7889533343542041
 31
0.0
  0
LINE
  5
1392
  8
250
 10
-5.4406836985177867
 20
10.079860127539741
 30
0.0
 11
-6.9548035792183782
 21
8.4010280638781296
 31
0.0
  0
LINE
  5
1393
  8
250
 10
-4.9780419416924238
 20
9.4980465411686623
 30
0.0
 11
-6.9548035792183782
 21
8.4010280638781296
 31
0.0
  0
TEXT
  5
1394
  8
250
 10
-7.7737865745648662
 20
10.43003210511807
 30
0.0
 40
3.0
  1
45üï
 50
16.662396198099412
  0
LINE
  5
1395
  8
250
 10
-15.477504574513169
 20
-2.7000000000000171
 30
0.0
 11
-15.477504574513169
 21
-4.9300000000000059
 31
0.0
  0
LINE
  5
1396
  8
250
 10
-15.105837907846499
 20
-4.9300000000000059
 30
0.0
 11
-15.477504574513169
 21
-2.7000000000000171
 31
0.0
  0
LINE
  5
1397
  8
250
 10
-15.849171241179841
 20
-4.9300000000000059
 30
0.0
 11
-15.477504574513169
 21
-2.7000000000000171
 31
0.0
  0
LINE
  5
1398
  8
250
 10
-15.477504574513169
 20
2.7000000000000171
 30
0.0
 11
-15.477504574513169
 21
4.9300000000000059
 31
0.0
  0
LINE
  5
1399
  8
250
 10
-15.849171241179841
 20
4.9300000000000059
 30
0.0
 11
-15.477504574513169
 21
2.7000000000000171
 31
0.0
  0
LINE
  5
139A
  8
250
 10
-15.105837907846499
 20
4.9300000000000059
 30
0.0
 11
-15.477504574513169
 21
2.7000000000000171
 31
0.0
  0
TEXT
  5
139B
  8
250
 10
-16.477504574513219
 20
10.58857142857144
 30
0.0
 40
3.0
  1
5.4
 50
90.0
  0
TEXT
  5
139C
  8
250
 10
-16.477504574513219
 20
7.8742857142857474
 30
0.0
 40
3.0
  1
\U+2205
 50
90.0
  0
LINE
  5
139D
  8
250
 10
-21.953135819136271
 20
-17.135878136936132
 30
0.0
 11
-19.72313581913626
 21
-17.135878136936132
 31
0.0
  0
LINE
  5
139E
  8
250
 10
-19.72313581913626
 20
-16.764211470269458
 30
0.0
 11
-21.953135819136271
 21
-17.135878136936132
 31
0.0
  0
LINE
  5
139F
  8
250
 10
-19.72313581913626
 20
-17.507544803602801
 30
0.0
 11
-21.953135819136271
 21
-17.135878136936132
 31
0.0
  0
LINE
  5
13A0
  8
250
 10
0.0
 20
-17.135878136936132
 30
0.0
 11
-2.2299999999999889
 21
-17.135878136936132
 31
0.0
  0
LINE
  5
13A1
  8
250
 10
-2.2299999999999889
 20
-17.507544803602801
 30
0.0
 11
0.0
 21
-17.135878136936132
 31
0.0
  0
LINE
  5
13A2
  8
250
 10
-2.2299999999999889
 20
-16.764211470269458
 30
0.0
 11
0.0
 21
-17.135878136936132
 31
0.0
  0
TEXT
  5
13A3
  8
250
 10
-13.83371076671099
 20
-16.135878136936121
 30
0.0
 40
3.0
  1
22
  0
LINE
  5
13A4
  8
250
 10
12.522497551224429
 20
4.8169622169993991
 30
0.0
 11
12.522497551224429
 21
2.5869622169994102
 31
0.0
  0
LINE
  5
13A5
  8
250
 10
12.894164217891101
 20
2.5869622169994102
 30
0.0
 11
12.522497551224429
 21
4.8169622169993991
 31
0.0
  0
LINE
  5
13A6
  8
250
 10
12.15083088455776
 20
2.5869622169994102
 30
0.0
 11
12.522497551224429
 21
4.8169622169993991
 31
0.0
  0
TEXT
  5
13A7
  8
250
 10
11.522497551224371
 20
-2.0714285714285552
 30
0.0
 40
3.0
  1
9.8
 50
90.0
  0
TEXT
  5
13A8
  8
250
 10
11.522497551224371
 20
-4.7857142857142492
 30
0.0
 40
3.0
  1
\U+2205
 50
90.0
  0
LINE
  5
13A9
  8
250
 10
-96.477504574513176
 20
-5.0
 30
0.0
 11
-96.477504574513176
 21
-2.7700000000000098
 31
0.0
  0
LINE
  5
13AA
  8
250
 10
-96.849171241179846
 20
-2.7700000000000098
 30
0.0
 11
-96.477504574513176
 21
-5.0
 31
0.0
  0
LINE
  5
13AB
  8
250
 10
-96.105837907846521
 20
-2.7700000000000098
 30
0.0
 11
-96.477504574513176
 21
-5.0
 31
0.0
  0
LINE
  5
13AC
  8
250
 10
-96.477504574513176
 20
5.0
 30
0.0
 11
-96.477504574513176
 21
2.7700000000000098
 31
0.0
  0
LINE
  5
13AD
  8
250
 10
-96.105837907846521
 20
2.7700000000000098
 30
0.0
 11
-96.477504574513176
 21
5.0
 31
0.0
  0
LINE
  5
13AE
  8
250
 10
-96.849171241179846
 20
2.7700000000000098
 30
0.0
 11
-96.477504574513176
 21
5.0
 31
0.0
  0
TEXT
  5
13AF
  8
250
 10
-97.477504574513205
 20
-1.357142857142861
 30
0.0
 40
3.0
  1
10
 50
90.0
  0
TEXT
  5
13B0
  8
250
 10
-97.477504574513205
 20
-4.0714285714285552
 30
0.0
 40
3.0
  1
\U+2205
 50
90.0
  0
LINE
  5
13B1
  8
250
 10
-85.953135819136236
 20
-24.135878136936132
 30
0.0
 11
-83.723135819136246
 21
-24.135878136936132
 31
0.0
  0
LINE
  5
13B2
  8
250
 10
-83.723135819136246
 20
-23.764211470269458
 30
0.0
 11
-85.953135819136236
 21
-24.135878136936132
 31
0.0
  0
LINE
  5
13B3
  8
250
 10
-83.723135819136246
 20
-24.507544803602801
 30
0.0
 11
-85.953135819136236
 21
-24.135878136936132
 31
0.0
  0
LINE
  5
13B4
  8
250
 10
0.0
 20
-24.135878136936132
 30
0.0
 11
-2.2299999999999889
 21
-24.135878136936132
 31
0.0
  0
LINE
  5
13B5
  8
250
 10
-2.2299999999999889
 20
-24.507544803602801
 30
0.0
 11
0.0
 21
-24.135878136936132
 31
0.0
  0
LINE
  5
13B6
  8
250
 10
-2.2299999999999889
 20
-23.764211470269458
 30
0.0
 11
0.0
 21
-24.135878136936132
 31
0.0
  0
TEXT
  5
13B7
  8
250
 10
-45.833710766710979
 20
-23.135878136936132
 30
0.0
 40
3.0
  1
86
  0
LINE
  5
13B8
  8
250
 10
-85.953135819136222
 20
-17.135878136936132
 30
0.0
 11
-83.723135819136203
 21
-17.135878136936132
 31
0.0
  0
LINE
  5
13B9
  8
250
 10
-83.723135819136203
 20
-16.764211470269458
 30
0.0
 11
-85.953135819136222
 21
-17.135878136936132
 31
0.0
  0
LINE
  5
13BA
  8
250
 10
-83.723135819136203
 20
-17.507544803602801
 30
0.0
 11
-85.953135819136222
 21
-17.135878136936132
 31
0.0
  0
LINE
  5
13BB
  8
250
 10
-21.953135819136271
 20
-17.135878136936132
 30
0.0
 11
-24.183135819136272
 21
-17.135878136936132
 31
0.0
  0
LINE
  5
13BC
  8
250
 10
-24.183135819136272
 20
-17.507544803602801
 30
0.0
 11
-21.953135819136271
 21
-17.135878136936132
 31
0.0
  0
LINE
  5
13BD
  8
250
 10
-24.183135819136272
 20
-16.764211470269458
 30
0.0
 11
-21.953135819136271
 21
-17.135878136936132
 31
0.0
  0
TEXT
  5
13BE
  8
250
 10
-56.95313581913625
 20
-16.135878136936121
 30
0.0
 40
3.0
  1
64
  0
LINE
  5
13BF
  8
250
 10
-83.723135819136203
 20
-17.135878136936132
 30
0.0
 11
-24.183135819136272
 21
-17.135878136936132
 31
0.0
  0
LINE
  5
13C0
  8
250
 10
-21.953135819136271
 20
-3.4559686919839971
 30
0.0
 11
-21.953135819136271
 21
-18.135878136936132
 31
0.0
  0
LINE
  5
13C1
  8
250
 10
-85.953135819136222
 20
-4.5
 30
0.0
 11
-85.953135819136222
 21
-18.135878136936132
 31
0.0
  0
LINE
  5
13C2
  8
250
 10
-83.723135819136246
 20
-24.135878136936132
 30
0.0
 11
-2.2299999999999889
 21
-24.135878136936132
 31
0.0
  0
LINE
  5
13C3
  8
250
 10
0.0
 20
0.8638263973851394
 30
0.0
 11
0.0
 21
-25.135878136936132
 31
0.0
  0
LINE
  5
13C4
  8
250
 10
-85.953135819136236
 20
-4.5
 30
0.0
 11
-85.953135819136236
 21
-25.135878136936132
 31
0.0
  0
LINE
  5
13C5
  8
250
 10
-96.477504574513176
 20
-2.7700000000000098
 30
0.0
 11
-96.477504574513176
 21
2.7700000000000098
 31
0.0
  0
LINE
  5
13C6
  8
250
 10
-85.453135819136236
 20
5.0
 30
0.0
 11
-97.477504574513176
 21
5.0
 31
0.0
  0
LINE
  5
13C7
  8
250
 10
-85.453135819136236
 20
-5.0
 30
0.0
 11
-97.477504574513176
 21
-5.0
 31
0.0
  0
LINE
  5
13C8
  8
250
 10
12.522497551224429
 20
2.5869622169994102
 30
0.0
 11
12.522497551224429
 21
-4.8169622169993991
 31
0.0
  0
LINE
  5
13C9
  8
250
 10
-2.953135818658239
 20
4.8169622169993991
 30
0.0
 11
13.522497551224429
 21
4.8169622169993991
 31
0.0
  0
LINE
  5
13CA
  8
250
 10
-19.72313581913626
 20
-17.135878136936132
 30
0.0
 11
-2.2299999999999889
 21
-17.135878136936132
 31
0.0
  0
LINE
  5
13CB
  8
250
 10
0.0
 20
0.8638263973851394
 30
0.0
 11
0.0
 21
-18.135878136936132
 31
0.0
  0
LINE
  5
13CC
  8
250
 10
-21.953135819136271
 20
-3.4559686919839971
 30
0.0
 11
-21.953135819136271
 21
-18.135878136936132
 31
0.0
  0
LINE
  5
13CD
  8
250
 10
-15.477504574513169
 20
-2.7000000000000171
 30
0.0
 11
-15.477504574513169
 21
2.7000000000000171
 31
0.0
  0
LINE
  5
13CE
  8
250
 10
-15.477504574513169
 20
4.9300000000000059
 30
0.0
 11
-15.477504574513169
 21
18.302857142857128
 31
0.0
  0
LINE
  5
13CF
  8
250
 10
-15.477504574513169
 20
-4.9300000000000059
 30
0.0
 11
-15.477504574513191
 21
-7.160000000000025
 31
0.0
  0
LINE
  5
13D0
  8
250
  6
CONTINUOUS
 62
     3
 10
-19.577491472118371
 20
2.7000000000000171
 30
0.0
 11
-14.477504574513169
 21
2.7000000000000171
 31
0.0
  0
LINE
  5
13D1
  8
250
  6
CONTINUOUS
 62
     3
 10
-19.577491472118371
 20
-2.7000000000000171
 30
0.0
 11
-14.477504574513169
 21
-2.7000000000000171
 31
0.0
  0
ARC
  5
13D2
  8
250
 10
0.0000000000000284
 20
1.4462244846596941
 30
0.0
 40
9.8355775453716312
 50
103.01853927796979
 51
121.98146072203011
  0
LINE
  5
13D3
  8
250
 10
-3.6658060044489669
 20
5.1120304891086903
 30
0.0
 11
-7.6619103604049448
 21
9.1081348450646828
 31
0.0
  0
LINE
  5
13D4
  8
250
 10
0.0
 20
1.9462244846596659
 30
0.0
 11
0.0000000000000284
 21
12.28180203003131
 31
0.0
  0
TEXT
  5
1426
  8
241
 10
-84.0
 20
28.0
 30
0.0
 40
5.0
  1
ST10-C0409-45B-20
  7
YOKO
 11
-84.0
 21
28.0
 31
0.0
 73
     1
  0
INSERT
  5
190A
  8
240
  2
A$C55B85F12
 10
0.0
 20
0.0
 30
0.0
  0
VIEWPORT
  5
22
 67
     1
  8
0
 10
261.51769911504419
 20
148.5
 30
0.0
 40
523.0353982300885
 41
297.0
 68
     1
 69
     1
1001
ACAD
1000
MVIEW
1002
{
1070
    16
1010
0.0
1020
0.0
1030
0.0
1010
0.0
1020
0.0
1030
1.0
1040
0.0
1040
297.0
1040
261.51769911504419
1040
148.5
1040
50.0
1040
0.0
1040
0.0
1070
     0
1070
   100
1070
     1
1070
     1
1070
     0
1070
     0
1070
     0
1070
     0
1040
0.0
1040
0.0
1040
0.0
1040
1.0
1040
1.0
1040
10.0
1040
10.0
1070
     0
1002
{
1002
}
1002
}
1001
GENIUS_GENODEF_13
1002
{
1000
HIER
1070
     0
1002
}
1002
{
1000
MANEDIT
1070
     0
1002
}
1002
{
1000
NOSEL
1070
     0
1002
}
1002
{
1000
BEHIND
1070
     0
1002
}
1002
{
1000
OTHER
1070
     0
1002
}
1002
{
1000
REACTOR
1002
}
1001
GENIUS_GENOBJ-N-SDF_13
1002
{
1000
OWNER
1000
GEN
1002
}
1001
GENIUS_GENSCREG_15
1000
PF
1040
1.0
1000
DF
1040
1.0
1000
MIN
1011
0.0
1021
0.0
1031
-0.0
1021
0.0
1031
0.0
1000
MAX
1011
523.0353982300885
1021
0.0
1031
-0.0
1021
297.0
1031
0.0
1000
FLAGS
1070
     2
  0
ENDSEC
  0
EOF
