  0
SECTION
  2
HEADER
  9
$ACADVER
  1
AC1009
  9
$INSBASE
 10
0.0
 20
0.0
 30
0.0
  9
$EXTMIN
 10
-103.2221826561984
 20
-30.8482356309521
 30
-0.0015258207003583
  9
$EXTMAX
 10
12.27227819207155
 20
23.93005398326796
 30
0.0000000349246037
  9
$LIMMIN
 10
0.0
 20
0.0
  9
$LIMMAX
 10
297.0
 20
210.0
  9
$ORTHOMODE
 70
     1
  9
$REGENMODE
 70
     1
  9
$FILLMODE
 70
     1
  9
$QTEXTMODE
 70
     0
  9
$MIRRTEXT
 70
     1
  9
$DRAGMODE
 70
     2
  9
$LTSCALE
 40
10.0
  9
$OSMODE
 70
  2597
  9
$ATTMODE
 70
     1
  9
$TEXTSIZE
 40
3.0
  9
$TRACEWID
 40
1.0
  9
$TEXTSTYLE
  7
YOKO
  9
$CLAYER
  8
240
  9
$CELTYPE
  6
BYLAYER
  9
$CECOLOR
 62
   256
  9
$DIMSCALE
 40
1.0
  9
$DIMASZ
 40
2.2299999999999991
  9
$DIMEXO
 40
0.5
  9
$DIMDLI
 40
7.0
  9
$DIMRND
 40
0.0
  9
$DIMDLE
 40
0.0
  9
$DIMEXE
 40
1.0
  9
$DIMTP
 40
0.0
  9
$DIMTM
 40
0.01
  9
$DIMTXT
 40
2.7999999999999989
  9
$DIMCEN
 40
0.0
  9
$DIMTSZ
 40
0.0
  9
$DIMTOL
 70
     0
  9
$DIMLIM
 70
     0
  9
$DIMTIH
 70
     0
  9
$DIMTOH
 70
     0
  9
$DIMSE1
 70
     0
  9
$DIMSE2
 70
     0
  9
$DIMTAD
 70
     3
  9
$DIMZIN
 70
     9
  9
$DIMBLK
  1
OPEN
  9
$DIMASO
 70
     1
  9
$DIMSHO
 70
     1
  9
$DIMPOST
  1

  9
$DIMAPOST
  1

  9
$DIMALT
 70
     0
  9
$DIMALTD
 70
     2
  9
$DIMALTF
 40
25.399999999999999
  9
$DIMLFAC
 40
1.0
  9
$DIMTOFL
 70
     1
  9
$DIMTVP
 40
0.0
  9
$DIMTIX
 70
     1
  9
$DIMSOXD
 70
     0
  9
$DIMSAH
 70
     0
  9
$DIMBLK1
  1

  9
$DIMBLK2
  1

  9
$DIMSTYLE
  2
BIGT
  9
$DIMCLRD
 70
   256
  9
$DIMCLRE
 70
   256
  9
$DIMCLRT
 70
    40
  9
$DIMTFAC
 40
1.0
  9
$DIMGAP
 40
1.0
  9
$LUNITS
 70
     2
  9
$LUPREC
 70
     3
  9
$SKETCHINC
 40
1.0
  9
$FILLETRAD
 40
0.5
  9
$AUNITS
 70
     0
  9
$AUPREC
 70
     3
  9
$MENU
  1
.
  9
$ELEVATION
 40
0.0
  9
$PELEVATION
 40
0.0
  9
$THICKNESS
 40
0.0
  9
$LIMCHECK
 70
     0
  9
$BLIPMODE
 70
     0
  9
$CHAMFERA
 40
0.25
  9
$CHAMFERB
 40
0.25
  9
$SKPOLY
 70
     0
  9
$TDCREATE
 40
2454679.4567890968
  9
$TDUPDATE
 40
2454679.4689869098
  9
$TDINDWG
 40
0.0121987153
  9
$TDUSRTIMER
 40
0.0121987153
  9
$USRTIMER
 70
     1
  9
$ANGBASE
 50
0.0
  9
$ANGDIR
 70
     0
  9
$PDMODE
 70
     1
  9
$PDSIZE
 40
0.0
  9
$PLINEWID
 40
0.0
  9
$COORDS
 70
     2
  9
$SPLFRAME
 70
     0
  9
$SPLINETYPE
 70
     6
  9
$SPLINESEGS
 70
     4
  9
$ATTDIA
 70
     1
  9
$ATTREQ
 70
     1
  9
$HANDLING
 70
     1
  9
$HANDSEED
  5
1837
  9
$SURFTAB1
 70
     6
  9
$SURFTAB2
 70
     6
  9
$SURFTYPE
 70
     6
  9
$SURFU
 70
     6
  9
$SURFV
 70
     6
  9
$UCSNAME
  2

  9
$UCSORG
 10
0.0
 20
0.0
 30
0.0
  9
$UCSXDIR
 10
1.0
 20
0.0
 30
0.0
  9
$UCSYDIR
 10
0.0
 20
1.0
 30
0.0
  9
$PUCSNAME
  2

  9
$PUCSORG
 10
0.0
 20
0.0
 30
0.0
  9
$PUCSXDIR
 10
1.0
 20
0.0
 30
0.0
  9
$PUCSYDIR
 10
0.0
 20
1.0
 30
0.0
  9
$USERI1
 70
     1
  9
$USERI2
 70
     0
  9
$USERI3
 70
     0
  9
$USERI4
 70
     0
  9
$USERI5
 70
     0
  9
$USERR1
 40
0.0
  9
$USERR2
 40
0.0
  9
$USERR3
 40
0.0
  9
$USERR4
 40
0.0
  9
$USERR5
 40
0.0
  9
$WORLDVIEW
 70
     1
  9
$SHADEDGE
 70
     3
  9
$SHADEDIF
 70
    70
  9
$TILEMODE
 70
     1
  9
$MAXACTVP
 70
    16
  9
$PLIMCHECK
 70
     0
  9
$PEXTMIN
 10
1.0000000000000000E+020
 20
1.0000000000000000E+020
 30
1.0000000000000000E+020
  9
$PEXTMAX
 10
-1.0000000000000000E+020
 20
-1.0000000000000000E+020
 30
-1.0000000000000000E+020
  9
$PLIMMIN
 10
0.0
 20
0.0
  9
$PLIMMAX
 10
420.0
 20
297.0
  9
$UNITMODE
 70
     0
  9
$VISRETAIN
 70
     1
  9
$PLINEGEN
 70
     0
  9
$PSLTSCALE
 70
     1
  0
ENDSEC
  0
SECTION
  2
TABLES
  0
TABLE
  2
VPORT
 70
    42
  0
VPORT
  2
*ACTIVE
 70
     0
 10
0.0
 20
0.0
 11
1.0
 21
1.0
 12
-45.474952232063458
 22
-3.4590908238420748
 13
0.0
 23
0.0
 14
7.0
 24
7.0
 15
7.0
 25
7.0
 16
0.0
 26
0.0
 36
1.0
 17
0.0
 27
0.0
 37
0.0
 40
78.083775370584888
 41
1.4864532019704431
 42
50.0
 43
0.0
 44
0.0
 50
0.0
 51
0.0
 71
     0
 72
  2000
 73
     1
 74
     0
 75
     0
 76
     0
 77
     0
 78
     0
  0
ENDTAB
  0
TABLE
  2
LTYPE
 70
    16
  0
LTYPE
  2
CONTINUOUS
 70
     0
  3
Solid line
 72
    65
 73
     0
 40
0.0
  0
LTYPE
  2
CENTER2
 70
     0
  3
___ _ ___ _ ___ _ ___ _ ___ _ ___ _ ___ _ ___ _
 72
    65
 73
     4
 40
1.125
 49
0.75
 49
-0.125
 49
0.125
 49
-0.125
  0
LTYPE
  2
HIDDEN2
 70
     0
  3
_ _ _ _ _ _ _ _ _ _ _ _ _ _ _ _ _ _ _ _ _ _ _ _
 72
    65
 73
     2
 40
0.1875
 49
0.125
 49
-0.0625
  0
LTYPE
  2
PHANTOM2
 70
     0
  3
___ _ _ ___ _ _ ___ _ _ ___ _ _ ___ _ _ ___ _ _
 72
    65
 73
     6
 40
1.25
 49
0.625
 49
-0.125
 49
0.125
 49
-0.125
 49
0.125
 49
-0.125
  0
LTYPE
  2
CENTER
 70
     0
  3
____ _ ____ _ ____ _ ____ _ ____ _ ____ _ ____ 
 72
    65
 73
     4
 40
2.0
 49
1.25
 49
-0.25
 49
0.25
 49
-0.25
  0
LTYPE
  2
AM_ISO02W050
 70
     0
  3
__ __ __ __ __ __ __ __ __ __ __ __ __ __ __
 72
    65
 73
     2
 40
7.5
 49
6.0
 49
-1.5
  0
LTYPE
  2
AMCONSTR
 70
     0
  3
_______________________
 72
    65
 73
     2
 40
9999.0
 49
9999.0
 49
0.0
  0
LTYPE
  2
ACISOWELD
 70
     0
  3
_ _ _ _ _
 72
    65
 73
     2
 40
2.0
 49
2.0
 49
-1.0
  0
LTYPE
  2
ACISOTGB
 70
     0
  3
__ . . __ . .
 72
    65
 73
     6
 40
9.0
 49
4.0
 49
-1.0
 49
1.0
 49
-1.0
 49
1.0
 49
-1.0
  0
LTYPE
  2
ACISOTGL
 70
     0
  3
_ _ _ _ _
 72
    65
 73
     2
 40
3.0
 49
2.0
 49
-1.0
  0
LTYPE
  2
ACJISTGB
 70
     0
  3
__ . . __ . .
 72
    65
 73
     6
 40
9.0
 49
4.0
 49
-1.0
 49
1.0
 49
-1.0
 49
1.0
 49
-1.0
  0
LTYPE
  2
ACJISTGL
 70
     0
  3
_ _ _ _ _
 72
    65
 73
     2
 40
3.0
 49
2.0
 49
-1.0
  0
LTYPE
  2
HIDDEN
 70
     0
  3
Hidden __ __ __ __ __ __ __ __ __ __ __ __ __ _
 72
    65
 73
     2
 40
9.5249999999999986
 49
6.3499999999999988
 49
-3.1749999999999989
  0
LTYPE
  2
ACANSTGB
 70
     0
  3
__ . . __ . .
 72
    65
 73
     6
 40
0.35433070866
 49
0.15748031496
 49
-0.03937007874
 49
0.03937007874
 49
-0.03937007874
 49
0.03937007874
 49
-0.03937007874
  0
LTYPE
  2
ACANSTGL
 70
     0
  3
_ _ _ _ _
 72
    65
 73
     2
 40
0.11811023622
 49
0.07874015748
 49
-0.03937007874
  0
ENDTAB
  0
TABLE
  2
LAYER
 70
    14
  0
LAYER
  2
0
 70
     0
 62
     7
  6
CONTINUOUS
  0
LAYER
  2
DEFPOINTS
 70
     0
 62
     7
  6
CONTINUOUS
  0
LAYER
  2
245
 70
     0
 62
     2
  6
CENTER2
  0
LAYER
  2
240
 70
     0
 62
     4
  6
CONTINUOUS
  0
LAYER
  2
241
 70
     0
 62
   211
  6
CONTINUOUS
  0
LAYER
  2
246
 70
     0
 62
     3
  6
PHANTOM2
  0
LAYER
  2
247
 70
     0
 62
    60
  6
CONTINUOUS
  0
LAYER
  2
250
 70
     0
 62
     3
  6
CONTINUOUS
  0
ENDTAB
  0
TABLE
  2
STYLE
 70
     8
  0
STYLE
  2
STANDARD
 70
     0
 40
0.0
 41
1.0
 50
0.0
 71
     0
 42
3.0
  3
romans.shx
  4
extfont.shx
  0
STYLE
  2
ACISOTS
 70
     0
 40
1.0
 41
1.0
 50
0.0
 71
     0
 42
3.0
  3
amgdt.shx
  4
extfont.shx
  0
STYLE
  2
ACISOGDT
 70
     0
 40
0.0
 41
1.0
 50
0.0
 71
     0
 42
3.0
  3
amgdt.shx
  4
extfont.shx
  0
STYLE
  2
ACJISTS
 70
     0
 40
1.0
 41
1.0
 50
0.0
 71
     0
 42
3.0
  3
amgdt.shx
  4
extfont.shx
  0
STYLE
  2
ACJISGDT
 70
     0
 40
0.0
 41
1.0
 50
0.0
 71
     0
 42
3.0
  3
amgdt.shx
  4
extfont.shx
  0
STYLE
  2
YOKO
 70
     0
 40
0.0
 41
1.0
 50
0.0
 71
     0
 42
3.0
  3
romans.shx
  4
extfont.shx
  0
STYLE
  2
ACANSTS
 70
     0
 40
1.0
 41
1.0
 50
0.0
 71
     0
 42
3.0
  3
romans.shx
  4
extfont.shx
  0
STYLE
  2
ACANSGDT
 70
     0
 40
0.0
 41
1.0
 50
0.0
 71
     0
 42
3.0
  3
amgdtans.shx
  4

  0
ENDTAB
  0
TABLE
  2
VIEW
 70
     0
  0
ENDTAB
  0
TABLE
  2
UCS
 70
     0
  0
ENDTAB
  0
TABLE
  2
APPID
 70
    32
  0
APPID
  2
ACAD
 70
     0
  0
APPID
  2
GLOBAL
 70
     0
  0
APPID
  2
DETAIL
 70
     0
  0
APPID
  2
GRPNAME
 70
     0
  0
APPID
  2
GPARA
 70
     0
  0
APPID
  2
MCAD_NO_VIS
 70
     0
  0
APPID
  2
ACAD_TEMP_GRAPHIC
 70
     0
  0
APPID
  2
ACATTRIBSERVICES
 70
     0
  0
APPID
  2
GENIUS_GENSCREG_15
 70
     0
  0
APPID
  2
GENIUS_GENODEF_13
 70
     0
  0
APPID
  2
GENIUS_GENOBJ-N-SDF_13
 70
     0
  0
APPID
  2
GENIUS_GENREC_14
 70
     0
  0
APPID
  2
GENIUS_GENOBJ-N-REC_13
 70
     0
  0
APPID
  2
GENIUS_GENDIMSH_14
 70
     0
  0
APPID
  2
GENIUS_GENOBJ-N-DIM_13
 70
     0
  0
APPID
  2
GENIUS_GENDIM_13
 70
     0
  0
APPID
  2
GENIUS_GENDTOL_13
 70
     0
  0
APPID
  2
GENIUS_GENOLIS_13
 70
     0
  0
APPID
  2
GENIUS_GENOENT_13
 70
     0
  0
APPID
  2
GENIUS_GENOBJ-F-FEM_13
 70
     0
  0
APPID
  2
GENIUS_GENOREF_13
 70
     0
  0
APPID
  2
GENIUS_GEFFEM_13
 70
     0
  0
APPID
  2
GENIUS_GEFFEMP_13
 70
     0
  0
APPID
  2
AD_DRAW
 70
     0
  0
APPID
  2
DESIGNERASSEMBLIES
 70
     0
  0
APPID
  2
ACADM_DIM_EDIT
 70
     0
  0
APPID
  2
AMDT_DM_ADJ
 70
     0
  0
APPID
  2
ITEMNAME
 70
     0
  0
APPID
  2
GENIUS_GENOBJ-N-FIL_13
 70
     0
  0
APPID
  2
HATCH_TYPE
 70
     0
  0
APPID
  2
HATCH_DISPLAY
 70
     0
  0
APPID
  2
HATCH_DISTANCE
 70
     0
  0
ENDTAB
  0
TABLE
  2
DIMSTYLE
 70
    31
  0
DIMSTYLE
  2
BIGT
 70
     0
  3

  4

  5
OPEN
  6

  7

 40
1.0
 41
2.2299999999999991
 42
0.5
 43
7.0
 44
1.0
 45
0.0
 46
0.0
 47
0.0
 48
0.01
140
2.7999999999999989
141
0.0
142
0.0
143
25.399999999999999
144
1.0
145
0.0
146
1.0
147
1.0
 71
     0
 72
     0
 73
     0
 74
     0
 75
     0
 76
     0
 77
     3
 78
     9
170
     0
171
     2
172
     1
173
     0
174
     1
175
     0
176
   256
177
   256
178
    40
  0
DIMSTYLE
  2
AM_ISO
 70
     0
  3

  4
"
  5

  6

  7

 40
1.0
 41
2.5
 42
1.0
 43
10.0
 44
1.0
 45
0.0
 46
0.0
 47
0.1
 48
0.1
140
3.5
141
0.0
142
0.0
143
0.0393701
144
1.0
145
0.0
146
0.71
147
1.5
 71
     0
 72
     0
 73
     0
 74
     0
 75
     0
 76
     0
 77
     1
 78
     8
170
     0
171
     2
172
     1
173
     0
174
     0
175
     0
176
   256
177
   256
178
     2
  0
DIMSTYLE
  2
AM_ISO$3
 70
     0
  3

  4
"
  5

  6

  7

 40
1.0
 41
2.5
 42
1.0
 43
10.0
 44
1.0
 45
0.0
 46
0.0
 47
0.1
 48
0.1
140
3.5
141
0.0
142
0.0
143
0.0393701
144
1.0
145
0.0
146
0.71
147
1.5
 71
     0
 72
     0
 73
     0
 74
     1
 75
     0
 76
     0
 77
     1
 78
     8
170
     0
171
     2
172
     0
173
     0
174
     0
175
     0
176
   256
177
   256
178
     2
  0
DIMSTYLE
  2
AM_ISO$4
 70
     0
  3

  4
"
  5

  6

  7

 40
1.0
 41
2.5
 42
1.0
 43
10.0
 44
1.0
 45
0.0
 46
0.0
 47
0.1
 48
0.1
140
3.5
141
0.0
142
0.0
143
0.0393701
144
1.0
145
0.0
146
0.71
147
1.5
 71
     0
 72
     0
 73
     0
 74
     1
 75
     0
 76
     0
 77
     1
 78
     8
170
     0
171
     2
172
     0
173
     0
174
     0
175
     0
176
   256
177
   256
178
     2
  0
DIMSTYLE
  2
AM_ISO$6
 70
     0
  3

  4
"
  5

  6

  7

 40
1.0
 41
2.5
 42
1.0
 43
10.0
 44
1.0
 45
0.0
 46
0.0
 47
0.1
 48
0.1
140
3.5
141
0.0
142
0.0
143
0.0393701
144
1.0
145
0.0
146
0.71
147
1.5
 71
     0
 72
     0
 73
     0
 74
     0
 75
     0
 76
     0
 77
     0
 78
     8
170
     0
171
     2
172
     1
173
     0
174
     0
175
     0
176
   256
177
   256
178
     2
  0
DIMSTYLE
  2
AM_ISO$7
 70
     0
  3

  4
"
  5

  6

  7

 40
1.0
 41
2.5
 42
1.0
 43
10.0
 44
1.0
 45
0.0
 46
0.0
 47
0.1
 48
0.1
140
5.0
141
0.0
142
0.0
143
0.0393701
144
1.0
145
0.0
146
0.71
147
1.5
 71
     0
 72
     0
 73
     0
 74
     0
 75
     0
 76
     0
 77
     1
 78
     8
170
     0
171
     2
172
     1
173
     0
174
     0
175
     0
176
   256
177
   256
178
     2
  0
DIMSTYLE
  2
AM_ISO$SF
 70
     0
  3

  4
"
  5

  6

  7

 40
1.0
 41
2.5
 42
1.0
 43
10.0
 44
1.0
 45
0.0
 46
0.0
 47
0.1
 48
0.1
140
3.5
141
0.0
142
0.0
143
0.0393701
144
1.0
145
0.0
146
0.71
147
1.5
 71
     0
 72
     0
 73
     0
 74
     0
 75
     1
 76
     1
 77
     1
 78
     8
170
     0
171
     2
172
     1
173
     0
174
     0
175
     0
176
   256
177
   256
178
     2
  0
DIMSTYLE
  2
AM_ISO$SH
 70
     0
  3

  4
"
  5

  6
GENAXEH
  7

 40
1.0
 41
2.5
 42
1.0
 43
10.0
 44
1.0
 45
0.0
 46
0.0
 47
0.1
 48
0.1
140
3.5
141
0.0
142
0.0
143
0.0393701
144
2.0
145
0.0
146
0.71
147
1.5
 71
     0
 72
     0
 73
     0
 74
     0
 75
     1
 76
     1
 77
     1
 78
     8
170
     0
171
     2
172
     1
173
     1
174
     0
175
     0
176
   256
177
   256
178
     2
  0
DIMSTYLE
  2
BIGT$2
 70
     0
  3

  4

  5
OPEN
  6

  7

 40
1.0
 41
2.2299999999999991
 42
0.5
 43
7.0
 44
1.0
 45
0.0
 46
0.0
 47
0.0
 48
0.01
140
2.7999999999999989
141
0.0
142
0.0
143
25.399999999999999
144
1.0
145
0.0
146
1.0
147
1.0
 71
     0
 72
     0
 73
     0
 74
     0
 75
     0
 76
     0
 77
     3
 78
     9
170
     0
171
     2
172
     1
173
     0
174
     0
175
     0
176
   256
177
   256
178
    40
  0
DIMSTYLE
  2
BIGT$3
 70
     0
  3

  4

  5
OPEN
  6

  7

 40
1.0
 41
2.2299999999999991
 42
0.5
 43
2.5
 44
1.0
 45
0.0
 46
0.0
 47
0.0
 48
0.01
140
2.7999999999999989
141
0.0
142
0.0
143
25.399999999999999
144
1.0
145
0.0
146
1.0
147
1.0
 71
     0
 72
     0
 73
     0
 74
     0
 75
     0
 76
     0
 77
     3
 78
     9
170
     0
171
     2
172
     1
173
     0
174
     0
175
     0
176
   256
177
   256
178
    40
  0
DIMSTYLE
  2
BIGT$7
 70
     0
  3

  4

  5
OPEN
  6

  7

 40
0.0
 41
2.2299999999999991
 42
0.5
 43
7.0
 44
1.0
 45
0.0
 46
0.0
 47
0.0
 48
0.01
140
2.7999999999999989
141
0.0
142
0.0
143
25.399999999999999
144
1.0
145
0.0
146
1.0
147
1.0
 71
     0
 72
     0
 73
     0
 74
     0
 75
     0
 76
     0
 77
     3
 78
     9
170
     0
171
     2
172
     0
173
     0
174
     0
175
     0
176
   256
177
   256
178
    40
  0
DIMSTYLE
  2
BIGT$6
 70
     0
  3

  4

  5
OPEN
  6

  7

 40
1.0
 41
2.2299999999999991
 42
0.5
 43
2.5
 44
1.0
 45
0.0
 46
0.0
 47
0.0
 48
0.01
140
2.7999999999999989
141
0.0
142
0.0
143
25.399999999999999
144
1.0
145
0.0
146
1.0
147
1.0
 71
     0
 72
     0
 73
     0
 74
     0
 75
     0
 76
     0
 77
     3
 78
     9
170
     0
171
     2
172
     1
173
     0
174
     0
175
     0
176
   256
177
   256
178
    40
  0
DIMSTYLE
  2
BIGT$0
 70
     0
  3

  4

  5
OPEN
  6

  7

 40
1.0
 41
2.2299999999999991
 42
0.5
 43
7.0
 44
1.0
 45
0.0
 46
0.0
 47
0.0
 48
0.01
140
2.7999999999999989
141
0.0
142
0.0
143
25.399999999999999
144
1.0
145
0.0
146
1.0
147
1.0
 71
     0
 72
     0
 73
     0
 74
     0
 75
     0
 76
     0
 77
     3
 78
     9
170
     0
171
     2
172
     1
173
     0
174
     0
175
     0
176
   256
177
   256
178
    40
  0
DIMSTYLE
  2
BIGT$4
 70
     0
  3

  4

  5
OPEN
  6

  7

 40
1.0
 41
2.2299999999999991
 42
0.5
 43
2.5
 44
1.0
 45
0.0
 46
0.0
 47
0.0
 48
0.01
140
2.7999999999999989
141
0.0
142
0.0
143
25.399999999999999
144
1.0
145
0.0
146
1.0
147
1.0
 71
     0
 72
     0
 73
     0
 74
     0
 75
     0
 76
     0
 77
     3
 78
     9
170
     0
171
     2
172
     1
173
     0
174
     0
175
     0
176
   256
177
   256
178
    40
  0
DIMSTYLE
  2
BIGT$SH
 70
     0
  3

  4

  5
OPEN
  6

  7

 40
1.0
 41
2.2299999999999991
 42
0.5
 43
7.0
 44
1.0
 45
0.0
 46
0.0
 47
0.0
 48
0.0
140
2.7999999999999989
141
0.0
142
0.0
143
25.399999999999999
144
1.0
145
0.0
146
1.0
147
1.0
 71
     0
 72
     0
 73
     0
 74
     0
 75
     0
 76
     0
 77
     3
 78
     9
170
     0
171
     2
172
     1
173
     0
174
     0
175
     0
176
   256
177
   256
178
    40
  0
DIMSTYLE
  2
BIGT$SF
 70
     0
  3

  4

  5
OPEN
  6

  7

 40
1.0
 41
2.2299999999999991
 42
0.5
 43
7.0
 44
1.0
 45
0.0
 46
0.0
 47
0.0
 48
0.0
140
2.7999999999999989
141
0.0
142
0.0
143
25.399999999999999
144
1.0
145
0.0
146
1.0
147
1.0
 71
     0
 72
     0
 73
     0
 74
     0
 75
     0
 76
     0
 77
     3
 78
     9
170
     0
171
     2
172
     1
173
     0
174
     0
175
     0
176
   256
177
   256
178
    40
  0
DIMSTYLE
  2
TECHNICAL_OSAKA
 70
     0
  3

  4
"
  5
OPEN30
  6

  7

 40
1.0
 41
2.5
 42
1.0
 43
10.0
 44
1.0
 45
0.0
 46
0.0
 47
0.1
 48
0.1
140
2.7999999999999989
141
0.0
142
0.0
143
0.0393701
144
1.0
145
0.0
146
0.71
147
1.5
 71
     0
 72
     0
 73
     0
 74
     0
 75
     0
 76
     0
 77
     3
 78
     8
170
     0
171
     2
172
     1
173
     0
174
     0
175
     0
176
   256
177
   256
178
    40
  0
DIMSTYLE
  2
TECHNICAL_OSAKA$3
 70
     0
  3

  4
"
  5
OPEN30
  6

  7

 40
1.0
 41
2.5
 42
1.0
 43
10.0
 44
1.0
 45
0.0
 46
0.0
 47
0.1
 48
0.1
140
2.7999999999999989
141
0.0
142
0.0
143
0.0393701
144
1.0
145
0.0
146
0.71
147
1.5
 71
     0
 72
     0
 73
     0
 74
     1
 75
     0
 76
     0
 77
     3
 78
     8
170
     0
171
     2
172
     0
173
     0
174
     0
175
     0
176
   256
177
   256
178
    40
  0
DIMSTYLE
  2
TECHNICAL_OSAKA$4
 70
     0
  3

  4
"
  5
OPEN30
  6

  7

 40
1.0
 41
2.5
 42
1.0
 43
10.0
 44
1.0
 45
0.0
 46
0.0
 47
0.1
 48
0.1
140
2.7999999999999989
141
0.0
142
0.0
143
0.0393701
144
1.0
145
0.0
146
0.71
147
1.5
 71
     0
 72
     0
 73
     0
 74
     1
 75
     0
 76
     0
 77
     3
 78
     8
170
     0
171
     2
172
     0
173
     0
174
     0
175
     0
176
   256
177
   256
178
    40
  0
DIMSTYLE
  2
TECHNICAL_OSAKA$6
 70
     0
  3

  4
"
  5
OPEN30
  6

  7

 40
1.0
 41
2.5
 42
1.0
 43
10.0
 44
1.0
 45
0.0
 46
0.0
 47
0.1
 48
0.1
140
2.7999999999999989
141
0.0
142
0.0
143
0.0393701
144
1.0
145
0.0
146
0.71
147
1.5
 71
     0
 72
     0
 73
     0
 74
     0
 75
     0
 76
     0
 77
     0
 78
     8
170
     0
171
     2
172
     1
173
     0
174
     0
175
     0
176
   256
177
   256
178
    40
  0
DIMSTYLE
  2
TECHNICAL_OSAKA$7
 70
     0
  3

  4
"
  5
OPEN30
  6

  7

 40
1.0
 41
2.5
 42
1.0
 43
10.0
 44
1.0
 45
0.0
 46
0.0
 47
0.1
 48
0.1
140
2.7999999999999989
141
0.0
142
0.0
143
0.0393701
144
1.0
145
0.0
146
0.71
147
1.5
 71
     0
 72
     0
 73
     0
 74
     0
 75
     0
 76
     0
 77
     3
 78
     8
170
     0
171
     2
172
     1
173
     0
174
     0
175
     0
176
   256
177
   256
178
    40
  0
DIMSTYLE
  2
TECHNICAL_OSAKA$SF
 70
     0
  3

  4
"
  5
OPEN30
  6
OPEN30
  7
OPEN30
 40
1.0
 41
2.5
 42
1.0
 43
10.0
 44
1.0
 45
0.0
 46
0.0
 47
0.1
 48
0.1
140
3.5
141
0.0
142
0.0
143
0.0393701
144
1.0
145
0.0
146
0.71
147
1.5
 71
     0
 72
     0
 73
     0
 74
     0
 75
     1
 76
     1
 77
     3
 78
     8
170
     0
171
     2
172
     1
173
     0
174
     0
175
     0
176
   256
177
   256
178
    40
  0
DIMSTYLE
  2
TECHNICAL_OSAKA$SH
 70
     0
  3

  4
"
  5
OPEN30
  6
GENAXEH
  7
OPEN30
 40
1.0
 41
2.5
 42
1.0
 43
10.0
 44
1.0
 45
0.0
 46
0.0
 47
0.1
 48
0.1
140
3.5
141
0.0
142
0.0
143
0.0393701
144
2.0
145
0.0
146
0.71
147
1.5
 71
     0
 72
     0
 73
     0
 74
     0
 75
     1
 76
     1
 77
     3
 78
     8
170
     0
171
     2
172
     1
173
     1
174
     0
175
     0
176
   256
177
   256
178
    40
  0
DIMSTYLE
  2
AM_ANSI
 70
     0
  3

  4
mm
  5

  6

  7

 40
1.0
 41
0.1
 42
0.05
 43
0.5
 44
0.1
 45
0.0
 46
0.0
 47
0.1
 48
0.1
140
0.12
141
0.0
142
0.0
143
25.399999999999999
144
1.0
145
0.0
146
0.71
147
0.06
 71
     0
 72
     0
 73
     1
 74
     1
 75
     0
 76
     0
 77
     0
 78
     7
170
     0
171
     2
172
     0
173
     0
174
     0
175
     0
176
   256
177
   256
178
     2
  0
DIMSTYLE
  2
AM_ANSI$3
 70
     0
  3

  4
mm
  5

  6

  7

 40
1.0
 41
0.1
 42
0.05
 43
0.5
 44
0.1
 45
0.0
 46
0.0
 47
0.1
 48
0.1
140
0.12
141
0.0
142
0.0
143
25.399999999999999
144
1.0
145
0.0
146
0.71
147
0.06
 71
     0
 72
     0
 73
     1
 74
     1
 75
     0
 76
     0
 77
     0
 78
     7
170
     0
171
     2
172
     0
173
     0
174
     0
175
     0
176
   256
177
   256
178
     2
  0
DIMSTYLE
  2
AM_ANSI$4
 70
     0
  3

  4
mm
  5

  6

  7

 40
1.0
 41
0.1
 42
0.05
 43
0.5
 44
0.1
 45
0.0
 46
0.0
 47
0.1
 48
0.1
140
0.12
141
0.0
142
0.0
143
25.399999999999999
144
1.0
145
0.0
146
0.71
147
0.06
 71
     0
 72
     0
 73
     1
 74
     1
 75
     0
 76
     0
 77
     0
 78
     7
170
     0
171
     2
172
     0
173
     0
174
     0
175
     0
176
   256
177
   256
178
     2
  0
DIMSTYLE
  2
AM_ANSI$7
 70
     0
  3

  4
mm
  5

  6

  7

 40
1.0
 41
0.1
 42
0.05
 43
0.5
 44
0.1
 45
0.0
 46
0.0
 47
0.1
 48
0.1
140
0.24
141
0.0
142
0.0
143
25.399999999999999
144
1.0
145
0.0
146
0.71
147
0.06
 71
     0
 72
     0
 73
     1
 74
     1
 75
     0
 76
     0
 77
     0
 78
     7
170
     0
171
     2
172
     0
173
     0
174
     0
175
     0
176
   256
177
   256
178
     2
  0
DIMSTYLE
  2
AM_ANSI$SF
 70
     0
  3

  4
mm
  5

  6

  7

 40
1.0
 41
0.1
 42
0.05
 43
0.5
 44
0.1
 45
0.0
 46
0.0
 47
0.1
 48
0.1
140
0.12
141
0.0
142
0.0
143
25.399999999999999
144
1.0
145
0.0
146
0.71
147
0.06
 71
     0
 72
     0
 73
     1
 74
     1
 75
     1
 76
     1
 77
     0
 78
     7
170
     0
171
     2
172
     0
173
     0
174
     0
175
     0
176
   256
177
   256
178
     2
  0
DIMSTYLE
  2
AM_ANSI$SH
 70
     0
  3

  4
mm
  5

  6

  7

 40
1.0
 41
0.1
 42
0.05
 43
0.5
 44
0.1
 45
0.0
 46
0.0
 47
0.1
 48
0.1
140
0.12
141
0.0
142
0.0
143
25.399999999999999
144
1.0
145
0.0
146
0.71
147
0.06
 71
     0
 72
     0
 73
     1
 74
     1
 75
     1
 76
     1
 77
     0
 78
     7
170
     0
171
     2
172
     0
173
     1
174
     0
175
     0
176
   256
177
   256
178
     2
  0
ENDTAB
  0
ENDSEC
  0
SECTION
  2
BLOCKS
  0
BLOCK
  8
0
  2
$MODEL_SPACE
 70
     0
 10
0.0
 20
0.0
 30
0.0
  3
$MODEL_SPACE
  1

  0
ENDBLK
  5
1C
  8
0
  0
BLOCK
 67
     1
  8
0
  2
$PAPER_SPACE
 70
     0
 10
0.0
 20
0.0
 30
0.0
  3
$PAPER_SPACE
  1

  0
ENDBLK
  5
19
 67
     1
  8
0
  0
BLOCK
  8
0
  2
_OPEN
 70
     0
 10
0.0
 20
0.0
 30
0.0
  3
_OPEN
  1

  0
LINE
  5
595
  8
0
  6
BYBLOCK
 62
     0
 10
-1.0
 20
0.1666666666666666
 30
0.0
 11
0.0
 21
0.0
 31
0.0
  0
LINE
  5
596
  8
0
  6
BYBLOCK
 62
     0
 10
-1.0
 20
-0.1666666666666666
 30
0.0
 11
0.0
 21
0.0
 31
0.0
  0
LINE
  5
597
  8
0
  6
BYBLOCK
 62
     0
 10
0.0
 20
0.0
 30
0.0
 11
-1.0
 21
0.0
 31
0.0
  0
ENDBLK
  5
599
  8
0
  0
BLOCK
  8
0
  2
GENAXEH
 70
     0
 10
0.0
 20
0.0
 30
0.0
  3
GENAXEH
  1

  0
LINE
  5
6E8
  8
0
 10
-1.0
 20
0.0
 30
0.0
 11
1.0
 21
0.0
 31
0.0
  0
ENDBLK
  5
6EA
  8
0
  0
BLOCK
  8
0
  2
_OPEN30
 70
     0
 10
0.0
 20
0.0
 30
0.0
  3
_OPEN30
  1

  0
LINE
  5
E8F
  8
0
  6
BYBLOCK
 62
     0
 10
-1.0
 20
0.26794919
 30
0.0
 11
0.0
 21
0.0
 31
0.0
  0
LINE
  5
E90
  8
0
  6
BYBLOCK
 62
     0
 10
0.0
 20
0.0
 30
0.0
 11
-1.0
 21
-0.26794919
 31
0.0
  0
LINE
  5
E91
  8
0
  6
BYBLOCK
 62
     0
 10
0.0
 20
0.0
 30
0.0
 11
-1.0
 21
0.0
 31
0.0
  0
ENDBLK
  5
E93
  8
0
  0
BLOCK
  8
0
  2
*X23
 70
     1
 10
0.0
 20
0.0
 30
0.0
  3
*X23
  1

  0
LINE
  5
16C7
  8
0
 62
     0
 10
4.273162646078692
 20
-5.8571670211471281
 30
0.0
 11
3.510115154589633
 21
-5.094119529658065
 31
0.0
  0
LINE
  5
16C8
  8
0
 62
     0
 10
3.4940719416106631
 20
-5.3367076929658772
 30
0.0
 11
3.1883917659253971
 21
-5.03102751728062
 31
0.0
  0
LINE
  5
16C9
  8
0
 62
     0
 10
4.3362546584561441
 20
-6.1788904098113671
 30
0.0
 11
4.030574482770878
 21
-5.8732102341260974
 31
0.0
  0
LINE
  5
16CA
  8
0
 62
     0
 10
3.161466872339401
 20
-5.2627339999814282
 30
0.0
 11
2.940339387738502
 21
-5.0416065153805283
 31
0.0
  0
LINE
  5
16CB
  8
0
 62
     0
 10
4.3383903626899851
 20
-6.4396574903320083
 30
0.0
 11
4.1045481757553324
 21
-6.2058153033973564
 31
0.0
  0
LINE
  5
16CC
  8
0
 62
     0
 10
2.9211994892945912
 20
-5.281097993223403
 30
0.0
 11
2.731205010965883
 21
-5.091103514894697
 31
0.0
  0
LINE
  5
16CD
  8
0
 62
     0
 10
4.338390362689978
 20
-6.6982888666187872
 30
0.0
 11
4.105585681181485
 21
-6.4654841851102951
 31
0.0
  0
LINE
  5
16CE
  8
0
 62
     0
 10
2.7241461983551192
 20
-5.342676078570725
 30
0.0
 11
2.549611000613679
 21
-5.1681408808292844
 31
0.0
  0
LINE
  5
16CF
  8
0
 62
     0
 10
4.338390362689978
 20
-6.9569202429055821
 30
0.0
 11
4.105585681181485
 21
-6.7241155613970891
 31
0.0
  0
LINE
  5
16D0
  8
0
 62
     0
 10
2.5574155323842751
 20
-5.4345767888866652
 30
0.0
 11
2.3904879894348241
 21
-5.2676492459372142
 31
0.0
  0
LINE
  5
16D1
  8
0
 62
     0
 10
4.3383903626899851
 20
-7.2155516191923699
 30
0.0
 11
4.105585681181485
 21
-6.9827469376838751
 31
0.0
  0
LINE
  5
16D2
  8
0
 62
     0
 10
2.4161255819181502
 20
-5.5519182147073352
 30
0.0
 11
2.251507783582793
 21
-5.3873004163719713
 31
0.0
  0
LINE
  5
16D3
  8
0
 62
     0
 10
4.3383903626899851
 20
-7.4741829954791603
 30
0.0
 11
4.105585681181493
 21
-7.2413783139706691
 31
0.0
  0
LINE
  5
16D4
  8
0
 62
     0
 10
2.2989457159389901
 20
-5.6933697250149731
 30
0.0
 11
2.1319866093836382
 21
-5.526410618459618
 31
0.0
  0
LINE
  5
16D5
  8
0
 62
     0
 10
4.3383903626899851
 20
-7.7328143717659659
 30
0.0
 11
4.105585681181477
 21
-7.5000096902574622
 31
0.0
  0
LINE
  5
16D6
  8
0
 62
     0
 10
2.2072252078153931
 20
-5.8602805931781683
 30
0.0
 11
2.03261766024983
 21
-5.6856730456126012
 31
0.0
  0
LINE
  5
16D7
  8
0
 62
     0
 10
4.338390362689978
 20
-7.9914457480527474
 30
0.0
 11
4.105585681181485
 21
-7.7586410665442571
 31
0.0
  0
LINE
  5
16D8
  8
0
 62
     0
 10
2.1458777492053511
 20
-6.0575645108549052
 30
0.0
 11
1.955742399326019
 21
-5.8674291609755747
 31
0.0
  0
LINE
  5
16D9
  8
0
 62
     0
 10
4.338390362689978
 20
-8.2500771243395317
 30
0.0
 11
4.105585681181485
 21
-8.0172724428310431
 31
0.0
  0
LINE
  5
16DA
  8
0
 62
     0
 10
2.127884606905837
 20
-6.298202744842186
 30
0.0
 11
1.9064556573934901
 21
-6.0767737953298466
 31
0.0
  0
LINE
  5
16DB
  8
0
 62
     0
 10
4.3383903626899851
 20
-8.5087085006263337
 30
0.0
 11
4.105585681181485
 21
-8.2759038191178362
 31
0.0
  0
LINE
  5
16DC
  8
0
 62
     0
 10
2.0859571237484991
 20
-6.514906637971646
 30
0.0
 11
1.896203437136684
 21
-6.325152951359831
 31
0.0
  0
LINE
  5
16DD
  8
0
 62
     0
 10
4.338390362689978
 20
-8.7673398769131232
 30
0.0
 11
4.105585681181485
 21
-8.5345351954046365
 31
0.0
  0
LINE
  5
16DE
  8
0
 62
     0
 10
4.338390362689978
 20
-9.0259712531999199
 30
0.0
 11
4.105585681181485
 21
-8.7931665716914225
 31
0.0
  0
LINE
  5
16DF
  8
0
 62
     0
 10
4.338390362689978
 20
-9.2846026294867023
 30
0.0
 11
4.105585681181485
 21
-9.0517979479782156
 31
0.0
  0
LINE
  5
16E0
  8
0
 62
     0
 10
4.338390362689978
 20
-9.5432340057735008
 30
0.0
 11
4.105585681181485
 21
-9.3104293242649998
 31
0.0
  0
LINE
  5
16E1
  8
0
 62
     0
 10
4.3383903626899851
 20
-9.8018653820602886
 30
0.0
 11
4.105585681181485
 21
-9.5690607005517911
 31
0.0
  0
LINE
  5
16E2
  8
0
 62
     0
 10
4.3383903626899851
 20
-10.06049675834708
 30
0.0
 11
4.105585681181493
 21
-9.8276920768385896
 31
0.0
  0
LINE
  5
16E3
  8
0
 62
     0
 10
4.338390362689978
 20
-10.31912813463388
 30
0.0
 11
4.105585681181485
 21
-10.086323453125379
 31
0.0
  0
LINE
  5
16E4
  8
0
 62
     0
 10
4.338390362689978
 20
-10.577759510920661
 30
0.0
 11
4.105585681181485
 21
-10.34495482941217
 31
0.0
  0
LINE
  5
16E5
  8
0
 62
     0
 10
4.338390362689978
 20
-10.836390887207459
 30
0.0
 11
4.105585681181485
 21
-10.60358620569896
 31
0.0
  0
LINE
  5
16E6
  8
0
 62
     0
 10
4.3331743680063184
 20
-11.08980626881058
 30
0.0
 11
4.105585681181485
 21
-10.862217581985741
 31
0.0
  0
LINE
  5
16E7
  8
0
 62
     0
 10
4.2927234683474307
 20
-11.30798674543848
 30
0.0
 11
4.0963826280125364
 21
-11.11164590510359
 31
0.0
  0
LINE
  5
16E8
  8
0
 62
     0
 10
4.2225300722551111
 20
-11.496424725632959
 30
0.0
 11
4.044737971761033
 21
-11.31863262513888
 31
0.0
  0
LINE
  5
16E9
  8
0
 62
     0
 10
4.1288343457024572
 20
-11.661360375367099
 30
0.0
 11
3.960418835935497
 21
-11.492944865600141
 31
0.0
  0
LINE
  5
16EA
  8
0
 62
     0
 10
4.0145495478446014
 20
-11.80570695379603
 30
0.0
 11
3.849766277175481
 21
-11.640923683126911
 31
0.0
  0
LINE
  5
16EB
  8
0
 62
     0
 10
3.8807570971702972
 20
-11.93054587940852
 30
0.0
 11
3.7149104705198961
 21
-11.76469925275811
 31
0.0
  0
LINE
  5
16EC
  8
0
 62
     0
 10
3.7271431977453031
 20
-12.03556335627032
 30
0.0
 11
3.555244829520197
 21
-11.86366498804521
 31
0.0
  0
LINE
  5
16ED
  8
0
 62
     0
 10
2.1267631408982761
 20
-10.69381467571009
 30
0.0
 11
1.9433546960822801
 21
-10.51040623089408
 31
0.0
  0
LINE
  5
16EE
  8
0
 62
     0
 10
3.551878254361716
 20
-12.11892978917353
 30
0.0
 11
3.367040741413724
 21
-11.93409227622552
 31
0.0
  0
LINE
  5
16EF
  8
0
 62
     0
 10
2.1267631408982761
 20
-10.95244605199688
 30
0.0
 11
1.8939584533982801
 21
-10.719641364496891
 31
0.0
  0
LINE
  5
16F0
  8
0
 62
     0
 10
3.3508120748548631
 20
-12.17649498595347
 30
0.0
 11
3.140443698089034
 21
-11.96612660918764
 31
0.0
  0
LINE
  5
16F1
  8
0
 62
     0
 10
2.164960234068348
 20
-11.24927452145374
 30
0.0
 11
1.893959103096269
 21
-10.978273390481659
 31
0.0
  0
LINE
  5
16F2
  8
0
 62
     0
 10
3.1149140586925621
 20
-12.19922834607795
 30
0.0
 11
2.8439129277204782
 21
-11.928227215105871
 31
0.0
  0
LINE
  5
16F3
  8
0
 62
     0
 10
2.8198068968923562
 20
-12.162752560564529
 30
0.0
 11
1.930434888609696
 21
-11.27338055228187
 31
0.0
  0
ENDBLK
  5
16F4
  8
0
  0
BLOCK
  8
0
  2
*X24
 70
     1
 10
0.0
 20
0.0
 30
0.0
  3
*X24
  1

  0
LINE
  5
16F7
  8
0
 62
     0
 10
3.9891833374314549
 20
-8.6767642279413888
 30
0.0
 11
3.9699999022341181
 21
-8.6575807927440565
 31
0.0
  0
LINE
  5
16F8
  8
0
 62
     0
 10
3.9891833374314549
 20
-8.9353956042281784
 30
0.0
 11
3.6073930521298831
 21
-8.5536053189266141
 31
0.0
  0
LINE
  5
16F9
  8
0
 62
     0
 10
3.9748178468112911
 20
-9.179661489894805
 30
0.0
 11
3.2447862020256362
 21
-8.4496298451091505
 31
0.0
  0
LINE
  5
16FA
  8
0
 62
     0
 10
3.6122095777595682
 20
-9.0756845971298823
 30
0.0
 11
2.882179351921391
 21
-8.3456543712917011
 31
0.0
  0
LINE
  5
16FB
  8
0
 62
     0
 10
3.249601308707851
 20
-8.9717077043649454
 30
0.0
 11
2.5195725018171511
 21
-8.2416788974742428
 31
0.0
  0
LINE
  5
16FC
  8
0
 62
     0
 10
2.8869930396561161
 20
-8.8677308116000084
 30
0.0
 11
2.156965651712897
 21
-8.1377034236567951
 31
0.0
  0
LINE
  5
16FD
  8
0
 62
     0
 10
2.52438477060439
 20
-8.763753918835075
 30
0.0
 11
1.8939584533982801
 21
-8.1333276016289702
 31
0.0
  0
LINE
  5
16FE
  8
0
 62
     0
 10
2.1617765015526582
 20
-8.659777026070131
 30
0.0
 11
1.8939584533982901
 21
-8.3919589779157633
 31
0.0
  0
LINE
  5
16FF
  8
0
 62
     0
 10
1.918015068738405
 20
-8.674646969542664
 30
0.0
 11
1.8939584533982801
 21
-8.6505903542025422
 31
0.0
  0
ENDBLK
  5
1700
  8
0
  0
BLOCK
  8
0
  2
*X25
 70
     1
 10
0.0
 20
0.0
 30
0.0
  3
*X25
  1

  0
LINE
  5
1703
  8
0
 62
     0
 10
3.868211204180473
 20
-7.0040038369696571
 30
0.0
 11
3.649960323505288
 21
-6.7857529562944654
 31
0.0
  0
LINE
  5
1704
  8
0
 62
     0
 10
3.9856529491582968
 20
-7.380076958234282
 30
0.0
 11
3.2873524678243831
 21
-6.6817764769003682
 31
0.0
  0
LINE
  5
1705
  8
0
 62
     0
 10
3.617185728354428
 20
-7.2702411137172014
 30
0.0
 11
2.924744612143483
 21
-6.5777999975062524
 31
0.0
  0
LINE
  5
1706
  8
0
 62
     0
 10
3.9698966386926511
 20
-7.6229520240554223
 30
0.0
 11
3.6965801245195551
 21
-7.3496355098823214
 31
0.0
  0
LINE
  5
1707
  8
0
 62
     0
 10
3.2412377906756031
 20
-7.1529245523251603
 30
0.0
 11
2.8018861877732841
 21
-6.7135729494228391
 31
0.0
  0
LINE
  5
1708
  8
0
 62
     0
 10
3.8992580266775021
 20
-7.8109447883270624
 30
0.0
 11
3.6959786603753511
 21
-7.6076654220249154
 31
0.0
  0
LINE
  5
1709
  8
0
 62
     0
 10
3.034690875273276
 20
-7.2050090132096241
 30
0.0
 11
2.8018861877732761
 21
-6.9722043257096251
 31
0.0
  0
LINE
  5
170A
  8
0
 62
     0
 10
3.792131315773708
 20
-7.9624494537100619
 30
0.0
 11
3.5455738235496872
 21
-7.7158919614860322
 31
0.0
  0
LINE
  5
170B
  8
0
 62
     0
 10
2.202988506504409
 20
-6.6319380207275582
 30
0.0
 11
2.1787499076577741
 21
-6.6076994218809197
 31
0.0
  0
LINE
  5
170C
  8
0
 62
     0
 10
3.6531656331833751
 20
-8.082115147406526
 30
0.0
 11
3.2290805876554312
 21
-7.658030101878575
 31
0.0
  0
LINE
  5
170D
  8
0
 62
     0
 10
2.2677871082174681
 20
-6.9553679987274011
 30
0.0
 11
1.982121972154764
 21
-6.669702862664697
 31
0.0
  0
LINE
  5
170E
  8
0
 62
     0
 10
3.4804499382598562
 20
-8.168030828769794
 30
0.0
 11
2.8664723785437469
 21
-7.5540532690536812
 31
0.0
  0
LINE
  5
170F
  8
0
 62
     0
 10
2.1576583608831101
 20
-7.1038706276798393
 30
0.0
 11
1.983335797400418
 21
-6.9295480641971441
 31
0.0
  0
LINE
  5
1710
  8
0
 62
     0
 10
3.262962952369413
 20
-8.2091752191661413
 30
0.0
 11
2.503864169432068
 21
-7.4500764362287972
 31
0.0
  0
LINE
  5
1711
  8
0
 62
     0
 10
2.9676848492862362
 20
-8.1725284923697501
 30
0.0
 11
1.912955328823168
 21
-7.1177989719066872
 31
0.0
  0
LINE
  5
1712
  8
0
 62
     0
 10
2.623189712588176
 20
-8.0866647319584857
 30
0.0
 11
1.8976699797883021
 21
-7.3611449991586113
 31
0.0
  0
ENDBLK
  5
1713
  8
0
  0
BLOCK
  8
0
  2
A$C1F706B0C
 70
     0
 10
0.0
 20
0.0
 30
0.0
  3
A$C1F706B0C
  1

  0
TEXT
  5
1715
  8
247
 10
-76.643154690890938
 20
-3.7556541560247552
 30
0.0
 40
2.0
  1
ST10-C0204-45-25
 41
0.7
  7
YOKO
 11
-76.643154690890938
 21
-3.7556541560247552
 31
0.0
 73
     1
  0
INSERT
  5
1716
  8
247
  6
CONTINUOUS
  2
*X23
 10
-72.643154690890739
 20
0.2859474827409851
 30
0.0
 50
270.0
1001
ACAD
1000
HATCH
1002
{
1070
    19
1000
ANSI31
1040
0.0576
1040
6.2831853071795827
1002
}
  0
INSERT
  5
1717
  8
247
  6
CONTINUOUS
  2
*X24
 10
-72.643154690890739
 20
0.2859474827409851
 30
0.0
 50
270.0
1001
ACAD
1000
HATCH
1002
{
1070
    19
1000
ANSI31
1040
0.0576
1040
6.2831853071795827
1002
}
  0
INSERT
  5
1718
  8
247
  6
CONTINUOUS
  2
*X25
 10
-72.643154690890739
 20
0.2859474827409851
 30
0.0
 50
270.0
1001
ACAD
1000
HATCH
1002
{
1070
    19
1000
ANSI31
1040
0.0576
1040
6.2831853071795827
1002
}
  0
LINE
  5
1719
  8
247
 10
-81.310903217916746
 20
-1.608010970657298
 30
0.0
 11
-80.705442280416733
 21
-1.608010970657298
 31
0.0
  0
POLYLINE
  5
171A
  8
247
 66
     1
 10
0.0
 20
0.0
 30
0.0
 70
     1
1001
HATCH_DISTANCE
1040
1.0
1001
HATCH_DISPLAY
1070
     0
1001
HATCH_TYPE
1070
     7
  0
VERTEX
  5
171B
  8
247
 10
-81.310903217916746
 20
-1.608010970657298
 30
0.0
  0
VERTEX
  5
171C
  8
247
 10
-81.384335835104238
 20
-1.864089095657284
 30
0.0
  0
VERTEX
  5
171D
  8
247
 10
-81.299565327291745
 20
-1.864089095657284
 30
0.0
  0
VERTEX
  5
171E
  8
247
 10
-81.826935444479247
 20
-3.7032358546904698
 30
0.0
  0
VERTEX
  5
171F
  8
247
 10
-81.306236225729236
 20
-3.7032358546904698
 30
0.0
  0
VERTEX
  5
1720
  8
247
 10
-80.705442280416733
 20
-1.608010970657298
 30
0.0
  0
SEQEND
  5
1721
  8
247
  0
POLYLINE
  5
1722
  8
247
 66
     1
 10
0.0
 20
0.0
 30
0.0
 70
     1
  0
VERTEX
  5
1723
  8
247
 10
-81.310903217916746
 20
-1.608010970657298
 30
0.0
  0
VERTEX
  5
1724
  8
247
 10
-81.384335835104238
 20
-1.864089095657284
 30
0.0
  0
VERTEX
  5
1725
  8
247
 10
-81.299565327291745
 20
-1.864089095657284
 30
0.0
  0
VERTEX
  5
1726
  8
247
 10
-81.826935444479247
 20
-3.7032358546904698
 30
0.0
  0
VERTEX
  5
1727
  8
247
 10
-81.306236225729236
 20
-3.7032358546904698
 30
0.0
  0
VERTEX
  5
1728
  8
247
 10
-80.705442280416733
 20
-1.608010970657298
 30
0.0
  0
SEQEND
  5
1729
  8
247
  0
LINE
  5
172A
  8
247
 10
-81.306236225729236
 20
-3.7032358546904698
 30
0.0
 11
-80.705442280416733
 21
-1.608010970657298
 31
0.0
  0
LINE
  5
172B
  8
247
 10
-83.620167866354251
 20
-4.0524428799489929
 30
0.0
 11
-78.894262592916746
 21
-4.0524428799489929
 31
0.0
  0
LINE
  5
172C
  8
247
 10
-83.620167866354251
 20
-3.8196381984404928
 30
0.0
 11
-78.894262592916746
 21
-3.8196381984404928
 31
0.0
  0
ARC
  5
172D
  8
247
 10
-80.096325092916743
 20
-2.946629134719795
 30
0.0
 40
0.756615234375
 50
163.99975070172931
 51
304.96387329163082
  0
ARC
  5
172E
  8
247
 10
-83.620167866354251
 20
-2.8302267909697978
 30
0.0
 40
0.9894111328124999
 50
90.0
 51
270.0
  0
ARC
  5
172F
  8
247
 10
-83.620167866354251
 20
-2.8302267909697978
 30
0.0
 40
1.2222158203124971
 50
90.0
 51
270.0
  0
LINE
  5
1730
  8
247
 10
-81.826935444479247
 20
-3.7032358546904698
 30
0.0
 11
-81.306236225729236
 21
-3.7032358546904698
 31
0.0
  0
LINE
  5
1731
  8
247
 10
-82.310808539809926
 20
-3.6595999705211382
 30
0.0
 11
-81.993547616490432
 21
-3.3423390472015702
 31
0.0
  0
LINE
  5
1732
  8
247
 10
-83.388969929126418
 20
-3.7032358546904698
 30
0.0
 11
-82.726929040793436
 21
-3.041194966357502
 31
0.0
  0
LINE
  5
1733
  8
247
 10
-83.130338552839746
 20
-3.7032358546904698
 30
0.0
 11
-82.830899840746241
 21
-3.4037971425970648
 31
0.0
  0
LINE
  5
1734
  8
247
 10
-82.613075800266145
 20
-3.7032358546904991
 30
0.0
 11
-81.954916145334437
 21
-3.0450761997587761
 31
0.0
  0
LINE
  5
1735
  8
247
 10
-82.651490703601425
 20
-2.778100854836262
 30
0.0
 11
-82.842274666390523
 21
-3.4434672858954589
 31
0.0
  0
ARC
  5
1736
  8
247
 10
-82.791640522604254
 20
-3.097950423782275
 30
0.0
 40
0.3492072715759277
 50
261.66285421114719
 51
66.338192159113618
  0
LINE
  5
1737
  8
247
 10
-82.871707176552945
 20
-3.7032358546904698
 30
0.0
 11
-82.017493846742241
 21
-2.849022524879822
 31
0.0
  0
LINE
  5
1738
  8
247
 10
-83.498008686666637
 20
-3.7032358546904698
 30
0.0
 11
-82.531914936666638
 21
-3.7032358546904698
 31
0.0
  0
LINE
  5
1739
  8
247
 10
-83.437868784450856
 20
-3.4935033337280368
 30
0.0
 11
-82.452847750398448
 21
-2.5084822996756002
 31
0.0
  0
LINE
  5
173A
  8
247
 10
-83.333892627002854
 20
-3.1308957999933469
 30
0.0
 11
-82.518976118131363
 21
-2.315979291121729
 31
0.0
  0
ARC
  5
173B
  8
247
 10
-82.531914936666638
 20
-3.121232650344818
 30
0.0
 40
0.5820029296875
 50
270.0
 51
40.329840654167121
  0
LINE
  5
173C
  8
247
 10
-82.450487137116141
 20
-3.02338443896691
 30
0.0
 11
-81.687110746000727
 21
-2.2600080478515641
 31
0.0
  0
LINE
  5
173D
  8
247
 10
-81.384335835104238
 20
-1.864089095657284
 30
0.0
 11
-81.310903217916746
 21
-1.608010970657298
 31
0.0
  0
LINE
  5
173E
  8
247
 10
-81.384335835104238
 20
-1.864089095657284
 30
0.0
 11
-81.299565327291745
 21
-1.864089095657284
 31
0.0
  0
LINE
  5
173F
  8
247
 10
-82.335085092872035
 20
-1.873456889575672
 30
0.0
 11
-82.094987188512846
 21
-1.633358985216498
 31
0.0
  0
LINE
  5
1740
  8
247
 10
-83.078337990314054
 20
-1.8408156581573469
 30
0.0
 11
-82.845533302814033
 21
-1.608010970657354
 31
0.0
  0
LINE
  5
1741
  8
247
 10
-83.139397358541757
 20
-1.608010970657298
 30
0.0
 11
-83.206150288229125
 21
-1.8408156581572901
 31
0.0
  0
LINE
  5
1742
  8
247
 10
-83.018310444479042
 20
-1.608010970657298
 30
0.0
 11
-83.085063374167035
 21
-1.8408156581572901
 31
0.0
  0
LINE
  5
1743
  8
247
 10
-83.018310444479042
 20
-1.608010970657298
 30
0.0
 11
-82.267293322801322
 21
-1.608010970657382
 31
0.0
  0
LINE
  5
1744
  8
247
 10
-83.620167866354251
 20
-1.608010970657298
 30
0.0
 11
-83.139397358541757
 21
-1.608010970657298
 31
0.0
  0
LINE
  5
1745
  8
247
 10
-82.212717129110146
 20
-2.009720302100626
 30
0.0
 11
-81.922426888949047
 21
-1.7194300619394829
 31
0.0
  0
LINE
  5
1746
  8
247
 10
-83.085063374167035
 20
-1.8408156581572901
 30
0.0
 11
-82.963967671042028
 21
-1.8408156581580279
 31
0.0
  0
LINE
  5
1747
  8
247
 10
-83.620167866354251
 20
-1.8408156581572901
 30
0.0
 11
-83.206150288229125
 21
-1.8408156581572901
 31
0.0
  0
LINE
  5
1748
  8
247
 10
-83.021964154659116
 20
-2.043073198789167
 30
0.0
 11
-82.586901926527347
 21
-1.608010970657354
 31
0.0
  0
LINE
  5
1749
  8
247
 10
-82.182878177960944
 20
-2.2385127272381831
 30
0.0
 11
-81.793302008310349
 21
-1.848936557587459
 31
0.0
  0
ARC
  5
174A
  8
247
 10
-82.264894428854248
 20
-2.190013900344788
 30
0.0
 40
0.5820078735351563
 50
287.66957754739968
 51
90.236159842671626
  0
LINE
  5
174B
  8
247
 10
-83.125940312107048
 20
-2.4056807325239129
 30
0.0
 11
-82.328270550240546
 21
-1.608010970657382
 31
0.0
  0
LINE
  5
174C
  8
247
 10
-82.540767725776647
 20
-2.8550336513407411
 30
0.0
 11
-81.707681102340146
 21
-2.0219470279041118
 31
0.0
  0
LINE
  5
174D
  8
247
 10
-81.826935444479247
 20
-3.7032358546904698
 30
0.0
 11
-81.299565327291745
 21
-1.864089095657284
 31
0.0
  0
LINE
  5
174E
  8
247
 10
-82.384472974355546
 20
-1.8469005841030051
 30
0.0
 11
-82.575253798558933
 21
-2.512247280314547
 31
0.0
  0
ARC
  5
174F
  8
247
 10
-82.524620014791637
 20
-2.1667404628448219
 30
0.0
 40
0.349197280883789
 50
261.6626016879294
 51
66.338155095189762
  0
LINE
  5
1750
  8
247
 10
-83.229916469555064
 20
-2.7682882662586019
 30
0.0
 11
-82.415003392650419
 21
-1.9533751893541269
 31
0.0
  0
LINE
  5
1751
  8
247
 10
-83.498008686666637
 20
-3.7032358546904698
 30
0.0
 11
-82.963967671042028
 21
-1.8408156581580279
 31
0.0
  0
ARC
  5
1752
  8
247
 10
-78.894262592916746
 20
-2.8302267909697978
 30
0.0
 40
1.2222158203124971
 50
270.0
 51
104.7707939660941
  0
ARC
  5
1753
  8
247
 10
-78.894262592916746
 20
-2.8302267909697978
 30
0.0
 40
0.9894111328124999
 50
270.0
 51
104.1274364964102
  0
LINE
  5
1754
  8
247
 10
-79.886345600729257
 20
-3.2700842128447869
 30
0.0
 11
-79.736852436666638
 21
-2.7487433925322851
 31
0.0
  0
LINE
  5
1755
  8
247
 10
-79.930598530416745
 20
-2.7487433925322851
 30
0.0
 11
-79.736852436666638
 21
-2.7487433925322851
 31
0.0
  0
LINE
  5
1756
  8
247
 10
-79.662743061666745
 20
-3.5666801906280128
 30
0.0
 11
-79.526178608541755
 21
-3.7032358546904698
 31
0.0
  0
LINE
  5
1757
  8
247
 10
-79.930598530416745
 20
-2.7487433925322851
 30
0.0
 11
-79.863845600729249
 21
-2.515938705032291
 31
0.0
  0
LINE
  5
1758
  8
247
 10
-79.863845600729249
 20
-2.515938705032291
 30
0.0
 11
-79.185725483541745
 21
-2.515938705032291
 31
0.0
  0
LINE
  5
1759
  8
247
 10
-79.526178608541755
 20
-3.7032358546904698
 30
0.0
 11
-79.185725483541745
 21
-2.515938705032291
 31
0.0
  0
POLYLINE
  5
175A
  8
247
 66
     1
 10
0.0
 20
0.0
 30
0.0
 70
     1
1001
HATCH_DISTANCE
1040
1.0
1001
HATCH_DISPLAY
1070
     0
1001
HATCH_TYPE
1070
     7
  0
VERTEX
  5
175B
  8
247
 10
-79.135759663229251
 20
-1.8707336269072909
 30
0.0
  0
VERTEX
  5
175C
  8
247
 10
-79.205870014791756
 20
-1.648396712844808
 30
0.0
  0
VERTEX
  5
175D
  8
247
 10
-79.205870014791756
 20
-1.648396712844808
 30
0.0
  0
VERTEX
  5
175E
  8
247
 10
-79.135759663229251
 20
-1.8707336269072909
 30
0.0
  0
SEQEND
  5
175F
  8
247
  0
POLYLINE
  5
1760
  8
247
 66
     1
 10
0.0
 20
0.0
 30
0.0
 70
     1
  0
VERTEX
  5
1761
  8
247
 10
-79.135759663229251
 20
-1.8707336269072909
 30
0.0
  0
VERTEX
  5
1762
  8
247
 10
-79.205870014791756
 20
-1.648396712844808
 30
0.0
  0
VERTEX
  5
1763
  8
247
 10
-79.205870014791756
 20
-1.648396712844808
 30
0.0
  0
VERTEX
  5
1764
  8
247
 10
-79.135759663229251
 20
-1.8707336269072909
 30
0.0
  0
SEQEND
  5
1765
  8
247
  0
LINE
  5
1766
  8
247
 10
-79.135759663229251
 20
-1.8707336269072909
 30
0.0
 11
-79.205870014791756
 21
-1.648396712844808
 31
0.0
  0
POLYLINE
  5
1767
  8
247
 66
     1
 10
0.0
 20
0.0
 30
0.0
 70
     1
1001
HATCH_DISTANCE
1040
1.0
1001
HATCH_DISPLAY
1070
     0
1001
HATCH_TYPE
1070
     7
  0
VERTEX
  5
1768
  8
247
 10
-79.135759663229251
 20
-1.8707336269072909
 30
0.0
  0
VERTEX
  5
1769
  8
247
 10
-79.205870014791756
 20
-1.648396712844808
 30
0.0
  0
VERTEX
  5
176A
  8
247
 10
-79.205870014791756
 20
-1.648396712844808
 30
0.0
  0
VERTEX
  5
176B
  8
247
 10
-79.135759663229251
 20
-1.8707336269072909
 30
0.0
  0
SEQEND
  5
176C
  8
247
  0
POLYLINE
  5
176D
  8
247
 66
     1
 10
0.0
 20
0.0
 30
0.0
 70
     1
  0
VERTEX
  5
176E
  8
247
 10
-79.135759663229251
 20
-1.8707336269072909
 30
0.0
  0
VERTEX
  5
176F
  8
247
 10
-79.205870014791756
 20
-1.648396712844808
 30
0.0
  0
VERTEX
  5
1770
  8
247
 10
-79.205870014791756
 20
-1.648396712844808
 30
0.0
  0
VERTEX
  5
1771
  8
247
 10
-79.135759663229251
 20
-1.8707336269072909
 30
0.0
  0
SEQEND
  5
1772
  8
247
  0
LINE
  5
1773
  8
247
 10
-79.246774311666755
 20
-1.905740462844798
 30
0.0
 11
-79.316884663229246
 21
-1.683403548782259
 31
0.0
  0
ARC
  5
1774
  8
247
 10
-78.894262592916746
 20
-2.8302267909697978
 30
0.0
 40
1.222216369628905
 50
110.22964506332001
 51
118.57168892371681
  0
ARC
  5
1775
  8
247
 10
-79.807569233541756
 20
-2.1085392909697949
 30
0.0
 40
0.2444448051452637
 50
1.7101213820626899
 51
163.99839835444729
  0
ARC
  5
1776
  8
247
 10
-78.894262592916746
 20
-2.8302267909697978
 30
0.0
 40
0.9894138793945311
 50
110.8721834020737
 51
132.5419489373879
  0
ARC
  5
1777
  8
247
 10
-78.859299702291636
 20
-2.9864084315947901
 30
0.0
 40
1.9799648437499999
 50
155.20517736984129
 51
172.79482596205219
  0
ARC
  5
1778
  8
247
 10
-80.121321186666776
 20
-3.202707259719809
 30
0.0
 40
0.2444446334838867
 50
164.00027305718169
 51
344.00027305718208
  0
LINE
  5
1779
  8
247
 10
-80.356296772604253
 20
-3.1353303065948039
 30
0.0
 11
-80.042544819479247
 21
-2.0411535487823
 31
0.0
  0
ARC
  5
177A
  8
247
 10
-79.929438374166637
 20
-2.364617415969783
 30
0.0
 40
0.7566075439453125
 50
53.444012197057539
 51
164.0001843876851
  0
LINE
  5
177B
  8
240
 10
-1.862112431012128
 20
-1.33498306585711
 30
0.0
 11
-1.6661798085747099
 21
-1.2727487277849461
 31
0.0
  0
LINE
  5
177C
  8
241
 10
-4.1519685737598637
 20
2.598157272393435
 30
0.0
 11
-4.62145365658965
 21
0.4833540790012815
 31
0.0
  0
ARC
  5
177D
  8
241
 10
-3.425834505164743
 20
-2.3157334855715672
 30
0.0
 40
0.5
 50
265.37503462044879
 51
302.9649129409849
1001
GENIUS_GENOBJ-N-FIL_13
1002
{
1000
OWNER
1000
GEN
1002
}
1001
GENIUS_GENODEF_13
1002
{
1000
HIER
1070
     0
1002
}
1002
{
1000
MANEDIT
1070
     0
1002
}
1002
{
1000
NOSEL
1070
     0
1002
}
1002
{
1000
BEHIND
1070
     0
1002
}
1002
{
1000
OTHER
1070
     0
1002
}
1002
{
1000
REACTOR
1002
}
  0
ARC
  5
177E
  8
241
 10
-2.4296865077906911
 20
9.998100905124323
 30
0.0
 40
12.85406120408012
 50
256.6187615582615
 51
265.37503462044998
  0
ARC
  5
177F
  8
241
 10
-4.6190834110849863
 20
0.0353562042356274
 30
0.0
 40
2.6609052018192059
 50
87.644148248806857
 51
252.832475795249
  0
LINE
  5
1780
  8
241
 10
-1.9741155587390149
 20
-1.9701843678748221
 30
0.0
 11
-3.1537718332171631
 21
-2.735235455212639
 31
0.0
  0
CIRCLE
  5
1781
  8
246
 10
-2.6342646723293082
 20
0.4933860886562264
 30
0.0
 40
1.9377854901930129
  0
ARC
  5
1782
  8
241
 10
-4.4262070369061197
 20
0.4400094426300257
 30
0.0
 40
0.2
 50
167.48335774380359
 51
195.53619363180221
1001
GENIUS_GENODEF_13
1002
{
1000
HIER
1070
     0
1002
}
1002
{
1000
MANEDIT
1070
     0
1002
}
1002
{
1000
NOSEL
1070
     0
1002
}
1002
{
1000
BEHIND
1070
     0
1002
}
1002
{
1000
OTHER
1070
     0
1002
}
1002
{
1000
REACTOR
1002
}
1001
GENIUS_GENOBJ-N-FIL_13
1002
{
1000
OWNER
1000
GEN
1002
}
  0
ARC
  5
1783
  8
241
 10
-3.8183471790212731
 20
-1.746497918864838
 30
0.0
 40
0.2
 50
195.53619363180201
 51
287.62147825872302
1001
GENIUS_GENODEF_13
1002
{
1000
HIER
1070
     0
1002
}
1002
{
1000
MANEDIT
1070
     0
1002
}
1002
{
1000
NOSEL
1070
     0
1002
}
1002
{
1000
BEHIND
1070
     0
1002
}
1002
{
1000
OTHER
1070
     0
1002
}
1002
{
1000
REACTOR
1002
}
1001
GENIUS_GENOBJ-N-FIL_13
1002
{
1000
OWNER
1000
GEN
1002
}
  0
ARC
  5
1784
  8
240
 10
-1.7267252462920051
 20
-1.082133277278905
 30
0.0
 40
0.2
 50
287.62147825872302
 51
317.04811227107382
1001
GENIUS_GENOBJ-N-FIL_13
1002
{
1000
OWNER
1000
GEN
1002
}
1001
GENIUS_GENODEF_13
1002
{
1000
HIER
1070
     0
1002
}
1002
{
1000
MANEDIT
1070
     0
1002
}
1002
{
1000
NOSEL
1070
     0
1002
}
1002
{
1000
BEHIND
1070
     0
1002
}
1002
{
1000
OTHER
1070
     0
1002
}
1002
{
1000
REACTOR
1002
}
  0
ARC
  5
1785
  8
240
 10
-0.1983840144852706
 20
0.5595737490741484
 30
0.0
 40
0.2
 50
317.04811227107382
 51
46.06479943956495
1001
GENIUS_GENODEF_13
1002
{
1000
HIER
1070
     0
1002
}
1002
{
1000
MANEDIT
1070
     0
1002
}
1002
{
1000
NOSEL
1070
     0
1002
}
1002
{
1000
BEHIND
1070
     0
1002
}
1002
{
1000
OTHER
1070
     0
1002
}
1002
{
1000
REACTOR
1002
}
1001
GENIUS_GENOBJ-N-FIL_13
1002
{
1000
OWNER
1000
GEN
1002
}
  0
ARC
  5
1786
  8
240
 10
-1.810120125313105
 20
2.1124903713213712
 30
0.0
 40
0.2
 50
46.064799439564972
 51
75.584741593712948
1001
GENIUS_GENODEF_13
1002
{
1000
HIER
1070
     0
1002
}
1002
{
1000
MANEDIT
1070
     0
1002
}
1002
{
1000
NOSEL
1070
     0
1002
}
1002
{
1000
BEHIND
1070
     0
1002
}
1002
{
1000
OTHER
1070
     0
1002
}
1002
{
1000
REACTOR
1002
}
1001
GENIUS_GENOBJ-N-FIL_13
1002
{
1000
OWNER
1000
GEN
1002
}
  0
ARC
  5
1787
  8
240
 10
-3.933737706022455
 20
2.6583455552985189
 30
0.0
 40
0.2
 50
75.584741593713019
 51
167.48335774380391
1001
GENIUS_GENOBJ-N-FIL_13
1002
{
1000
OWNER
1000
GEN
1002
}
1001
GENIUS_GENODEF_13
1002
{
1000
HIER
1070
     0
1002
}
1002
{
1000
MANEDIT
1070
     0
1002
}
1002
{
1000
NOSEL
1070
     0
1002
}
1002
{
1000
BEHIND
1070
     0
1002
}
1002
{
1000
OTHER
1070
     0
1002
}
1002
{
1000
REACTOR
1002
}
  0
LINE
  5
1788
  8
240
 10
-5.6516660498395481
 20
2.9999999999999991
 30
0.0
 11
-25.26025403784439
 21
2.9999999999999991
 31
0.0
  0
LINE
  5
1789
  8
240
 10
-25.26025403784439
 20
-3.0
 30
0.0
 11
-3.457649394439442
 21
-3.0
 31
0.0
  0
LINE
  5
178A
  8
245
 10
-90.085156487051535
 20
0.0000000000000282
 30
0.0
 11
0.8189807511433286
 21
-0.0000000000000002
 31
0.0
  0
LINE
  5
178B
  8
240
 10
-30.064101615137648
 20
4.9999999999999707
 30
0.0
 11
-86.999999999999972
 21
4.9999999999999707
 31
0.0
  0
LINE
  5
178C
  8
240
 10
-86.999999999999972
 20
-4.9999999999999707
 30
0.0
 11
-30.064101615137648
 21
-4.9999999999999707
 31
0.0
  0
LINE
  5
178D
  8
240
 10
-87.999999999999972
 20
-3.9999999999999711
 30
0.0
 11
-87.999999999999972
 21
3.9999999999999991
 31
0.0
  0
ARC
  5
178E
  8
240
 10
-87.0
 20
-3.9999999999999711
 30
0.0
 40
1.0
 50
180.0
 51
270.0
  0
ARC
  5
178F
  8
240
 10
-87.0
 20
3.9999999999999711
 30
0.0
 40
1.0
 50
90.0
 51
180.0
  0
LINE
  5
1790
  8
241
 10
-26.599999999999969
 20
3.182834779988553
 30
0.0
 11
-26.599999999999969
 21
-3.182834779988553
 31
0.0
  0
LINE
  5
1791
  8
241
 10
-30.064101615137648
 20
-4.9999999999999707
 30
0.0
 11
-30.064101615137648
 21
4.9999999999999707
 31
0.0
  0
ARC
  5
1792
  8
240
 10
-25.26025403784439
 20
-8.0
 30
0.0
 40
5.0
 50
90.0
 51
119.9999999999997
  0
LINE
  5
1793
  8
240
 10
-30.064101615137648
 20
-4.9999999999999707
 30
0.0
 11
-27.76025403784439
 21
-3.6698729810778161
 31
0.0
  0
ARC
  5
1794
  8
240
 10
-25.26025403784439
 20
8.0
 30
0.0
 40
5.0
 50
240.0000000000002
 51
270.0
  0
LINE
  5
1795
  8
240
 10
-27.76025403784439
 20
3.6698729810778148
 30
0.0
 11
-30.064101615137648
 21
4.9999999999999707
 31
0.0
  0
LINE
  5
1796
  8
241
 10
-4.6188993263052964
 20
0.386440033392083
 30
0.0
 11
-4.0110394684204493
 21
-1.8000673281027799
 31
0.0
  0
LINE
  5
1797
  8
240
 10
-1.5803400203540861
 20
-1.218410075110032
 30
0.0
 11
-0.0539429908275793
 21
0.4212085363801064
 31
0.0
  0
LINE
  5
1798
  8
240
 10
-3.1708611762639398
 20
-2.9095760221445062
 30
0.0
 11
-1.994517859291761
 21
-2.0858915640779938
 31
0.0
  0
LINE
  5
1799
  8
240
 10
-1.8621124310121211
 20
-1.334983065857074
 30
0.0
 11
-1.994517859291761
 21
-2.0858915640779938
 31
0.0
  0
LINE
  5
179A
  8
241
 10
-3.7578017413039779
 20
-1.9371133693708791
 30
0.0
 11
-1.862112431012128
 21
-1.33498306585711
 31
0.0
  0
ARC
  5
179B
  8
240
 10
-3.457649394439442
 20
-2.5
 30
0.0
 40
0.5
 50
270.0
 51
304.99999999999869
  0
LINE
  5
179C
  8
240
 10
-0.059615138633319
 20
0.70359874376183
 30
0.0
 11
-1.6713512494611531
 21
2.2565153660090531
 31
0.0
  0
LINE
  5
179D
  8
240
 10
-5.6516660498395481
 20
2.9999999999999991
 30
0.0
 11
-4.1519685737598451
 21
2.5981572723934301
 31
0.0
  0
LINE
  5
179E
  8
240
 10
-4.1289843257059848
 20
2.701690191669774
 30
0.0
 11
-4.1519685737598637
 21
2.598157272393435
 31
0.0
  0
LINE
  5
179F
  8
240
 10
-1.7603305610788871
 20
2.306193750985658
 30
0.0
 11
-3.8839481417882382
 21
2.8520489349628049
 31
0.0
  0
ENDBLK
  5
17A2
  8
0
  0
BLOCK
  8
0
  2
*U27
 70
     1
 10
0.0
 20
0.0
 30
0.0
  3
*U27
  1

  0
TEXT
  5
17BC
  8
250
 62
    40
 10
312.02151286765201
 20
155.0
 30
0.0
 40
3.0
  1
26.6
  0
ENDBLK
  5
17BE
  8
0
  0
BLOCK
  8
0
  2
*U28
 70
     1
 10
0.0
 20
0.0
 30
0.0
  3
*U28
  1

  0
TEXT
  5
17C0
  8
250
 62
    40
 10
267.87865572479478
 20
155.0
 30
0.0
 40
3.0
  1
61.4
  0
ENDBLK
  5
17C2
  8
0
  0
BLOCK
  8
0
  2
*U29
 70
     1
 10
0.0
 20
0.0
 30
0.0
  3
*U29
  1

  0
TEXT
  5
17C4
  8
250
 62
    40
 10
283.46437001050913
 20
148.0
 30
0.0
 40
3.0
  1
88
  0
ENDBLK
  5
17C6
  8
0
  0
BLOCK
  8
0
  2
*U30
 70
     1
 10
0.0
 20
0.0
 30
0.0
  3
*U30
  1

  0
TEXT
  5
17C8
  8
250
 62
    40
 10
314.0
 20
185.02108186343051
 30
0.0
 40
3.0
  1
\U+2205
 50
90.0
  0
TEXT
  5
17C9
  8
250
 62
    40
 10
314.0
 20
187.73536757771629
 30
0.0
 40
3.0
  1
6
 50
90.0
  0
ENDBLK
  5
17CB
  8
0
  0
BLOCK
  8
0
  2
*U31
 70
     1
 10
0.0
 20
0.0
 30
0.0
  3
*U31
  1

  0
TEXT
  5
17CD
  8
250
 62
    40
 10
322.6584600461477
 20
185.5363399369549
 30
0.0
 40
3.0
  1
45üï
 50
17.60484661767363
  0
ENDBLK
  5
17CF
  8
0
  0
BLOCK
  8
0
  2
*U32
 70
     1
 10
0.0
 20
0.0
 30
0.0
  3
*U32
  1

  0
TEXT
  5
17D1
  8
250
 62
    40
 10
344.99999898532229
 20
172.06108186343059
 30
0.0
 40
3.0
  1
\U+2205
 50
90.0
  0
TEXT
  5
17D2
  8
250
 62
    40
 10
344.99999898532229
 20
174.77536757771631
 30
0.0
 40
3.0
  1
6.3
 50
90.0
  0
ENDBLK
  5
17D4
  8
0
  0
BLOCK
  8
0
  2
*U33
 70
     1
 10
0.0
 20
0.0
 30
0.0
  3
*U33
  1

  0
TEXT
  5
17D6
  8
250
 62
    40
 10
230.0
 20
172.77536757771631
 30
0.0
 40
3.0
  1
\U+2205
 50
90.0
  0
TEXT
  5
17D7
  8
250
 62
    40
 10
230.0
 20
175.489653292002
 30
0.0
 40
3.0
  1
10
 50
90.0
  0
ENDBLK
  5
17D9
  8
0
  0
BLOCK
  8
0
  2
*U34
 70
     1
 10
0.0
 20
0.0
 30
0.0
  3
*U34
  1

  0
TEXT
  5
1815
  8
240
 62
    40
 10
-14.441060813805491
 20
15.4925763608077
 30
0.0
 40
3.0
  1
\U+25CFST10-C0204-45-25
  7
YOKO
  0
ENDBLK
  5
1817
  8
0
  0
BLOCK
  8
0
  2
*U35
 70
     1
 10
0.0
 20
0.0
 30
0.0
  3
*U35
  1

  0
TEXT
  5
1819
  8
250
 62
    40
 10
80.646498887729734
 20
8.7877681946286632
 30
0.0
 40
2.7999999999999989
  1
45üï
 50
17.604846617673871
  0
ENDBLK
  5
181B
  8
0
  0
BLOCK
  8
0
  2
*U36
 70
     1
 10
0.0
 20
0.0
 30
0.0
  3
*U36
  1

  0
TEXT
  5
181D
  8
250
 62
    40
 10
-12.32151286765199
 20
-3.8952380952381209
 30
0.0
 40
3.0
  1
\U+2205
 50
90.0
  0
TEXT
  5
181E
  8
250
 62
    40
 10
-12.421512867651989
 20
-1.180952380952407
 30
0.0
 40
2.7999999999999989
  1
10
 50
90.0
  0
ENDBLK
  5
1820
  8
0
  0
BLOCK
  8
0
  2
*U37
 70
     1
 10
0.0
 20
0.0
 30
0.0
  3
*U37
  1

  0
TEXT
  5
1822
  8
250
 62
    40
 10
25.900000000000009
 20
-21.84679614914484
 30
0.0
 40
2.7999999999999989
  1
61.4
  0
ENDBLK
  5
1824
  8
0
  0
BLOCK
  8
0
  2
*U38
 70
     1
 10
0.0
 20
0.0
 30
0.0
  3
*U38
  1

  0
TEXT
  5
1826
  8
250
 62
    40
 10
71.67848713234801
 20
8.1742857142856966
 30
0.0
 40
3.0
  1
\U+2205
 50
90.0
  0
TEXT
  5
1827
  8
250
 62
    40
 10
71.578487132348016
 20
10.88857142857141
 30
0.0
 40
2.7999999999999989
  1
6
 50
90.0
  0
ENDBLK
  5
1829
  8
0
  0
BLOCK
  8
0
  2
*U39
 70
     1
 10
0.0
 20
0.0
 30
0.0
  3
*U39
  1

  0
TEXT
  5
182B
  8
250
 62
    40
 10
41.333333333333307
 20
-28.84679614914484
 30
0.0
 40
2.7999999999999989
  1
88
  0
ENDBLK
  5
182D
  8
0
  0
BLOCK
  8
0
  2
*U40
 70
     1
 10
0.0
 20
0.0
 30
0.0
  3
*U40
  1

  0
TEXT
  5
182F
  8
250
 62
    40
 10
70.033333333333346
 20
-21.84679614914484
 30
0.0
 40
2.7999999999999989
  1
26.6
  0
ENDBLK
  5
1831
  8
0
  0
BLOCK
  8
0
  2
*U41
 70
     1
 10
0.0
 20
0.0
 30
0.0
  3
*U41
  1

  0
TEXT
  5
1833
  8
250
 62
    40
 10
98.265914887970695
 20
-4.5619047619047617
 30
0.0
 40
3.0
  1
\U+2205
 50
90.0
  0
TEXT
  5
1834
  8
250
 62
    40
 10
98.165914887970715
 20
-1.8476190476190479
 30
0.0
 40
2.7999999999999989
  1
6.3
 50
90.0
  0
ENDBLK
  5
1836
  8
0
  0
ENDSEC
  0
SECTION
  2
ENTITIES
  0
TEXT
  5
14FB
  8
241
 10
-88.353986331167633
 20
20.924623351714668
 30
0.0
 40
3.0
  1
ST10-C0204-45-25
  7
YOKO
1001
ITEMNAME
1000
DI010
  0
LINE
  5
1530
  8
250
 10
-26.599999999999969
 20
-3.682834779988553
 30
0.0
 11
-26.599999999999969
 21
-23.846796149144811
 31
0.0
  0
LINE
  5
1531
  8
250
 10
0.0
 20
0.1851914699896324
 30
0.0
 11
0.0000000000000568
 21
-23.846796149144811
 31
0.0
  0
LINE
  5
1532
  8
250
 10
-24.369999999999969
 20
-22.846796149144811
 30
0.0
 11
-2.2299999999999471
 21
-22.846796149144811
 31
0.0
  0
LINE
  5
1536
  8
250
 10
-87.999999999999972
 20
-4.4999999999999707
 30
0.0
 11
-87.999999999999972
 21
-30.846796149144811
 31
0.0
  0
LINE
  5
1537
  8
250
 10
0.0
 20
0.1851914699896324
 30
0.0
 11
0.0
 21
-30.846796149144811
 31
0.0
  0
LINE
  5
1538
  8
250
 10
-85.769999999999953
 20
-29.846796149144811
 30
0.0
 11
-2.2300000000000031
 21
-29.846796149144811
 31
0.0
  0
LINE
  5
153C
  8
250
 10
-87.499999999999986
 20
-4.9999999999999707
 30
0.0
 11
-100.3215128676519
 21
-4.999999999999968
 31
0.0
  0
LINE
  5
153D
  8
250
 10
-87.499999999999986
 20
4.9999999999999707
 30
0.0
 11
-100.3215128676519
 21
4.9999999999999751
 31
0.0
  0
LINE
  5
153E
  8
250
 10
-99.321512867651975
 20
-2.769999999999968
 30
0.0
 11
-99.321512867651975
 21
2.7699999999999738
 31
0.0
  0
LINE
  5
1542
  8
250
 10
-3.4664809956597651
 20
3.1500000000000048
 30
0.0
 11
12.26591488797072
 21
3.1499999999999999
 31
0.0
  0
LINE
  5
1543
  8
250
 10
11.26591488797072
 20
7.6100000000000012
 30
0.0
 11
11.26591488797072
 21
5.3800000000000008
 31
0.0
  0
LINE
  5
1544
  8
250
 10
11.26591488797072
 20
3.1499999999999999
 30
0.0
 11
11.26591488797072
 21
-5.2761904761904654
 31
0.0
  0
LINE
  5
1547
  8
250
 10
-0.0000000000006821
 20
1.1461592292539851
 30
0.0
 11
-0.0000000000066791
 21
10.630526879508331
 31
0.0
  0
LINE
  5
1548
  8
250
 10
-2.0329255534156938
 20
2.6048941998741588
 30
0.0
 11
-7.1899924889390538
 21
7.5737566038457578
 31
0.0
  0
ARC
  5
1549
  8
250
 10
-0.0000000000003695
 20
0.6461592292539854
 30
0.0
 40
8.9843676502543453
 50
104.2580836264073
 51
121.8067158131937
  0
TEXT
  5
154D
  8
250
 10
-7.3535011122702372
 20
8.7877681946286934
 30
0.0
 40
2.7999999999999989
  1
45üï
 50
17.604846617673871
  0
LINE
  5
154E
  8
250
 10
-4.5016861723696158
 20
7.9922513417899808
 30
0.0
 11
-6.4698675155006384
 21
6.8799122245860138
 31
0.0
  0
LINE
  5
154F
  8
250
 10
-4.9688329856861051
 20
8.5704539872809082
 30
0.0
 11
-6.4698675155006384
 21
6.8799122245860138
 31
0.0
  0
LINE
  5
1550
  8
250
 10
-6.4698675155006384
 20
6.8799122245860138
 30
0.0
 11
-4.7352595790278542
 21
8.2813526645354454
 31
0.0
  0
LINE
  5
1551
  8
250
 10
-2.2588857135498861
 20
9.7225673285437821
 30
0.0
 11
-0.0000000000060538
 21
9.6305268795083308
 31
0.0
  0
LINE
  5
1552
  8
250
 10
-2.1666347395319998
 20
8.9849805863654861
 30
0.0
 11
-0.0000000000060538
 21
9.6305268795083308
 31
0.0
  0
LINE
  5
1553
  8
250
 10
-0.0000000000060538
 20
9.6305268795083308
 30
0.0
 11
-2.2127602265409498
 21
9.353773957454635
 31
0.0
  0
TEXT
  5
1554
  8
250
 10
10.26591488797072
 20
-4.5619047619047342
 30
0.0
 40
3.0
  1
\U+2205
 50
90.0
  0
TEXT
  5
1555
  8
250
 10
10.165914887970731
 20
-1.84761904761902
 30
0.0
 40
2.7999999999999989
  1
6.3
 50
90.0
  0
LINE
  5
1556
  8
250
 10
11.637581554637389
 20
5.3799999999999999
 30
0.0
 11
11.26591488797072
 21
3.1499999999999999
 31
0.0
  0
LINE
  5
1557
  8
250
 10
10.89424822130405
 20
5.3799999999999999
 30
0.0
 11
11.26591488797072
 21
3.1499999999999999
 31
0.0
  0
LINE
  5
1558
  8
250
 10
11.26591488797072
 20
3.1499999999999999
 30
0.0
 11
11.26591488797072
 21
5.3799999999999999
 31
0.0
  0
TEXT
  5
1559
  8
250
 10
-46.66666666666665
 20
-28.846796149144811
 30
0.0
 40
2.7999999999999989
  1
88
  0
LINE
  5
155A
  8
250
 10
-2.2300000000000031
 20
-29.475129482478138
 30
0.0
 11
0.0
 21
-29.846796149144811
 31
0.0
  0
LINE
  5
155B
  8
250
 10
-2.2300000000000031
 20
-30.218462815811481
 30
0.0
 11
0.0
 21
-29.846796149144811
 31
0.0
  0
LINE
  5
155C
  8
250
 10
0.0
 20
-29.846796149144811
 30
0.0
 11
-2.2300000000000031
 21
-29.846796149144811
 31
0.0
  0
LINE
  5
155D
  8
250
 10
-85.769999999999953
 20
-30.218462815811481
 30
0.0
 11
-87.999999999999972
 21
-29.846796149144811
 31
0.0
  0
LINE
  5
155E
  8
250
 10
-85.769999999999953
 20
-29.475129482478138
 30
0.0
 11
-87.999999999999972
 21
-29.846796149144811
 31
0.0
  0
LINE
  5
155F
  8
250
 10
-87.999999999999972
 20
-29.846796149144811
 30
0.0
 11
-85.769999999999953
 21
-29.846796149144811
 31
0.0
  0
TEXT
  5
1560
  8
250
 10
-17.966666666666619
 20
-21.846796149144811
 30
0.0
 40
2.7999999999999989
  1
26.6
  0
LINE
  5
1561
  8
250
 10
-2.2299999999999471
 20
-22.475129482478138
 30
0.0
 11
0.0000000000000568
 21
-22.846796149144811
 31
0.0
  0
LINE
  5
1562
  8
250
 10
-2.2299999999999471
 20
-23.218462815811481
 30
0.0
 11
0.0000000000000568
 21
-22.846796149144811
 31
0.0
  0
LINE
  5
1563
  8
250
 10
0.0000000000000568
 20
-22.846796149144811
 30
0.0
 11
-2.2299999999999471
 21
-22.846796149144811
 31
0.0
  0
LINE
  5
1564
  8
250
 10
-24.369999999999969
 20
-23.218462815811481
 30
0.0
 11
-26.599999999999969
 21
-22.846796149144811
 31
0.0
  0
LINE
  5
1565
  8
250
 10
-24.369999999999969
 20
-22.475129482478138
 30
0.0
 11
-26.599999999999969
 21
-22.846796149144811
 31
0.0
  0
LINE
  5
1566
  8
250
 10
-26.599999999999969
 20
-22.846796149144811
 30
0.0
 11
-24.369999999999969
 21
-22.846796149144811
 31
0.0
  0
TEXT
  5
1567
  8
250
 10
-100.3215128676519
 20
-3.8952380952380929
 30
0.0
 40
3.0
  1
\U+2205
 50
90.0
  0
TEXT
  5
1568
  8
250
 10
-100.4215128676519
 20
-1.180952380952379
 30
0.0
 40
2.7999999999999989
  1
10
 50
90.0
  0
LINE
  5
1569
  8
250
 10
-99.693179534318631
 20
2.7699999999999738
 30
0.0
 11
-99.321512867651975
 21
4.9999999999999751
 31
0.0
  0
LINE
  5
156A
  8
250
 10
-98.949846200985291
 20
2.7699999999999738
 30
0.0
 11
-99.321512867651975
 21
4.9999999999999751
 31
0.0
  0
LINE
  5
156B
  8
250
 10
-99.321512867651975
 20
4.9999999999999751
 30
0.0
 11
-99.321512867651975
 21
2.7699999999999738
 31
0.0
  0
LINE
  5
156C
  8
250
 10
-98.949846200985291
 20
-2.769999999999968
 30
0.0
 11
-99.321512867651975
 21
-4.999999999999968
 31
0.0
  0
LINE
  5
156D
  8
250
 10
-99.693179534318631
 20
-2.769999999999968
 30
0.0
 11
-99.321512867651975
 21
-4.999999999999968
 31
0.0
  0
LINE
  5
156E
  8
250
 10
-99.321512867651975
 20
-4.999999999999968
 30
0.0
 11
-99.321512867651975
 21
-2.769999999999968
 31
0.0
  0
INSERT
  5
17A3
  8
240
  2
A$C1F706B0C
 10
0.0
 20
0.0
 30
0.0
  0
VIEWPORT
  5
22
 67
     1
  8
0
 10
261.51769911504419
 20
148.5
 30
0.0
 40
523.0353982300885
 41
297.0
 68
     1
 69
     1
1001
ACAD
1000
MVIEW
1002
{
1070
    16
1010
0.0
1020
0.0
1030
0.0
1010
0.0
1020
0.0
1030
1.0
1040
0.0
1040
297.0
1040
261.51769911504419
1040
148.5
1040
50.0
1040
0.0
1040
0.0
1070
     0
1070
   100
1070
     1
1070
     1
1070
     0
1070
     0
1070
     0
1070
     0
1040
0.0
1040
0.0
1040
0.0
1040
1.0
1040
1.0
1040
10.0
1040
10.0
1070
     0
1002
{
1002
}
1002
}
1001
GENIUS_GENODEF_13
1002
{
1000
HIER
1070
     0
1002
}
1002
{
1000
MANEDIT
1070
     0
1002
}
1002
{
1000
NOSEL
1070
     0
1002
}
1002
{
1000
BEHIND
1070
     0
1002
}
1002
{
1000
OTHER
1070
     0
1002
}
1002
{
1000
REACTOR
1002
}
1001
GENIUS_GENOBJ-N-SDF_13
1002
{
1000
OWNER
1000
GEN
1002
}
1001
GENIUS_GENSCREG_15
1000
PF
1040
1.0
1000
DF
1040
1.0
1000
MIN
1011
0.0
1021
0.0
1031
0.0
1021
0.0
1031
0.0
1000
MAX
1011
523.0353982300885
1021
0.0
1031
0.0
1021
297.0
1031
0.0
1000
FLAGS
1070
     2
  0
ENDSEC
  0
EOF
