  0
SECTION
  2
HEADER
  9
$ACADVER
  1
AC1009
  9
$INSBASE
 10
0.0
 20
0.0
 30
0.0
  9
$EXTMIN
 10
-93.237969509070695
 20
-28.850606522924981
 30
-0.0000000349181948
  9
$EXTMAX
 10
12.292271969259559
 20
24.107434565936838
 30
0.0000000814935746
  9
$LIMMIN
 10
0.0
 20
0.0
  9
$LIMMAX
 10
297.0
 20
210.0
  9
$ORTHOMODE
 70
     0
  9
$REGENMODE
 70
     1
  9
$FILLMODE
 70
     1
  9
$QTEXTMODE
 70
     0
  9
$MIRRTEXT
 70
     1
  9
$DRAGMODE
 70
     2
  9
$LTSCALE
 40
10.0
  9
$OSMODE
 70
  2597
  9
$ATTMODE
 70
     1
  9
$TEXTSIZE
 40
3.0
  9
$TRACEWID
 40
1.0
  9
$TEXTSTYLE
  7
YOKO
  9
$CLAYER
  8
240
  9
$CELTYPE
  6
BYLAYER
  9
$CECOLOR
 62
   256
  9
$DIMSCALE
 40
1.0
  9
$DIMASZ
 40
2.2299999999999991
  9
$DIMEXO
 40
0.5
  9
$DIMDLI
 40
7.0
  9
$DIMRND
 40
0.0
  9
$DIMDLE
 40
0.0
  9
$DIMEXE
 40
1.0
  9
$DIMTP
 40
0.0
  9
$DIMTM
 40
0.01
  9
$DIMTXT
 40
2.7999999999999989
  9
$DIMCEN
 40
0.0
  9
$DIMTSZ
 40
0.0
  9
$DIMTOL
 70
     0
  9
$DIMLIM
 70
     0
  9
$DIMTIH
 70
     0
  9
$DIMTOH
 70
     0
  9
$DIMSE1
 70
     0
  9
$DIMSE2
 70
     0
  9
$DIMTAD
 70
     3
  9
$DIMZIN
 70
     9
  9
$DIMBLK
  1
OPEN
  9
$DIMASO
 70
     1
  9
$DIMSHO
 70
     1
  9
$DIMPOST
  1

  9
$DIMAPOST
  1

  9
$DIMALT
 70
     0
  9
$DIMALTD
 70
     2
  9
$DIMALTF
 40
25.399999999999999
  9
$DIMLFAC
 40
1.0
  9
$DIMTOFL
 70
     1
  9
$DIMTVP
 40
0.0
  9
$DIMTIX
 70
     1
  9
$DIMSOXD
 70
     0
  9
$DIMSAH
 70
     0
  9
$DIMBLK1
  1

  9
$DIMBLK2
  1

  9
$DIMSTYLE
  2
BIGT
  9
$DIMCLRD
 70
   256
  9
$DIMCLRE
 70
   256
  9
$DIMCLRT
 70
    40
  9
$DIMTFAC
 40
1.0
  9
$DIMGAP
 40
1.0
  9
$LUNITS
 70
     2
  9
$LUPREC
 70
     3
  9
$SKETCHINC
 40
1.0
  9
$FILLETRAD
 40
0.2
  9
$AUNITS
 70
     0
  9
$AUPREC
 70
     3
  9
$MENU
  1
.
  9
$ELEVATION
 40
0.0
  9
$PELEVATION
 40
0.0
  9
$THICKNESS
 40
0.0
  9
$LIMCHECK
 70
     0
  9
$BLIPMODE
 70
     0
  9
$CHAMFERA
 40
0.25
  9
$CHAMFERB
 40
0.25
  9
$SKPOLY
 70
     0
  9
$TDCREATE
 40
2454679.4373290972
  9
$TDUPDATE
 40
2454679.4566740859
  9
$TDINDWG
 40
0.0193460648
  9
$TDUSRTIMER
 40
0.0193460648
  9
$USRTIMER
 70
     1
  9
$ANGBASE
 50
0.0
  9
$ANGDIR
 70
     0
  9
$PDMODE
 70
     1
  9
$PDSIZE
 40
0.0
  9
$PLINEWID
 40
0.0
  9
$COORDS
 70
     2
  9
$SPLFRAME
 70
     0
  9
$SPLINETYPE
 70
     6
  9
$SPLINESEGS
 70
     4
  9
$ATTDIA
 70
     1
  9
$ATTREQ
 70
     1
  9
$HANDLING
 70
     1
  9
$HANDSEED
  5
1854
  9
$SURFTAB1
 70
     6
  9
$SURFTAB2
 70
     6
  9
$SURFTYPE
 70
     6
  9
$SURFU
 70
     6
  9
$SURFV
 70
     6
  9
$UCSNAME
  2

  9
$UCSORG
 10
0.0
 20
0.0
 30
0.0
  9
$UCSXDIR
 10
1.0
 20
0.0
 30
0.0
  9
$UCSYDIR
 10
0.0
 20
1.0
 30
0.0
  9
$PUCSNAME
  2

  9
$PUCSORG
 10
0.0
 20
0.0
 30
0.0
  9
$PUCSXDIR
 10
1.0
 20
0.0
 30
0.0
  9
$PUCSYDIR
 10
0.0
 20
1.0
 30
0.0
  9
$USERI1
 70
     1
  9
$USERI2
 70
     0
  9
$USERI3
 70
     0
  9
$USERI4
 70
     0
  9
$USERI5
 70
     0
  9
$USERR1
 40
0.0
  9
$USERR2
 40
0.0
  9
$USERR3
 40
0.0
  9
$USERR4
 40
0.0
  9
$USERR5
 40
0.0
  9
$WORLDVIEW
 70
     1
  9
$SHADEDGE
 70
     3
  9
$SHADEDIF
 70
    70
  9
$TILEMODE
 70
     1
  9
$MAXACTVP
 70
    16
  9
$PLIMCHECK
 70
     0
  9
$PEXTMIN
 10
1.0000000000000000E+020
 20
1.0000000000000000E+020
 30
1.0000000000000000E+020
  9
$PEXTMAX
 10
-1.0000000000000000E+020
 20
-1.0000000000000000E+020
 30
-1.0000000000000000E+020
  9
$PLIMMIN
 10
0.0
 20
0.0
  9
$PLIMMAX
 10
420.0
 20
297.0
  9
$UNITMODE
 70
     0
  9
$VISRETAIN
 70
     1
  9
$PLINEGEN
 70
     0
  9
$PSLTSCALE
 70
     1
  0
ENDSEC
  0
SECTION
  2
TABLES
  0
TABLE
  2
VPORT
 70
    60
  0
VPORT
  2
*ACTIVE
 70
     0
 10
0.0
 20
0.0
 11
1.0
 21
1.0
 12
-40.472848769905561
 22
-2.3715859784940672
 13
0.0
 23
0.0
 14
7.0
 24
7.0
 15
7.0
 25
7.0
 16
0.0
 26
0.0
 36
1.0
 17
0.0
 27
0.0
 37
0.0
 40
71.347141757932619
 41
1.4864532019704431
 42
50.0
 43
0.0
 44
0.0
 50
0.0
 51
0.0
 71
     0
 72
  2000
 73
     1
 74
     0
 75
     0
 76
     0
 77
     0
 78
     0
  0
ENDTAB
  0
TABLE
  2
LTYPE
 70
    16
  0
LTYPE
  2
CONTINUOUS
 70
     0
  3
Solid line
 72
    65
 73
     0
 40
0.0
  0
LTYPE
  2
CENTER2
 70
     0
  3
___ _ ___ _ ___ _ ___ _ ___ _ ___ _ ___ _ ___ _
 72
    65
 73
     4
 40
1.125
 49
0.75
 49
-0.125
 49
0.125
 49
-0.125
  0
LTYPE
  2
HIDDEN2
 70
     0
  3
_ _ _ _ _ _ _ _ _ _ _ _ _ _ _ _ _ _ _ _ _ _ _ _
 72
    65
 73
     2
 40
0.1875
 49
0.125
 49
-0.0625
  0
LTYPE
  2
PHANTOM2
 70
     0
  3
___ _ _ ___ _ _ ___ _ _ ___ _ _ ___ _ _ ___ _ _
 72
    65
 73
     6
 40
1.25
 49
0.625
 49
-0.125
 49
0.125
 49
-0.125
 49
0.125
 49
-0.125
  0
LTYPE
  2
CENTER
 70
     0
  3
____ _ ____ _ ____ _ ____ _ ____ _ ____ _ ____ 
 72
    65
 73
     4
 40
2.0
 49
1.25
 49
-0.25
 49
0.25
 49
-0.25
  0
LTYPE
  2
AM_ISO02W050
 70
     0
  3
__ __ __ __ __ __ __ __ __ __ __ __ __ __ __
 72
    65
 73
     2
 40
7.5
 49
6.0
 49
-1.5
  0
LTYPE
  2
AMCONSTR
 70
     0
  3
_______________________
 72
    65
 73
     2
 40
9999.0
 49
9999.0
 49
0.0
  0
LTYPE
  2
ACISOWELD
 70
     0
  3
_ _ _ _ _
 72
    65
 73
     2
 40
2.0
 49
2.0
 49
-1.0
  0
LTYPE
  2
ACISOTGB
 70
     0
  3
__ . . __ . .
 72
    65
 73
     6
 40
9.0
 49
4.0
 49
-1.0
 49
1.0
 49
-1.0
 49
1.0
 49
-1.0
  0
LTYPE
  2
ACISOTGL
 70
     0
  3
_ _ _ _ _
 72
    65
 73
     2
 40
3.0
 49
2.0
 49
-1.0
  0
LTYPE
  2
ACJISTGB
 70
     0
  3
__ . . __ . .
 72
    65
 73
     6
 40
9.0
 49
4.0
 49
-1.0
 49
1.0
 49
-1.0
 49
1.0
 49
-1.0
  0
LTYPE
  2
ACJISTGL
 70
     0
  3
_ _ _ _ _
 72
    65
 73
     2
 40
3.0
 49
2.0
 49
-1.0
  0
LTYPE
  2
HIDDEN
 70
     0
  3
Hidden __ __ __ __ __ __ __ __ __ __ __ __ __ _
 72
    65
 73
     2
 40
9.5249999999999986
 49
6.3499999999999988
 49
-3.1749999999999989
  0
LTYPE
  2
ACANSTGB
 70
     0
  3
__ . . __ . .
 72
    65
 73
     6
 40
0.35433070866
 49
0.15748031496
 49
-0.03937007874
 49
0.03937007874
 49
-0.03937007874
 49
0.03937007874
 49
-0.03937007874
  0
LTYPE
  2
ACANSTGL
 70
     0
  3
_ _ _ _ _
 72
    65
 73
     2
 40
0.11811023622
 49
0.07874015748
 49
-0.03937007874
  0
ENDTAB
  0
TABLE
  2
LAYER
 70
    14
  0
LAYER
  2
0
 70
     0
 62
     7
  6
CONTINUOUS
  0
LAYER
  2
DEFPOINTS
 70
     0
 62
     7
  6
CONTINUOUS
  0
LAYER
  2
245
 70
     0
 62
     2
  6
CENTER2
  0
LAYER
  2
240
 70
     0
 62
     4
  6
CONTINUOUS
  0
LAYER
  2
241
 70
     0
 62
   211
  6
CONTINUOUS
  0
LAYER
  2
246
 70
     0
 62
     3
  6
PHANTOM2
  0
LAYER
  2
247
 70
     0
 62
    60
  6
CONTINUOUS
  0
LAYER
  2
250
 70
     0
 62
     3
  6
CONTINUOUS
  0
ENDTAB
  0
TABLE
  2
STYLE
 70
     8
  0
STYLE
  2
STANDARD
 70
     0
 40
0.0
 41
1.0
 50
0.0
 71
     0
 42
3.0
  3
romans.shx
  4
extfont.shx
  0
STYLE
  2
ACISOTS
 70
     0
 40
1.0
 41
1.0
 50
0.0
 71
     0
 42
3.0
  3
amgdt.shx
  4
extfont.shx
  0
STYLE
  2
ACISOGDT
 70
     0
 40
0.0
 41
1.0
 50
0.0
 71
     0
 42
3.0
  3
amgdt.shx
  4
extfont.shx
  0
STYLE
  2
ACJISTS
 70
     0
 40
1.0
 41
1.0
 50
0.0
 71
     0
 42
3.0
  3
amgdt.shx
  4
extfont.shx
  0
STYLE
  2
ACJISGDT
 70
     0
 40
0.0
 41
1.0
 50
0.0
 71
     0
 42
3.0
  3
amgdt.shx
  4
extfont.shx
  0
STYLE
  2
YOKO
 70
     0
 40
0.0
 41
1.0
 50
0.0
 71
     0
 42
3.0
  3
romans.shx
  4
extfont.shx
  0
STYLE
  2
ACANSTS
 70
     0
 40
1.0
 41
1.0
 50
0.0
 71
     0
 42
3.0
  3
romans.shx
  4
extfont.shx
  0
STYLE
  2
ACANSGDT
 70
     0
 40
0.0
 41
1.0
 50
0.0
 71
     0
 42
3.0
  3
amgdtans.shx
  4

  0
ENDTAB
  0
TABLE
  2
VIEW
 70
     0
  0
ENDTAB
  0
TABLE
  2
UCS
 70
     0
  0
ENDTAB
  0
TABLE
  2
APPID
 70
    32
  0
APPID
  2
ACAD
 70
     0
  0
APPID
  2
GLOBAL
 70
     0
  0
APPID
  2
DETAIL
 70
     0
  0
APPID
  2
GRPNAME
 70
     0
  0
APPID
  2
GPARA
 70
     0
  0
APPID
  2
MCAD_NO_VIS
 70
     0
  0
APPID
  2
ACAD_TEMP_GRAPHIC
 70
     0
  0
APPID
  2
ACATTRIBSERVICES
 70
     0
  0
APPID
  2
GENIUS_GENSCREG_15
 70
     0
  0
APPID
  2
GENIUS_GENODEF_13
 70
     0
  0
APPID
  2
GENIUS_GENOBJ-N-SDF_13
 70
     0
  0
APPID
  2
GENIUS_GENREC_14
 70
     0
  0
APPID
  2
GENIUS_GENOBJ-N-REC_13
 70
     0
  0
APPID
  2
GENIUS_GENDIMSH_14
 70
     0
  0
APPID
  2
GENIUS_GENOBJ-N-DIM_13
 70
     0
  0
APPID
  2
GENIUS_GENDIM_13
 70
     0
  0
APPID
  2
GENIUS_GENDTOL_13
 70
     0
  0
APPID
  2
GENIUS_GENOLIS_13
 70
     0
  0
APPID
  2
GENIUS_GENOENT_13
 70
     0
  0
APPID
  2
GENIUS_GENOBJ-F-FEM_13
 70
     0
  0
APPID
  2
GENIUS_GENOREF_13
 70
     0
  0
APPID
  2
GENIUS_GEFFEM_13
 70
     0
  0
APPID
  2
GENIUS_GEFFEMP_13
 70
     0
  0
APPID
  2
AD_DRAW
 70
     0
  0
APPID
  2
DESIGNERASSEMBLIES
 70
     0
  0
APPID
  2
ACADM_DIM_EDIT
 70
     0
  0
APPID
  2
AMDT_DM_ADJ
 70
     0
  0
APPID
  2
ITEMNAME
 70
     0
  0
APPID
  2
GENIUS_GENOBJ-N-FIL_13
 70
     0
  0
APPID
  2
HATCH_TYPE
 70
     0
  0
APPID
  2
HATCH_DISPLAY
 70
     0
  0
APPID
  2
HATCH_DISTANCE
 70
     0
  0
ENDTAB
  0
TABLE
  2
DIMSTYLE
 70
    31
  0
DIMSTYLE
  2
BIGT
 70
     0
  3

  4

  5
OPEN
  6

  7

 40
1.0
 41
2.2299999999999991
 42
0.5
 43
7.0
 44
1.0
 45
0.0
 46
0.0
 47
0.0
 48
0.01
140
2.7999999999999989
141
0.0
142
0.0
143
25.399999999999999
144
1.0
145
0.0
146
1.0
147
1.0
 71
     0
 72
     0
 73
     0
 74
     0
 75
     0
 76
     0
 77
     3
 78
     9
170
     0
171
     2
172
     1
173
     0
174
     1
175
     0
176
   256
177
   256
178
    40
  0
DIMSTYLE
  2
AM_ISO
 70
     0
  3

  4
"
  5

  6

  7

 40
1.0
 41
2.5
 42
1.0
 43
10.0
 44
1.0
 45
0.0
 46
0.0
 47
0.1
 48
0.1
140
3.5
141
0.0
142
0.0
143
0.0393701
144
1.0
145
0.0
146
0.71
147
1.5
 71
     0
 72
     0
 73
     0
 74
     0
 75
     0
 76
     0
 77
     1
 78
     8
170
     0
171
     2
172
     1
173
     0
174
     0
175
     0
176
   256
177
   256
178
     2
  0
DIMSTYLE
  2
AM_ISO$3
 70
     0
  3

  4
"
  5

  6

  7

 40
1.0
 41
2.5
 42
1.0
 43
10.0
 44
1.0
 45
0.0
 46
0.0
 47
0.1
 48
0.1
140
3.5
141
0.0
142
0.0
143
0.0393701
144
1.0
145
0.0
146
0.71
147
1.5
 71
     0
 72
     0
 73
     0
 74
     1
 75
     0
 76
     0
 77
     1
 78
     8
170
     0
171
     2
172
     0
173
     0
174
     0
175
     0
176
   256
177
   256
178
     2
  0
DIMSTYLE
  2
AM_ISO$4
 70
     0
  3

  4
"
  5

  6

  7

 40
1.0
 41
2.5
 42
1.0
 43
10.0
 44
1.0
 45
0.0
 46
0.0
 47
0.1
 48
0.1
140
3.5
141
0.0
142
0.0
143
0.0393701
144
1.0
145
0.0
146
0.71
147
1.5
 71
     0
 72
     0
 73
     0
 74
     1
 75
     0
 76
     0
 77
     1
 78
     8
170
     0
171
     2
172
     0
173
     0
174
     0
175
     0
176
   256
177
   256
178
     2
  0
DIMSTYLE
  2
AM_ISO$6
 70
     0
  3

  4
"
  5

  6

  7

 40
1.0
 41
2.5
 42
1.0
 43
10.0
 44
1.0
 45
0.0
 46
0.0
 47
0.1
 48
0.1
140
3.5
141
0.0
142
0.0
143
0.0393701
144
1.0
145
0.0
146
0.71
147
1.5
 71
     0
 72
     0
 73
     0
 74
     0
 75
     0
 76
     0
 77
     0
 78
     8
170
     0
171
     2
172
     1
173
     0
174
     0
175
     0
176
   256
177
   256
178
     2
  0
DIMSTYLE
  2
AM_ISO$7
 70
     0
  3

  4
"
  5

  6

  7

 40
1.0
 41
2.5
 42
1.0
 43
10.0
 44
1.0
 45
0.0
 46
0.0
 47
0.1
 48
0.1
140
5.0
141
0.0
142
0.0
143
0.0393701
144
1.0
145
0.0
146
0.71
147
1.5
 71
     0
 72
     0
 73
     0
 74
     0
 75
     0
 76
     0
 77
     1
 78
     8
170
     0
171
     2
172
     1
173
     0
174
     0
175
     0
176
   256
177
   256
178
     2
  0
DIMSTYLE
  2
AM_ISO$SF
 70
     0
  3

  4
"
  5

  6

  7

 40
1.0
 41
2.5
 42
1.0
 43
10.0
 44
1.0
 45
0.0
 46
0.0
 47
0.1
 48
0.1
140
3.5
141
0.0
142
0.0
143
0.0393701
144
1.0
145
0.0
146
0.71
147
1.5
 71
     0
 72
     0
 73
     0
 74
     0
 75
     1
 76
     1
 77
     1
 78
     8
170
     0
171
     2
172
     1
173
     0
174
     0
175
     0
176
   256
177
   256
178
     2
  0
DIMSTYLE
  2
AM_ISO$SH
 70
     0
  3

  4
"
  5

  6
GENAXEH
  7

 40
1.0
 41
2.5
 42
1.0
 43
10.0
 44
1.0
 45
0.0
 46
0.0
 47
0.1
 48
0.1
140
3.5
141
0.0
142
0.0
143
0.0393701
144
2.0
145
0.0
146
0.71
147
1.5
 71
     0
 72
     0
 73
     0
 74
     0
 75
     1
 76
     1
 77
     1
 78
     8
170
     0
171
     2
172
     1
173
     1
174
     0
175
     0
176
   256
177
   256
178
     2
  0
DIMSTYLE
  2
BIGT$2
 70
     0
  3

  4

  5
OPEN
  6

  7

 40
1.0
 41
2.2299999999999991
 42
0.5
 43
7.0
 44
1.0
 45
0.0
 46
0.0
 47
0.0
 48
0.01
140
2.7999999999999989
141
0.0
142
0.0
143
25.399999999999999
144
1.0
145
0.0
146
1.0
147
1.0
 71
     0
 72
     0
 73
     0
 74
     0
 75
     0
 76
     0
 77
     3
 78
     9
170
     0
171
     2
172
     1
173
     0
174
     0
175
     0
176
   256
177
   256
178
    40
  0
DIMSTYLE
  2
BIGT$3
 70
     0
  3

  4

  5
OPEN
  6

  7

 40
1.0
 41
2.2299999999999991
 42
0.5
 43
2.5
 44
1.0
 45
0.0
 46
0.0
 47
0.0
 48
0.01
140
2.7999999999999989
141
0.0
142
0.0
143
25.399999999999999
144
1.0
145
0.0
146
1.0
147
1.0
 71
     0
 72
     0
 73
     0
 74
     0
 75
     0
 76
     0
 77
     3
 78
     9
170
     0
171
     2
172
     1
173
     0
174
     0
175
     0
176
   256
177
   256
178
    40
  0
DIMSTYLE
  2
BIGT$7
 70
     0
  3

  4

  5
OPEN
  6

  7

 40
0.0
 41
2.2299999999999991
 42
0.5
 43
7.0
 44
1.0
 45
0.0
 46
0.0
 47
0.0
 48
0.01
140
2.7999999999999989
141
0.0
142
0.0
143
25.399999999999999
144
1.0
145
0.0
146
1.0
147
1.0
 71
     0
 72
     0
 73
     0
 74
     0
 75
     0
 76
     0
 77
     3
 78
     9
170
     0
171
     2
172
     0
173
     0
174
     0
175
     0
176
   256
177
   256
178
    40
  0
DIMSTYLE
  2
BIGT$6
 70
     0
  3

  4

  5
OPEN
  6

  7

 40
1.0
 41
2.2299999999999991
 42
0.5
 43
2.5
 44
1.0
 45
0.0
 46
0.0
 47
0.0
 48
0.01
140
2.7999999999999989
141
0.0
142
0.0
143
25.399999999999999
144
1.0
145
0.0
146
1.0
147
1.0
 71
     0
 72
     0
 73
     0
 74
     0
 75
     0
 76
     0
 77
     3
 78
     9
170
     0
171
     2
172
     1
173
     0
174
     0
175
     0
176
   256
177
   256
178
    40
  0
DIMSTYLE
  2
BIGT$0
 70
     0
  3

  4

  5
OPEN
  6

  7

 40
1.0
 41
2.2299999999999991
 42
0.5
 43
7.0
 44
1.0
 45
0.0
 46
0.0
 47
0.0
 48
0.01
140
2.7999999999999989
141
0.0
142
0.0
143
25.399999999999999
144
1.0
145
0.0
146
1.0
147
1.0
 71
     0
 72
     0
 73
     0
 74
     0
 75
     0
 76
     0
 77
     3
 78
     9
170
     0
171
     2
172
     1
173
     0
174
     0
175
     0
176
   256
177
   256
178
    40
  0
DIMSTYLE
  2
BIGT$4
 70
     0
  3

  4

  5
OPEN
  6

  7

 40
1.0
 41
2.2299999999999991
 42
0.5
 43
2.5
 44
1.0
 45
0.0
 46
0.0
 47
0.0
 48
0.01
140
2.7999999999999989
141
0.0
142
0.0
143
25.399999999999999
144
1.0
145
0.0
146
1.0
147
1.0
 71
     0
 72
     0
 73
     0
 74
     0
 75
     0
 76
     0
 77
     3
 78
     9
170
     0
171
     2
172
     1
173
     0
174
     0
175
     0
176
   256
177
   256
178
    40
  0
DIMSTYLE
  2
BIGT$SH
 70
     0
  3

  4

  5
OPEN
  6

  7

 40
1.0
 41
2.2299999999999991
 42
0.5
 43
7.0
 44
1.0
 45
0.0
 46
0.0
 47
0.0
 48
0.0
140
2.7999999999999989
141
0.0
142
0.0
143
25.399999999999999
144
1.0
145
0.0
146
1.0
147
1.0
 71
     0
 72
     0
 73
     0
 74
     0
 75
     0
 76
     0
 77
     3
 78
     9
170
     0
171
     2
172
     1
173
     0
174
     0
175
     0
176
   256
177
   256
178
    40
  0
DIMSTYLE
  2
BIGT$SF
 70
     0
  3

  4

  5
OPEN
  6

  7

 40
1.0
 41
2.2299999999999991
 42
0.5
 43
7.0
 44
1.0
 45
0.0
 46
0.0
 47
0.0
 48
0.0
140
2.7999999999999989
141
0.0
142
0.0
143
25.399999999999999
144
1.0
145
0.0
146
1.0
147
1.0
 71
     0
 72
     0
 73
     0
 74
     0
 75
     0
 76
     0
 77
     3
 78
     9
170
     0
171
     2
172
     1
173
     0
174
     0
175
     0
176
   256
177
   256
178
    40
  0
DIMSTYLE
  2
TECHNICAL_OSAKA
 70
     0
  3

  4
"
  5
OPEN30
  6

  7

 40
1.0
 41
2.5
 42
1.0
 43
10.0
 44
1.0
 45
0.0
 46
0.0
 47
0.1
 48
0.1
140
2.7999999999999989
141
0.0
142
0.0
143
0.0393701
144
1.0
145
0.0
146
0.71
147
1.5
 71
     0
 72
     0
 73
     0
 74
     0
 75
     0
 76
     0
 77
     3
 78
     8
170
     0
171
     2
172
     1
173
     0
174
     0
175
     0
176
   256
177
   256
178
    40
  0
DIMSTYLE
  2
TECHNICAL_OSAKA$3
 70
     0
  3

  4
"
  5
OPEN30
  6

  7

 40
1.0
 41
2.5
 42
1.0
 43
10.0
 44
1.0
 45
0.0
 46
0.0
 47
0.1
 48
0.1
140
2.7999999999999989
141
0.0
142
0.0
143
0.0393701
144
1.0
145
0.0
146
0.71
147
1.5
 71
     0
 72
     0
 73
     0
 74
     1
 75
     0
 76
     0
 77
     3
 78
     8
170
     0
171
     2
172
     0
173
     0
174
     0
175
     0
176
   256
177
   256
178
    40
  0
DIMSTYLE
  2
TECHNICAL_OSAKA$4
 70
     0
  3

  4
"
  5
OPEN30
  6

  7

 40
1.0
 41
2.5
 42
1.0
 43
10.0
 44
1.0
 45
0.0
 46
0.0
 47
0.1
 48
0.1
140
2.7999999999999989
141
0.0
142
0.0
143
0.0393701
144
1.0
145
0.0
146
0.71
147
1.5
 71
     0
 72
     0
 73
     0
 74
     1
 75
     0
 76
     0
 77
     3
 78
     8
170
     0
171
     2
172
     0
173
     0
174
     0
175
     0
176
   256
177
   256
178
    40
  0
DIMSTYLE
  2
TECHNICAL_OSAKA$6
 70
     0
  3

  4
"
  5
OPEN30
  6

  7

 40
1.0
 41
2.5
 42
1.0
 43
10.0
 44
1.0
 45
0.0
 46
0.0
 47
0.1
 48
0.1
140
2.7999999999999989
141
0.0
142
0.0
143
0.0393701
144
1.0
145
0.0
146
0.71
147
1.5
 71
     0
 72
     0
 73
     0
 74
     0
 75
     0
 76
     0
 77
     0
 78
     8
170
     0
171
     2
172
     1
173
     0
174
     0
175
     0
176
   256
177
   256
178
    40
  0
DIMSTYLE
  2
TECHNICAL_OSAKA$7
 70
     0
  3

  4
"
  5
OPEN30
  6

  7

 40
1.0
 41
2.5
 42
1.0
 43
10.0
 44
1.0
 45
0.0
 46
0.0
 47
0.1
 48
0.1
140
2.7999999999999989
141
0.0
142
0.0
143
0.0393701
144
1.0
145
0.0
146
0.71
147
1.5
 71
     0
 72
     0
 73
     0
 74
     0
 75
     0
 76
     0
 77
     3
 78
     8
170
     0
171
     2
172
     1
173
     0
174
     0
175
     0
176
   256
177
   256
178
    40
  0
DIMSTYLE
  2
TECHNICAL_OSAKA$SF
 70
     0
  3

  4
"
  5
OPEN30
  6
OPEN30
  7
OPEN30
 40
1.0
 41
2.5
 42
1.0
 43
10.0
 44
1.0
 45
0.0
 46
0.0
 47
0.1
 48
0.1
140
3.5
141
0.0
142
0.0
143
0.0393701
144
1.0
145
0.0
146
0.71
147
1.5
 71
     0
 72
     0
 73
     0
 74
     0
 75
     1
 76
     1
 77
     3
 78
     8
170
     0
171
     2
172
     1
173
     0
174
     0
175
     0
176
   256
177
   256
178
    40
  0
DIMSTYLE
  2
TECHNICAL_OSAKA$SH
 70
     0
  3

  4
"
  5
OPEN30
  6
GENAXEH
  7
OPEN30
 40
1.0
 41
2.5
 42
1.0
 43
10.0
 44
1.0
 45
0.0
 46
0.0
 47
0.1
 48
0.1
140
3.5
141
0.0
142
0.0
143
0.0393701
144
2.0
145
0.0
146
0.71
147
1.5
 71
     0
 72
     0
 73
     0
 74
     0
 75
     1
 76
     1
 77
     3
 78
     8
170
     0
171
     2
172
     1
173
     1
174
     0
175
     0
176
   256
177
   256
178
    40
  0
DIMSTYLE
  2
AM_ANSI
 70
     0
  3

  4
mm
  5

  6

  7

 40
1.0
 41
0.1
 42
0.05
 43
0.5
 44
0.1
 45
0.0
 46
0.0
 47
0.1
 48
0.1
140
0.12
141
0.0
142
0.0
143
25.399999999999999
144
1.0
145
0.0
146
0.71
147
0.06
 71
     0
 72
     0
 73
     1
 74
     1
 75
     0
 76
     0
 77
     0
 78
     7
170
     0
171
     2
172
     0
173
     0
174
     0
175
     0
176
   256
177
   256
178
     2
  0
DIMSTYLE
  2
AM_ANSI$3
 70
     0
  3

  4
mm
  5

  6

  7

 40
1.0
 41
0.1
 42
0.05
 43
0.5
 44
0.1
 45
0.0
 46
0.0
 47
0.1
 48
0.1
140
0.12
141
0.0
142
0.0
143
25.399999999999999
144
1.0
145
0.0
146
0.71
147
0.06
 71
     0
 72
     0
 73
     1
 74
     1
 75
     0
 76
     0
 77
     0
 78
     7
170
     0
171
     2
172
     0
173
     0
174
     0
175
     0
176
   256
177
   256
178
     2
  0
DIMSTYLE
  2
AM_ANSI$4
 70
     0
  3

  4
mm
  5

  6

  7

 40
1.0
 41
0.1
 42
0.05
 43
0.5
 44
0.1
 45
0.0
 46
0.0
 47
0.1
 48
0.1
140
0.12
141
0.0
142
0.0
143
25.399999999999999
144
1.0
145
0.0
146
0.71
147
0.06
 71
     0
 72
     0
 73
     1
 74
     1
 75
     0
 76
     0
 77
     0
 78
     7
170
     0
171
     2
172
     0
173
     0
174
     0
175
     0
176
   256
177
   256
178
     2
  0
DIMSTYLE
  2
AM_ANSI$7
 70
     0
  3

  4
mm
  5

  6

  7

 40
1.0
 41
0.1
 42
0.05
 43
0.5
 44
0.1
 45
0.0
 46
0.0
 47
0.1
 48
0.1
140
0.24
141
0.0
142
0.0
143
25.399999999999999
144
1.0
145
0.0
146
0.71
147
0.06
 71
     0
 72
     0
 73
     1
 74
     1
 75
     0
 76
     0
 77
     0
 78
     7
170
     0
171
     2
172
     0
173
     0
174
     0
175
     0
176
   256
177
   256
178
     2
  0
DIMSTYLE
  2
AM_ANSI$SF
 70
     0
  3

  4
mm
  5

  6

  7

 40
1.0
 41
0.1
 42
0.05
 43
0.5
 44
0.1
 45
0.0
 46
0.0
 47
0.1
 48
0.1
140
0.12
141
0.0
142
0.0
143
25.399999999999999
144
1.0
145
0.0
146
0.71
147
0.06
 71
     0
 72
     0
 73
     1
 74
     1
 75
     1
 76
     1
 77
     0
 78
     7
170
     0
171
     2
172
     0
173
     0
174
     0
175
     0
176
   256
177
   256
178
     2
  0
DIMSTYLE
  2
AM_ANSI$SH
 70
     0
  3

  4
mm
  5

  6

  7

 40
1.0
 41
0.1
 42
0.05
 43
0.5
 44
0.1
 45
0.0
 46
0.0
 47
0.1
 48
0.1
140
0.12
141
0.0
142
0.0
143
25.399999999999999
144
1.0
145
0.0
146
0.71
147
0.06
 71
     0
 72
     0
 73
     1
 74
     1
 75
     1
 76
     1
 77
     0
 78
     7
170
     0
171
     2
172
     0
173
     1
174
     0
175
     0
176
   256
177
   256
178
     2
  0
ENDTAB
  0
ENDSEC
  0
SECTION
  2
BLOCKS
  0
BLOCK
  8
0
  2
$MODEL_SPACE
 70
     0
 10
0.0
 20
0.0
 30
0.0
  3
$MODEL_SPACE
  1

  0
ENDBLK
  5
1C
  8
0
  0
BLOCK
 67
     1
  8
0
  2
$PAPER_SPACE
 70
     0
 10
0.0
 20
0.0
 30
0.0
  3
$PAPER_SPACE
  1

  0
ENDBLK
  5
19
 67
     1
  8
0
  0
BLOCK
  8
0
  2
_OPEN
 70
     0
 10
0.0
 20
0.0
 30
0.0
  3
_OPEN
  1

  0
LINE
  5
595
  8
0
  6
BYBLOCK
 62
     0
 10
-1.0
 20
0.1666666666666666
 30
0.0
 11
0.0
 21
0.0
 31
0.0
  0
LINE
  5
596
  8
0
  6
BYBLOCK
 62
     0
 10
-1.0
 20
-0.1666666666666666
 30
0.0
 11
0.0
 21
0.0
 31
0.0
  0
LINE
  5
597
  8
0
  6
BYBLOCK
 62
     0
 10
0.0
 20
0.0
 30
0.0
 11
-1.0
 21
0.0
 31
0.0
  0
ENDBLK
  5
599
  8
0
  0
BLOCK
  8
0
  2
GENAXEH
 70
     0
 10
0.0
 20
0.0
 30
0.0
  3
GENAXEH
  1

  0
LINE
  5
6E8
  8
0
 10
-1.0
 20
0.0
 30
0.0
 11
1.0
 21
0.0
 31
0.0
  0
ENDBLK
  5
6EA
  8
0
  0
BLOCK
  8
0
  2
_OPEN30
 70
     0
 10
0.0
 20
0.0
 30
0.0
  3
_OPEN30
  1

  0
LINE
  5
E8F
  8
0
  6
BYBLOCK
 62
     0
 10
-1.0
 20
0.26794919
 30
0.0
 11
0.0
 21
0.0
 31
0.0
  0
LINE
  5
E90
  8
0
  6
BYBLOCK
 62
     0
 10
0.0
 20
0.0
 30
0.0
 11
-1.0
 21
-0.26794919
 31
0.0
  0
LINE
  5
E91
  8
0
  6
BYBLOCK
 62
     0
 10
0.0
 20
0.0
 30
0.0
 11
-1.0
 21
0.0
 31
0.0
  0
ENDBLK
  5
E93
  8
0
  0
BLOCK
  8
0
  2
*X23
 70
     1
 10
0.0
 20
0.0
 30
0.0
  3
*X23
  1

  0
LINE
  5
16DE
  8
0
 62
     0
 10
4.273162646078692
 20
-5.8571670211471281
 30
0.0
 11
3.510115154589633
 21
-5.094119529658065
 31
0.0
  0
LINE
  5
16DF
  8
0
 62
     0
 10
3.4940719416106631
 20
-5.3367076929658772
 30
0.0
 11
3.1883917659253971
 21
-5.03102751728062
 31
0.0
  0
LINE
  5
16E0
  8
0
 62
     0
 10
4.3362546584561441
 20
-6.1788904098113671
 30
0.0
 11
4.030574482770878
 21
-5.8732102341260974
 31
0.0
  0
LINE
  5
16E1
  8
0
 62
     0
 10
3.161466872339401
 20
-5.2627339999814282
 30
0.0
 11
2.940339387738502
 21
-5.0416065153805283
 31
0.0
  0
LINE
  5
16E2
  8
0
 62
     0
 10
4.3383903626899851
 20
-6.4396574903320083
 30
0.0
 11
4.1045481757553324
 21
-6.2058153033973564
 31
0.0
  0
LINE
  5
16E3
  8
0
 62
     0
 10
2.9211994892945912
 20
-5.281097993223403
 30
0.0
 11
2.731205010965883
 21
-5.091103514894697
 31
0.0
  0
LINE
  5
16E4
  8
0
 62
     0
 10
4.338390362689978
 20
-6.6982888666187872
 30
0.0
 11
4.105585681181485
 21
-6.4654841851102951
 31
0.0
  0
LINE
  5
16E5
  8
0
 62
     0
 10
2.7241461983551192
 20
-5.342676078570725
 30
0.0
 11
2.549611000613679
 21
-5.1681408808292844
 31
0.0
  0
LINE
  5
16E6
  8
0
 62
     0
 10
4.338390362689978
 20
-6.9569202429055821
 30
0.0
 11
4.105585681181485
 21
-6.7241155613970891
 31
0.0
  0
LINE
  5
16E7
  8
0
 62
     0
 10
2.5574155323842751
 20
-5.4345767888866652
 30
0.0
 11
2.3904879894348241
 21
-5.2676492459372142
 31
0.0
  0
LINE
  5
16E8
  8
0
 62
     0
 10
4.3383903626899851
 20
-7.2155516191923699
 30
0.0
 11
4.105585681181485
 21
-6.9827469376838751
 31
0.0
  0
LINE
  5
16E9
  8
0
 62
     0
 10
2.4161255819181502
 20
-5.5519182147073352
 30
0.0
 11
2.251507783582793
 21
-5.3873004163719713
 31
0.0
  0
LINE
  5
16EA
  8
0
 62
     0
 10
4.3383903626899851
 20
-7.4741829954791603
 30
0.0
 11
4.105585681181493
 21
-7.2413783139706691
 31
0.0
  0
LINE
  5
16EB
  8
0
 62
     0
 10
2.2989457159389901
 20
-5.6933697250149731
 30
0.0
 11
2.1319866093836382
 21
-5.526410618459618
 31
0.0
  0
LINE
  5
16EC
  8
0
 62
     0
 10
4.3383903626899851
 20
-7.7328143717659659
 30
0.0
 11
4.105585681181477
 21
-7.5000096902574622
 31
0.0
  0
LINE
  5
16ED
  8
0
 62
     0
 10
2.2072252078153931
 20
-5.8602805931781683
 30
0.0
 11
2.03261766024983
 21
-5.6856730456126012
 31
0.0
  0
LINE
  5
16EE
  8
0
 62
     0
 10
4.338390362689978
 20
-7.9914457480527474
 30
0.0
 11
4.105585681181485
 21
-7.7586410665442571
 31
0.0
  0
LINE
  5
16EF
  8
0
 62
     0
 10
2.1458777492053511
 20
-6.0575645108549052
 30
0.0
 11
1.955742399326019
 21
-5.8674291609755747
 31
0.0
  0
LINE
  5
16F0
  8
0
 62
     0
 10
4.338390362689978
 20
-8.2500771243395317
 30
0.0
 11
4.105585681181485
 21
-8.0172724428310431
 31
0.0
  0
LINE
  5
16F1
  8
0
 62
     0
 10
2.127884606905837
 20
-6.298202744842186
 30
0.0
 11
1.9064556573934901
 21
-6.0767737953298466
 31
0.0
  0
LINE
  5
16F2
  8
0
 62
     0
 10
4.3383903626899851
 20
-8.5087085006263337
 30
0.0
 11
4.105585681181485
 21
-8.2759038191178362
 31
0.0
  0
LINE
  5
16F3
  8
0
 62
     0
 10
2.0859571237484991
 20
-6.514906637971646
 30
0.0
 11
1.896203437136684
 21
-6.325152951359831
 31
0.0
  0
LINE
  5
16F4
  8
0
 62
     0
 10
4.338390362689978
 20
-8.7673398769131232
 30
0.0
 11
4.105585681181485
 21
-8.5345351954046365
 31
0.0
  0
LINE
  5
16F5
  8
0
 62
     0
 10
4.338390362689978
 20
-9.0259712531999199
 30
0.0
 11
4.105585681181485
 21
-8.7931665716914225
 31
0.0
  0
LINE
  5
16F6
  8
0
 62
     0
 10
4.338390362689978
 20
-9.2846026294867023
 30
0.0
 11
4.105585681181485
 21
-9.0517979479782156
 31
0.0
  0
LINE
  5
16F7
  8
0
 62
     0
 10
4.338390362689978
 20
-9.5432340057735008
 30
0.0
 11
4.105585681181485
 21
-9.3104293242649998
 31
0.0
  0
LINE
  5
16F8
  8
0
 62
     0
 10
4.3383903626899851
 20
-9.8018653820602886
 30
0.0
 11
4.105585681181485
 21
-9.5690607005517911
 31
0.0
  0
LINE
  5
16F9
  8
0
 62
     0
 10
4.3383903626899851
 20
-10.06049675834708
 30
0.0
 11
4.105585681181493
 21
-9.8276920768385896
 31
0.0
  0
LINE
  5
16FA
  8
0
 62
     0
 10
4.338390362689978
 20
-10.31912813463388
 30
0.0
 11
4.105585681181485
 21
-10.086323453125379
 31
0.0
  0
LINE
  5
16FB
  8
0
 62
     0
 10
4.338390362689978
 20
-10.577759510920661
 30
0.0
 11
4.105585681181485
 21
-10.34495482941217
 31
0.0
  0
LINE
  5
16FC
  8
0
 62
     0
 10
4.338390362689978
 20
-10.836390887207459
 30
0.0
 11
4.105585681181485
 21
-10.60358620569896
 31
0.0
  0
LINE
  5
16FD
  8
0
 62
     0
 10
4.3331743680063184
 20
-11.08980626881058
 30
0.0
 11
4.105585681181485
 21
-10.862217581985741
 31
0.0
  0
LINE
  5
16FE
  8
0
 62
     0
 10
4.2927234683474307
 20
-11.30798674543848
 30
0.0
 11
4.0963826280125364
 21
-11.11164590510359
 31
0.0
  0
LINE
  5
16FF
  8
0
 62
     0
 10
4.2225300722551111
 20
-11.496424725632959
 30
0.0
 11
4.044737971761033
 21
-11.31863262513888
 31
0.0
  0
LINE
  5
1700
  8
0
 62
     0
 10
4.1288343457024572
 20
-11.661360375367099
 30
0.0
 11
3.960418835935497
 21
-11.492944865600141
 31
0.0
  0
LINE
  5
1701
  8
0
 62
     0
 10
4.0145495478446014
 20
-11.80570695379603
 30
0.0
 11
3.849766277175481
 21
-11.640923683126911
 31
0.0
  0
LINE
  5
1702
  8
0
 62
     0
 10
3.8807570971702972
 20
-11.93054587940852
 30
0.0
 11
3.7149104705198961
 21
-11.76469925275811
 31
0.0
  0
LINE
  5
1703
  8
0
 62
     0
 10
3.7271431977453031
 20
-12.03556335627032
 30
0.0
 11
3.555244829520197
 21
-11.86366498804521
 31
0.0
  0
LINE
  5
1704
  8
0
 62
     0
 10
2.1267631408982761
 20
-10.69381467571009
 30
0.0
 11
1.9433546960822801
 21
-10.51040623089408
 31
0.0
  0
LINE
  5
1705
  8
0
 62
     0
 10
3.551878254361716
 20
-12.11892978917353
 30
0.0
 11
3.367040741413724
 21
-11.93409227622552
 31
0.0
  0
LINE
  5
1706
  8
0
 62
     0
 10
2.1267631408982761
 20
-10.95244605199688
 30
0.0
 11
1.8939584533982801
 21
-10.719641364496891
 31
0.0
  0
LINE
  5
1707
  8
0
 62
     0
 10
3.3508120748548631
 20
-12.17649498595347
 30
0.0
 11
3.140443698089034
 21
-11.96612660918764
 31
0.0
  0
LINE
  5
1708
  8
0
 62
     0
 10
2.164960234068348
 20
-11.24927452145374
 30
0.0
 11
1.893959103096269
 21
-10.978273390481659
 31
0.0
  0
LINE
  5
1709
  8
0
 62
     0
 10
3.1149140586925621
 20
-12.19922834607795
 30
0.0
 11
2.8439129277204782
 21
-11.928227215105871
 31
0.0
  0
LINE
  5
170A
  8
0
 62
     0
 10
2.8198068968923562
 20
-12.162752560564529
 30
0.0
 11
1.930434888609696
 21
-11.27338055228187
 31
0.0
  0
ENDBLK
  5
170B
  8
0
  0
BLOCK
  8
0
  2
*X24
 70
     1
 10
0.0
 20
0.0
 30
0.0
  3
*X24
  1

  0
LINE
  5
170E
  8
0
 62
     0
 10
3.9891833374314549
 20
-8.6767642279413888
 30
0.0
 11
3.9699999022341181
 21
-8.6575807927440565
 31
0.0
  0
LINE
  5
170F
  8
0
 62
     0
 10
3.9891833374314549
 20
-8.9353956042281784
 30
0.0
 11
3.6073930521298831
 21
-8.5536053189266141
 31
0.0
  0
LINE
  5
1710
  8
0
 62
     0
 10
3.9748178468112911
 20
-9.179661489894805
 30
0.0
 11
3.2447862020256362
 21
-8.4496298451091505
 31
0.0
  0
LINE
  5
1711
  8
0
 62
     0
 10
3.6122095777595682
 20
-9.0756845971298823
 30
0.0
 11
2.882179351921391
 21
-8.3456543712917011
 31
0.0
  0
LINE
  5
1712
  8
0
 62
     0
 10
3.249601308707851
 20
-8.9717077043649454
 30
0.0
 11
2.5195725018171511
 21
-8.2416788974742428
 31
0.0
  0
LINE
  5
1713
  8
0
 62
     0
 10
2.8869930396561161
 20
-8.8677308116000084
 30
0.0
 11
2.156965651712897
 21
-8.1377034236567951
 31
0.0
  0
LINE
  5
1714
  8
0
 62
     0
 10
2.52438477060439
 20
-8.763753918835075
 30
0.0
 11
1.8939584533982801
 21
-8.1333276016289702
 31
0.0
  0
LINE
  5
1715
  8
0
 62
     0
 10
2.1617765015526582
 20
-8.659777026070131
 30
0.0
 11
1.8939584533982901
 21
-8.3919589779157633
 31
0.0
  0
LINE
  5
1716
  8
0
 62
     0
 10
1.918015068738405
 20
-8.674646969542664
 30
0.0
 11
1.8939584533982801
 21
-8.6505903542025422
 31
0.0
  0
ENDBLK
  5
1717
  8
0
  0
BLOCK
  8
0
  2
*X25
 70
     1
 10
0.0
 20
0.0
 30
0.0
  3
*X25
  1

  0
LINE
  5
171A
  8
0
 62
     0
 10
3.868211204180473
 20
-7.0040038369696571
 30
0.0
 11
3.649960323505288
 21
-6.7857529562944654
 31
0.0
  0
LINE
  5
171B
  8
0
 62
     0
 10
3.9856529491582968
 20
-7.380076958234282
 30
0.0
 11
3.2873524678243831
 21
-6.6817764769003682
 31
0.0
  0
LINE
  5
171C
  8
0
 62
     0
 10
3.617185728354428
 20
-7.2702411137172014
 30
0.0
 11
2.924744612143483
 21
-6.5777999975062524
 31
0.0
  0
LINE
  5
171D
  8
0
 62
     0
 10
3.9698966386926511
 20
-7.6229520240554223
 30
0.0
 11
3.6965801245195551
 21
-7.3496355098823214
 31
0.0
  0
LINE
  5
171E
  8
0
 62
     0
 10
3.2412377906756031
 20
-7.1529245523251603
 30
0.0
 11
2.8018861877732841
 21
-6.7135729494228391
 31
0.0
  0
LINE
  5
171F
  8
0
 62
     0
 10
3.8992580266775021
 20
-7.8109447883270624
 30
0.0
 11
3.6959786603753511
 21
-7.6076654220249154
 31
0.0
  0
LINE
  5
1720
  8
0
 62
     0
 10
3.034690875273276
 20
-7.2050090132096241
 30
0.0
 11
2.8018861877732761
 21
-6.9722043257096251
 31
0.0
  0
LINE
  5
1721
  8
0
 62
     0
 10
3.792131315773708
 20
-7.9624494537100619
 30
0.0
 11
3.5455738235496872
 21
-7.7158919614860322
 31
0.0
  0
LINE
  5
1722
  8
0
 62
     0
 10
2.202988506504409
 20
-6.6319380207275582
 30
0.0
 11
2.1787499076577741
 21
-6.6076994218809197
 31
0.0
  0
LINE
  5
1723
  8
0
 62
     0
 10
3.6531656331833751
 20
-8.082115147406526
 30
0.0
 11
3.2290805876554312
 21
-7.658030101878575
 31
0.0
  0
LINE
  5
1724
  8
0
 62
     0
 10
2.2677871082174681
 20
-6.9553679987274011
 30
0.0
 11
1.982121972154764
 21
-6.669702862664697
 31
0.0
  0
LINE
  5
1725
  8
0
 62
     0
 10
3.4804499382598562
 20
-8.168030828769794
 30
0.0
 11
2.8664723785437469
 21
-7.5540532690536812
 31
0.0
  0
LINE
  5
1726
  8
0
 62
     0
 10
2.1576583608831101
 20
-7.1038706276798393
 30
0.0
 11
1.983335797400418
 21
-6.9295480641971441
 31
0.0
  0
LINE
  5
1727
  8
0
 62
     0
 10
3.262962952369413
 20
-8.2091752191661413
 30
0.0
 11
2.503864169432068
 21
-7.4500764362287972
 31
0.0
  0
LINE
  5
1728
  8
0
 62
     0
 10
2.9676848492862362
 20
-8.1725284923697501
 30
0.0
 11
1.912955328823168
 21
-7.1177989719066872
 31
0.0
  0
LINE
  5
1729
  8
0
 62
     0
 10
2.623189712588176
 20
-8.0866647319584857
 30
0.0
 11
1.8976699797883021
 21
-7.3611449991586113
 31
0.0
  0
ENDBLK
  5
172A
  8
0
  0
BLOCK
  8
0
  2
A$C35C75C4F
 70
     0
 10
0.0
 20
0.0
 30
0.0
  3
A$C35C75C4F
  1

  0
TEXT
  5
172C
  8
247
 10
-66.754687569219854
 20
-3.6829926460446609
 30
0.0
 40
2.0
  1
ST10-C0204-45-15
 41
0.7
  7
YOKO
 11
-66.754687569219854
 21
-3.6829926460446609
 31
0.0
 73
     1
  0
INSERT
  5
172D
  8
247
  6
CONTINUOUS
  2
*X23
 10
-62.754687569219662
 20
0.3586089927210803
 30
0.0
 50
270.0
1001
ACAD
1000
HATCH
1002
{
1070
    19
1000
ANSI31
1040
0.0576
1040
6.2831853071795827
1002
}
  0
INSERT
  5
172E
  8
247
  6
CONTINUOUS
  2
*X24
 10
-62.754687569219662
 20
0.3586089927210803
 30
0.0
 50
270.0
1001
ACAD
1000
HATCH
1002
{
1070
    19
1000
ANSI31
1040
0.0576
1040
6.2831853071795827
1002
}
  0
INSERT
  5
172F
  8
247
  6
CONTINUOUS
  2
*X25
 10
-62.754687569219662
 20
0.3586089927210803
 30
0.0
 50
270.0
1001
ACAD
1000
HATCH
1002
{
1070
    19
1000
ANSI31
1040
0.0576
1040
6.2831853071795827
1002
}
  0
LINE
  5
1730
  8
247
 10
-71.422436096245661
 20
-1.535349460677204
 30
0.0
 11
-70.816975158745663
 21
-1.535349460677204
 31
0.0
  0
POLYLINE
  5
1731
  8
247
 66
     1
 10
0.0
 20
0.0
 30
0.0
 70
     1
1001
HATCH_DISTANCE
1040
1.0
1001
HATCH_DISPLAY
1070
     0
1001
HATCH_TYPE
1070
     7
  0
VERTEX
  5
1732
  8
247
 10
-71.422436096245661
 20
-1.535349460677204
 30
0.0
  0
VERTEX
  5
1733
  8
247
 10
-71.495868713433154
 20
-1.79142758567719
 30
0.0
  0
VERTEX
  5
1734
  8
247
 10
-71.411098205620661
 20
-1.79142758567719
 30
0.0
  0
VERTEX
  5
1735
  8
247
 10
-71.938468322808163
 20
-3.630574344710376
 30
0.0
  0
VERTEX
  5
1736
  8
247
 10
-71.417769104058166
 20
-3.630574344710376
 30
0.0
  0
VERTEX
  5
1737
  8
247
 10
-70.816975158745663
 20
-1.535349460677204
 30
0.0
  0
SEQEND
  5
1738
  8
247
  0
POLYLINE
  5
1739
  8
247
 66
     1
 10
0.0
 20
0.0
 30
0.0
 70
     1
  0
VERTEX
  5
173A
  8
247
 10
-71.422436096245661
 20
-1.535349460677204
 30
0.0
  0
VERTEX
  5
173B
  8
247
 10
-71.495868713433154
 20
-1.79142758567719
 30
0.0
  0
VERTEX
  5
173C
  8
247
 10
-71.411098205620661
 20
-1.79142758567719
 30
0.0
  0
VERTEX
  5
173D
  8
247
 10
-71.938468322808163
 20
-3.630574344710376
 30
0.0
  0
VERTEX
  5
173E
  8
247
 10
-71.417769104058166
 20
-3.630574344710376
 30
0.0
  0
VERTEX
  5
173F
  8
247
 10
-70.816975158745663
 20
-1.535349460677204
 30
0.0
  0
SEQEND
  5
1740
  8
247
  0
LINE
  5
1741
  8
247
 10
-71.417769104058166
 20
-3.630574344710376
 30
0.0
 11
-70.816975158745663
 21
-1.535349460677204
 31
0.0
  0
LINE
  5
1742
  8
247
 10
-73.731700744683167
 20
-3.9797813699688991
 30
0.0
 11
-69.005795471245662
 21
-3.9797813699688991
 31
0.0
  0
LINE
  5
1743
  8
247
 10
-73.731700744683167
 20
-3.746976688460399
 30
0.0
 11
-69.005795471245662
 21
-3.746976688460399
 31
0.0
  0
ARC
  5
1744
  8
247
 10
-70.207857971245673
 20
-2.8739676247396999
 30
0.0
 40
0.756615234375
 50
163.99975070172931
 51
304.96387329163082
  0
ARC
  5
1745
  8
247
 10
-73.731700744683167
 20
-2.757565280989704
 30
0.0
 40
0.9894111328124999
 50
90.0
 51
270.0
  0
ARC
  5
1746
  8
247
 10
-73.731700744683167
 20
-2.757565280989704
 30
0.0
 40
1.2222158203124971
 50
90.0
 51
270.0
  0
LINE
  5
1747
  8
247
 10
-71.938468322808163
 20
-3.630574344710376
 30
0.0
 11
-71.417769104058166
 21
-3.630574344710376
 31
0.0
  0
LINE
  5
1748
  8
247
 10
-72.422341418138842
 20
-3.586938460541043
 30
0.0
 11
-72.105080494819333
 21
-3.2696775372214759
 31
0.0
  0
LINE
  5
1749
  8
247
 10
-73.500502807455334
 20
-3.630574344710376
 30
0.0
 11
-72.838461919122352
 21
-2.9685334563774082
 31
0.0
  0
LINE
  5
174A
  8
247
 10
-73.241871431168661
 20
-3.630574344710376
 30
0.0
 11
-72.942432719075157
 21
-3.331135632616971
 31
0.0
  0
LINE
  5
174B
  8
247
 10
-72.724608678595061
 20
-3.6305743447104049
 30
0.0
 11
-72.066449023663353
 21
-2.9724146897786818
 31
0.0
  0
LINE
  5
174C
  8
247
 10
-72.763023581930341
 20
-2.7054393448561682
 30
0.0
 11
-72.953807544719439
 21
-3.3708057759153651
 31
0.0
  0
ARC
  5
174D
  8
247
 10
-72.90317340093317
 20
-3.0252889138021799
 30
0.0
 40
0.3492072715759277
 50
261.66285421114719
 51
66.338192159113618
  0
LINE
  5
174E
  8
247
 10
-72.983240054881861
 20
-3.630574344710376
 30
0.0
 11
-72.129026725071157
 21
-2.7763610148997282
 31
0.0
  0
LINE
  5
174F
  8
247
 10
-73.609541564995553
 20
-3.630574344710376
 30
0.0
 11
-72.643447814995554
 21
-3.630574344710376
 31
0.0
  0
LINE
  5
1750
  8
247
 10
-73.549401662779772
 20
-3.420841823747943
 30
0.0
 11
-72.564380628727363
 21
-2.435820789695506
 31
0.0
  0
LINE
  5
1751
  8
247
 10
-73.445425505331755
 20
-3.0582342900132531
 30
0.0
 11
-72.630508996460279
 21
-2.2433177811416352
 31
0.0
  0
ARC
  5
1752
  8
247
 10
-72.643447814995554
 20
-3.0485711403647242
 30
0.0
 40
0.5820029296875
 50
270.0
 51
40.329840654167121
  0
LINE
  5
1753
  8
247
 10
-72.562020015445043
 20
-2.9507229289868162
 30
0.0
 11
-71.798643624329657
 21
-2.1873465378714698
 31
0.0
  0
LINE
  5
1754
  8
247
 10
-71.495868713433154
 20
-1.79142758567719
 30
0.0
 11
-71.422436096245661
 21
-1.535349460677204
 31
0.0
  0
LINE
  5
1755
  8
247
 10
-71.495868713433154
 20
-1.79142758567719
 30
0.0
 11
-71.411098205620661
 21
-1.79142758567719
 31
0.0
  0
LINE
  5
1756
  8
247
 10
-72.446617971200965
 20
-1.800795379595578
 30
0.0
 11
-72.206520066841748
 21
-1.560697475236404
 31
0.0
  0
LINE
  5
1757
  8
247
 10
-73.189870868642956
 20
-1.7681541481772529
 30
0.0
 11
-72.957066181142963
 21
-1.53534946067726
 31
0.0
  0
LINE
  5
1758
  8
247
 10
-73.250930236870673
 20
-1.535349460677204
 30
0.0
 11
-73.317683166558055
 21
-1.7681541481771961
 31
0.0
  0
LINE
  5
1759
  8
247
 10
-73.129843322807943
 20
-1.535349460677204
 30
0.0
 11
-73.196596252495951
 21
-1.7681541481771961
 31
0.0
  0
LINE
  5
175A
  8
247
 10
-73.129843322807943
 20
-1.535349460677204
 30
0.0
 11
-72.378826201130224
 21
-1.5353494606772871
 31
0.0
  0
LINE
  5
175B
  8
247
 10
-73.731700744683167
 20
-1.535349460677204
 30
0.0
 11
-73.250930236870673
 21
-1.535349460677204
 31
0.0
  0
LINE
  5
175C
  8
247
 10
-72.324250007439062
 20
-1.937058792120532
 30
0.0
 11
-72.033959767277963
 21
-1.6467685519593891
 31
0.0
  0
LINE
  5
175D
  8
247
 10
-73.196596252495951
 20
-1.7681541481771961
 30
0.0
 11
-73.075500549370943
 21
-1.7681541481779339
 31
0.0
  0
LINE
  5
175E
  8
247
 10
-73.731700744683167
 20
-1.7681541481771961
 30
0.0
 11
-73.317683166558055
 21
-1.7681541481771961
 31
0.0
  0
LINE
  5
175F
  8
247
 10
-73.133497032988046
 20
-1.9704116888090719
 30
0.0
 11
-72.698434804856262
 21
-1.53534946067726
 31
0.0
  0
LINE
  5
1760
  8
247
 10
-72.29441105628986
 20
-2.1658512172580888
 30
0.0
 11
-71.904834886639264
 21
-1.7762750476073641
 31
0.0
  0
ARC
  5
1761
  8
247
 10
-72.376427307183164
 20
-2.1173523903646938
 30
0.0
 40
0.5820078735351563
 50
287.66957754739968
 51
90.236159842671626
  0
LINE
  5
1762
  8
247
 10
-73.237473190435963
 20
-2.3330192225438191
 30
0.0
 11
-72.439803428569462
 21
-1.5353494606772871
 31
0.0
  0
LINE
  5
1763
  8
247
 10
-72.652300604105562
 20
-2.7823721413606468
 30
0.0
 11
-71.819213980669062
 21
-1.9492855179240181
 31
0.0
  0
LINE
  5
1764
  8
247
 10
-71.938468322808163
 20
-3.630574344710376
 30
0.0
 11
-71.411098205620661
 21
-1.79142758567719
 31
0.0
  0
LINE
  5
1765
  8
247
 10
-72.496005852684462
 20
-1.774239074122911
 30
0.0
 11
-72.686786676887849
 21
-2.4395857703344519
 31
0.0
  0
ARC
  5
1766
  8
247
 10
-72.636152893120553
 20
-2.0940789528647281
 30
0.0
 40
0.349197280883789
 50
261.6626016879294
 51
66.338155095189762
  0
LINE
  5
1767
  8
247
 10
-73.341449347883966
 20
-2.6956267562785081
 30
0.0
 11
-72.526536270979335
 21
-1.8807136793740331
 31
0.0
  0
LINE
  5
1768
  8
247
 10
-73.609541564995553
 20
-3.630574344710376
 30
0.0
 11
-73.075500549370943
 21
-1.7681541481779339
 31
0.0
  0
ARC
  5
1769
  8
247
 10
-69.005795471245662
 20
-2.757565280989704
 30
0.0
 40
1.2222158203124971
 50
270.0
 51
104.7707939660941
  0
ARC
  5
176A
  8
247
 10
-69.005795471245662
 20
-2.757565280989704
 30
0.0
 40
0.9894111328124999
 50
270.0
 51
104.1274364964102
  0
LINE
  5
176B
  8
247
 10
-69.997878479058173
 20
-3.1974227028646931
 30
0.0
 11
-69.848385314995554
 21
-2.6760818825521908
 31
0.0
  0
LINE
  5
176C
  8
247
 10
-70.042131408745661
 20
-2.6760818825521908
 30
0.0
 11
-69.848385314995554
 21
-2.6760818825521908
 31
0.0
  0
LINE
  5
176D
  8
247
 10
-69.774275939995661
 20
-3.494018680647919
 30
0.0
 11
-69.637711486870671
 21
-3.630574344710376
 31
0.0
  0
LINE
  5
176E
  8
247
 10
-70.042131408745661
 20
-2.6760818825521908
 30
0.0
 11
-69.975378479058165
 21
-2.4432771950521972
 31
0.0
  0
LINE
  5
176F
  8
247
 10
-69.975378479058165
 20
-2.4432771950521972
 30
0.0
 11
-69.297258361870661
 21
-2.4432771950521972
 31
0.0
  0
LINE
  5
1770
  8
247
 10
-69.637711486870671
 20
-3.630574344710376
 30
0.0
 11
-69.297258361870661
 21
-2.4432771950521972
 31
0.0
  0
POLYLINE
  5
1771
  8
247
 66
     1
 10
0.0
 20
0.0
 30
0.0
 70
     1
1001
HATCH_DISTANCE
1040
1.0
1001
HATCH_DISPLAY
1070
     0
1001
HATCH_TYPE
1070
     7
  0
VERTEX
  5
1772
  8
247
 10
-69.247292541558167
 20
-1.7980721169271969
 30
0.0
  0
VERTEX
  5
1773
  8
247
 10
-69.317402893120672
 20
-1.575735202864714
 30
0.0
  0
VERTEX
  5
1774
  8
247
 10
-69.317402893120672
 20
-1.575735202864714
 30
0.0
  0
VERTEX
  5
1775
  8
247
 10
-69.247292541558167
 20
-1.7980721169271969
 30
0.0
  0
SEQEND
  5
1776
  8
247
  0
POLYLINE
  5
1777
  8
247
 66
     1
 10
0.0
 20
0.0
 30
0.0
 70
     1
  0
VERTEX
  5
1778
  8
247
 10
-69.247292541558167
 20
-1.7980721169271969
 30
0.0
  0
VERTEX
  5
1779
  8
247
 10
-69.317402893120672
 20
-1.575735202864714
 30
0.0
  0
VERTEX
  5
177A
  8
247
 10
-69.317402893120672
 20
-1.575735202864714
 30
0.0
  0
VERTEX
  5
177B
  8
247
 10
-69.247292541558167
 20
-1.7980721169271969
 30
0.0
  0
SEQEND
  5
177C
  8
247
  0
LINE
  5
177D
  8
247
 10
-69.247292541558167
 20
-1.7980721169271969
 30
0.0
 11
-69.317402893120672
 21
-1.575735202864714
 31
0.0
  0
POLYLINE
  5
177E
  8
247
 66
     1
 10
0.0
 20
0.0
 30
0.0
 70
     1
1001
HATCH_DISTANCE
1040
1.0
1001
HATCH_DISPLAY
1070
     0
1001
HATCH_TYPE
1070
     7
  0
VERTEX
  5
177F
  8
247
 10
-69.247292541558167
 20
-1.7980721169271969
 30
0.0
  0
VERTEX
  5
1780
  8
247
 10
-69.317402893120672
 20
-1.575735202864714
 30
0.0
  0
VERTEX
  5
1781
  8
247
 10
-69.317402893120672
 20
-1.575735202864714
 30
0.0
  0
VERTEX
  5
1782
  8
247
 10
-69.247292541558167
 20
-1.7980721169271969
 30
0.0
  0
SEQEND
  5
1783
  8
247
  0
POLYLINE
  5
1784
  8
247
 66
     1
 10
0.0
 20
0.0
 30
0.0
 70
     1
  0
VERTEX
  5
1785
  8
247
 10
-69.247292541558167
 20
-1.7980721169271969
 30
0.0
  0
VERTEX
  5
1786
  8
247
 10
-69.317402893120672
 20
-1.575735202864714
 30
0.0
  0
VERTEX
  5
1787
  8
247
 10
-69.317402893120672
 20
-1.575735202864714
 30
0.0
  0
VERTEX
  5
1788
  8
247
 10
-69.247292541558167
 20
-1.7980721169271969
 30
0.0
  0
SEQEND
  5
1789
  8
247
  0
LINE
  5
178A
  8
247
 10
-69.358307189995671
 20
-1.833078952864704
 30
0.0
 11
-69.428417541558161
 21
-1.6107420388021649
 31
0.0
  0
ARC
  5
178B
  8
247
 10
-69.005795471245662
 20
-2.757565280989704
 30
0.0
 40
1.222216369628905
 50
110.22964506332001
 51
118.57168892371681
  0
ARC
  5
178C
  8
247
 10
-69.919102111870671
 20
-2.0358777809897011
 30
0.0
 40
0.2444448051452637
 50
1.7101213820626899
 51
163.99839835444729
  0
ARC
  5
178D
  8
247
 10
-69.005795471245662
 20
-2.757565280989704
 30
0.0
 40
0.9894138793945311
 50
110.8721834020737
 51
132.5419489373879
  0
ARC
  5
178E
  8
247
 10
-68.970832580620552
 20
-2.9137469216146958
 30
0.0
 40
1.9799648437499999
 50
155.20517736984129
 51
172.79482596205219
  0
ARC
  5
178F
  8
247
 10
-70.232854064995692
 20
-3.1300457497397152
 30
0.0
 40
0.2444446334838867
 50
164.00027305718169
 51
344.00027305718208
  0
LINE
  5
1790
  8
247
 10
-70.467829650933169
 20
-3.0626687966147101
 30
0.0
 11
-70.154077697808162
 21
-1.9684920388022049
 31
0.0
  0
ARC
  5
1791
  8
247
 10
-70.040971252495552
 20
-2.2919559059896879
 30
0.0
 40
0.7566075439453125
 50
53.444012197057539
 51
164.0001843876851
  0
LINE
  5
1792
  8
240
 10
-1.8621124310121351
 20
-1.3349830658571009
 30
0.0
 11
-1.6661798085746959
 21
-1.2727487277849341
 31
0.0
  0
LINE
  5
1793
  8
241
 10
-4.1519685737598868
 20
2.598157272393435
 30
0.0
 11
-4.6214536565896651
 21
0.4833540790012935
 31
0.0
  0
ARC
  5
1794
  8
241
 10
-4.4262070369061339
 20
0.440009442630039
 30
0.0
 40
0.2
 50
167.48335774380399
 51
195.53619363180181
1001
GENIUS_GENODEF_13
1002
{
1000
HIER
1070
     0
1002
}
1002
{
1000
MANEDIT
1070
     0
1002
}
1002
{
1000
NOSEL
1070
     0
1002
}
1002
{
1000
BEHIND
1070
     0
1002
}
1002
{
1000
OTHER
1070
     0
1002
}
1002
{
1000
REACTOR
1002
}
1001
GENIUS_GENOBJ-N-FIL_13
1002
{
1000
OWNER
1000
GEN
1002
}
  0
ARC
  5
1795
  8
241
 10
-3.8183471790212731
 20
-1.746497918864842
 30
0.0
 40
0.2
 50
195.53619363180169
 51
287.62147825872319
1001
GENIUS_GENODEF_13
1002
{
1000
HIER
1070
     0
1002
}
1002
{
1000
MANEDIT
1070
     0
1002
}
1002
{
1000
NOSEL
1070
     0
1002
}
1002
{
1000
BEHIND
1070
     0
1002
}
1002
{
1000
OTHER
1070
     0
1002
}
1002
{
1000
REACTOR
1002
}
1001
GENIUS_GENOBJ-N-FIL_13
1002
{
1000
OWNER
1000
GEN
1002
}
  0
ARC
  5
1796
  8
240
 10
-1.7267252462919911
 20
-1.0821332772788921
 30
0.0
 40
0.2
 50
287.62147825872302
 51
317.04811227107371
1001
GENIUS_GENOBJ-N-FIL_13
1002
{
1000
OWNER
1000
GEN
1002
}
1001
GENIUS_GENODEF_13
1002
{
1000
HIER
1070
     0
1002
}
1002
{
1000
MANEDIT
1070
     0
1002
}
1002
{
1000
NOSEL
1070
     0
1002
}
1002
{
1000
BEHIND
1070
     0
1002
}
1002
{
1000
OTHER
1070
     0
1002
}
1002
{
1000
REACTOR
1002
}
  0
ARC
  5
1797
  8
240
 10
-0.1983840144852706
 20
0.559573749074141
 30
0.0
 40
0.2
 50
317.04811227107382
 51
46.064799439564773
1001
GENIUS_GENODEF_13
1002
{
1000
HIER
1070
     0
1002
}
1002
{
1000
MANEDIT
1070
     0
1002
}
1002
{
1000
NOSEL
1070
     0
1002
}
1002
{
1000
BEHIND
1070
     0
1002
}
1002
{
1000
OTHER
1070
     0
1002
}
1002
{
1000
REACTOR
1002
}
1001
GENIUS_GENOBJ-N-FIL_13
1002
{
1000
OWNER
1000
GEN
1002
}
  0
ARC
  5
1798
  8
240
 10
-1.810120125313105
 20
2.112490371321381
 30
0.0
 40
0.2
 50
46.064799439564972
 51
75.584741593713019
1001
GENIUS_GENOBJ-N-FIL_13
1002
{
1000
OWNER
1000
GEN
1002
}
1001
GENIUS_GENODEF_13
1002
{
1000
HIER
1070
     0
1002
}
1002
{
1000
MANEDIT
1070
     0
1002
}
1002
{
1000
NOSEL
1070
     0
1002
}
1002
{
1000
BEHIND
1070
     0
1002
}
1002
{
1000
OTHER
1070
     0
1002
}
1002
{
1000
REACTOR
1002
}
  0
ARC
  5
1799
  8
240
 10
-3.9337377060224692
 20
2.6583455552985189
 30
0.0
 40
0.2
 50
75.584741593713019
 51
167.48335774380399
1001
GENIUS_GENODEF_13
1002
{
1000
HIER
1070
     0
1002
}
1002
{
1000
MANEDIT
1070
     0
1002
}
1002
{
1000
NOSEL
1070
     0
1002
}
1002
{
1000
BEHIND
1070
     0
1002
}
1002
{
1000
OTHER
1070
     0
1002
}
1002
{
1000
REACTOR
1002
}
1001
GENIUS_GENOBJ-N-FIL_13
1002
{
1000
OWNER
1000
GEN
1002
}
  0
CIRCLE
  5
179A
  8
246
 10
-2.6342646723293219
 20
0.4933860886562036
 30
0.0
 40
1.9377854901930089
  0
ARC
  5
179B
  8
241
 10
-3.4257312401366269
 20
-2.3156665143498829
 30
0.0
 40
0.5
 50
267.75682762301739
 51
302.96491294064521
1001
GENIUS_GENOBJ-N-FIL_13
1002
{
1000
OWNER
1000
GEN
1002
}
1001
GENIUS_GENODEF_13
1002
{
1000
HIER
1070
     0
1002
}
1002
{
1000
MANEDIT
1070
     0
1002
}
1002
{
1000
NOSEL
1070
     0
1002
}
1002
{
1000
BEHIND
1070
     0
1002
}
1002
{
1000
OTHER
1070
     0
1002
}
1002
{
1000
REACTOR
1002
}
  0
ARC
  5
179C
  8
241
 10
-4.6153220010377387
 20
0.0301729011153814
 30
0.0
 40
2.6659324662117871
 50
87.729498687918863
 51
245.9152184970724
  0
ARC
  5
179D
  8
241
 10
-3.1260499987004939
 20
5.3349700384563601
 30
0.0
 40
8.1565036739757488
 50
251.58064383796921
 51
267.75682762301682
  0
LINE
  5
179E
  8
241
 10
-1.9741155587410191
 20
-1.970184367886211
 30
0.0
 11
-3.153668568191534
 21
-2.7351684839925681
 31
0.0
  0
LINE
  5
179F
  8
245
 10
-80.085156487051535
 20
0.0000000000000281
 30
0.0
 11
0.8189807511433286
 21
-0.0000000000000003
 31
0.0
  0
LINE
  5
17A0
  8
240
 10
-20.064101615137641
 20
4.9999999999999707
 30
0.0
 11
-76.999999999999972
 21
4.9999999999999707
 31
0.0
  0
LINE
  5
17A1
  8
240
 10
-76.999999999999972
 20
-4.9999999999999707
 30
0.0
 11
-20.064101615137641
 21
-4.9999999999999707
 31
0.0
  0
LINE
  5
17A2
  8
240
 10
-77.999999999999972
 20
-3.9999999999999711
 30
0.0
 11
-77.999999999999972
 21
3.9999999999999991
 31
0.0
  0
ARC
  5
17A3
  8
240
 10
-77.0
 20
-3.9999999999999711
 30
0.0
 40
1.0
 50
180.0
 51
270.0
  0
ARC
  5
17A4
  8
240
 10
-77.0
 20
3.9999999999999711
 30
0.0
 40
1.0
 50
90.0
 51
180.0
  0
LINE
  5
17A5
  8
241
 10
-3.7578017413039779
 20
-1.9371133693708831
 30
0.0
 11
-1.8621124310121351
 21
-1.3349830658571009
 31
0.0
  0
ARC
  5
17A6
  8
240
 10
-3.457649394439442
 20
-2.5
 30
0.0
 40
0.5
 50
270.0
 51
304.99999999999869
  0
LINE
  5
17A7
  8
240
 10
-1.7603305610788871
 20
2.3061937509856669
 30
0.0
 11
-3.883948141788252
 21
2.8520489349628062
 31
0.0
  0
LINE
  5
17A8
  8
241
 10
-16.599999999999959
 20
3.182834779988553
 30
0.0
 11
-16.599999999999959
 21
-3.182834779988553
 31
0.0
  0
ARC
  5
17A9
  8
240
 10
-15.26025403784439
 20
-8.0
 30
0.0
 40
5.0
 50
90.0
 51
119.9999999999997
  0
LINE
  5
17AA
  8
241
 10
-20.064101615137641
 20
-4.9999999999999707
 30
0.0
 11
-20.064101615137641
 21
4.9999999999999707
 31
0.0
  0
LINE
  5
17AB
  8
240
 10
-20.064101615137641
 20
-4.9999999999999707
 30
0.0
 11
-17.76025403784439
 21
-3.6698729810778161
 31
0.0
  0
LINE
  5
17AC
  8
240
 10
-15.26025403784439
 20
-3.0
 30
0.0
 11
-3.457649394439442
 21
-3.0
 31
0.0
  0
LINE
  5
17AD
  8
240
 10
-17.76025403784439
 20
3.6698729810778148
 30
0.0
 11
-20.064101615137641
 21
4.9999999999999707
 31
0.0
  0
LINE
  5
17AE
  8
240
 10
-5.6516660498395481
 20
2.9999999999999991
 30
0.0
 11
-15.26025403784439
 21
2.9999999999999991
 31
0.0
  0
ARC
  5
17AF
  8
240
 10
-15.26025403784439
 20
8.0
 30
0.0
 40
5.0
 50
240.0000000000002
 51
270.0
  0
LINE
  5
17B0
  8
240
 10
-5.6516660498395481
 20
2.9999999999999991
 30
0.0
 11
-4.1519685737598726
 21
2.5981572723934332
 31
0.0
  0
LINE
  5
17B1
  8
241
 10
-4.6188993263053097
 20
0.3864400333920976
 30
0.0
 11
-4.0110394684204493
 21
-1.800067328102783
 31
0.0
  0
LINE
  5
17B2
  8
241
 10
-4.5097048140567599
 20
2.694012409084336
 30
0.0
 11
-4.4529142706150528
 21
2.6787954288314202
 31
0.0
  0
LINE
  5
17B3
  8
240
 10
-4.128984325705999
 20
2.701690191669774
 30
0.0
 11
-4.1519685737598868
 21
2.598157272393435
 31
0.0
  0
LINE
  5
17B4
  8
240
 10
-1.580340020354071
 20
-1.21841007511002
 30
0.0
 11
-0.0519987885473512
 21
0.4232969512430135
 31
0.0
  0
LINE
  5
17B5
  8
240
 10
-0.059615138633319
 20
0.7035987437618222
 30
0.0
 11
-1.6713512494611531
 21
2.256515366009062
 31
0.0
  0
LINE
  5
17B6
  8
240
 10
-1.8621124310121211
 20
-1.334983065857074
 30
0.0
 11
-1.994517859291761
 21
-2.0858915640779951
 31
0.0
  0
LINE
  5
17B7
  8
240
 10
-3.1708611762639398
 20
-2.9095760221445062
 30
0.0
 11
-1.994517859291761
 21
-2.0858915640779951
 31
0.0
  0
ENDBLK
  5
17BA
  8
0
  0
BLOCK
  8
0
  2
*U27
 70
     1
 10
0.0
 20
0.0
 30
0.0
  3
*U27
  1

  0
TEXT
  5
17D4
  8
250
 62
    40
 10
230.0
 20
231.77536757771639
 30
0.0
 40
3.0
  1
\U+2205
 50
90.0
  0
TEXT
  5
17D5
  8
250
 62
    40
 10
230.0
 20
234.48965329200209
 30
0.0
 40
3.0
  1
10
 50
90.0
  0
ENDBLK
  5
17D7
  8
0
  0
BLOCK
  8
0
  2
*U28
 70
     1
 10
0.0
 20
0.0
 30
0.0
  3
*U28
  1

  0
TEXT
  5
17D9
  8
250
 62
    40
 10
306.80722715336628
 20
215.99999999999989
 30
0.0
 40
3.0
  1
16.6
  0
ENDBLK
  5
17DB
  8
0
  0
BLOCK
  8
0
  2
*U29
 70
     1
 10
0.0
 20
0.0
 30
0.0
  3
*U29
  1

  0
TEXT
  5
17DD
  8
250
 62
    40
 10
267.87865572479478
 20
215.99999999999989
 30
0.0
 40
3.0
  1
61.4
  0
ENDBLK
  5
17DF
  8
0
  0
BLOCK
  8
0
  2
*U30
 70
     1
 10
0.0
 20
0.0
 30
0.0
  3
*U30
  1

  0
TEXT
  5
17E1
  8
250
 62
    40
 10
278.46437001050913
 20
208.99999999999989
 30
0.0
 40
3.0
  1
78
  0
ENDBLK
  5
17E3
  8
0
  0
BLOCK
  8
0
  2
*U31
 70
     1
 10
0.0
 20
0.0
 30
0.0
  3
*U31
  1

  0
TEXT
  5
17E5
  8
250
 62
    40
 10
308.4256478507541
 20
244.02108186343071
 30
0.0
 40
3.0
  1
\U+2205
 50
90.0
  0
TEXT
  5
17E6
  8
250
 62
    40
 10
308.4256478507541
 20
246.7353675777164
 30
0.0
 40
3.0
  1
6
 50
90.0
  0
ENDBLK
  5
17E8
  8
0
  0
BLOCK
  8
0
  2
*U32
 70
     1
 10
0.0
 20
0.0
 30
0.0
  3
*U32
  1

  0
TEXT
  5
17EA
  8
250
 62
    40
 10
312.7142655675118
 20
244.58913980170809
 30
0.0
 40
3.0
  1
45üï
 50
17.20862685383711
  0
ENDBLK
  5
17EC
  8
0
  0
BLOCK
  8
0
  2
*U33
 70
     1
 10
0.0
 20
0.0
 30
0.0
  3
*U33
  1

  0
TEXT
  5
17EE
  8
250
 62
    40
 10
335.00000113557968
 20
231.0610818634307
 30
0.0
 40
3.0
  1
\U+2205
 50
90.0
  0
TEXT
  5
17EF
  8
250
 62
    40
 10
335.00000113557968
 20
233.77536757771639
 30
0.0
 40
3.0
  1
6.3
 50
90.0
  0
ENDBLK
  5
17F1
  8
0
  0
BLOCK
  8
0
  2
*U34
 70
     1
 10
0.0
 20
0.0
 30
0.0
  3
*U34
  1

  0
TEXT
  5
182D
  8
240
 62
    40
 10
-14.441060813805491
 20
15.4925763608077
 30
0.0
 40
3.0
  1
\U+25CFST10-C0204-45-15
  7
YOKO
  0
ENDBLK
  5
182F
  8
0
  0
BLOCK
  8
0
  2
*U35
 70
     1
 10
0.0
 20
0.0
 30
0.0
  3
*U35
  1

  0
TEXT
  5
1831
  8
250
 62
    40
 10
92.678488267927705
 20
-4.5619047619047652
 30
0.0
 40
3.0
  1
\U+2205
 50
90.0
  0
TEXT
  5
1832
  8
250
 62
    40
 10
92.578488267927696
 20
-1.847619047619051
 30
0.0
 40
2.7999999999999989
  1
6.3
 50
90.0
  0
ENDBLK
  5
1834
  8
0
  0
BLOCK
  8
0
  2
*U36
 70
     1
 10
0.0
 20
0.0
 30
0.0
  3
*U36
  1

  0
TEXT
  5
1836
  8
250
 62
    40
 10
70.702976257145536
 20
8.8384250726692226
 30
0.0
 40
2.7999999999999989
  1
45üï
 50
17.208626853837181
  0
ENDBLK
  5
1838
  8
0
  0
BLOCK
  8
0
  2
*U37
 70
     1
 10
0.0
 20
0.0
 30
0.0
  3
*U37
  1

  0
TEXT
  5
183A
  8
250
 62
    40
 10
66.104134983102114
 20
8.1742857142856966
 30
0.0
 40
3.0
  1
\U+2205
 50
90.0
  0
TEXT
  5
183B
  8
250
 62
    40
 10
66.004134983102119
 20
10.88857142857141
 30
0.0
 40
2.7999999999999989
  1
6
 50
90.0
  0
ENDBLK
  5
183D
  8
0
  0
BLOCK
  8
0
  2
*U38
 70
     1
 10
0.0
 20
0.0
 30
0.0
  3
*U38
  1

  0
TEXT
  5
183F
  8
250
 62
    40
 10
25.900000000000009
 20
-19.84679614914506
 30
0.0
 40
2.7999999999999989
  1
61.4
  0
ENDBLK
  5
1841
  8
0
  0
BLOCK
  8
0
  2
*U39
 70
     1
 10
0.0
 20
0.0
 30
0.0
  3
*U39
  1

  0
TEXT
  5
1843
  8
250
 62
    40
 10
64.833333333333357
 20
-19.84679614914506
 30
0.0
 40
2.7999999999999989
  1
16.6
  0
ENDBLK
  5
1845
  8
0
  0
BLOCK
  8
0
  2
*U40
 70
     1
 10
0.0
 20
0.0
 30
0.0
  3
*U40
  1

  0
TEXT
  5
1847
  8
250
 62
    40
 10
-12.32151286765199
 20
-3.8952380952381209
 30
0.0
 40
3.0
  1
\U+2205
 50
90.0
  0
TEXT
  5
1848
  8
250
 62
    40
 10
-12.421512867651989
 20
-1.180952380952407
 30
0.0
 40
2.7999999999999989
  1
10
 50
90.0
  0
ENDBLK
  5
184A
  8
0
  0
BLOCK
  8
0
  2
*U41
 70
     1
 10
0.0
 20
0.0
 30
0.0
  3
*U41
  1

  0
TEXT
  5
184C
  8
240
 62
    40
 10
36.333333333333321
 20
-26.84679614914506
 30
0.0
 40
2.7999999999999989
  1
78
  0
ENDBLK
  5
184E
  8
0
  0
BLOCK
  8
0
  2
*U42
 70
     1
 10
0.0
 20
0.0
 30
0.0
  3
*U42
  1

  0
TEXT
  5
1850
  8
250
 10
10.268761228285481
 20
-4.5619047619047359
 30
0.0
 40
3.0
  1
\U+2205
 50
90.0
  0
TEXT
  5
1851
  8
250
 10
10.168761228285479
 20
-1.847619047619022
 30
0.0
 40
2.7999999999999989
  1
6.3
 50
90.0
  0
ENDBLK
  5
1853
  8
0
  0
ENDSEC
  0
SECTION
  2
ENTITIES
  0
LINE
  5
13F6
  8
250
 10
-0.0000000000000568
 20
-27.846796149145039
 30
0.0
 11
0.0
 21
0.1756888464353207
 31
0.0
  0
TEXT
  5
1503
  8
241
 10
-78.440924169606163
 20
21.107075374400441
 30
0.0
 40
3.0
  1
ST10-C0204-45-15
  7
YOKO
1001
ITEMNAME
1000
DI010
  0
LINE
  5
154A
  8
250
 10
-16.599999999999959
 20
-3.682834779988553
 30
0.0
 11
-16.599999999999959
 21
-21.846796149145039
 31
0.0
  0
LINE
  5
154B
  8
250
 10
0.0
 20
0.1756888464353207
 30
0.0
 11
0.0000000000000568
 21
-21.846796149145039
 31
0.0
  0
LINE
  5
154C
  8
250
 10
-14.369999999999971
 20
-20.846796149145039
 30
0.0
 11
-2.2299999999999471
 21
-20.846796149145039
 31
0.0
  0
LINE
  5
1550
  8
250
 10
-77.999999999999972
 20
-4.4999999999999707
 30
0.0
 11
-77.999999999999972
 21
-28.846796149145032
 31
0.0
  0
LINE
  5
1551
  8
250
 10
0.0
 20
0.1756888464353207
 30
0.0
 11
0.0
 21
-28.846796149145032
 31
0.0
  0
LINE
  5
1552
  8
250
 10
-75.769999999999968
 20
-27.846796149145039
 30
0.0
 11
-2.2300000000000031
 21
-27.846796149145039
 31
0.0
  0
LINE
  5
1556
  8
250
 10
0.0
 20
1.146159229253644
 30
0.0
 11
0.0000000000000142
 21
10.630526879495569
 31
0.0
  0
LINE
  5
1557
  8
250
 10
-2.0329255534156938
 20
2.6048941998741548
 30
0.0
 11
-7.1899924889297893
 21
7.573756603836757
 31
0.0
  0
ARC
  5
1558
  8
250
 10
0.0
 20
0.6461592292536479
 30
0.0
 40
8.9843676502419267
 50
104.2580836263907
 51
121.80671581317419
  0
TEXT
  5
155C
  8
250
 10
-41.66666666666665
 20
-26.846796149145039
 30
0.0
 40
2.7999999999999989
  1
78
  0
LINE
  5
155D
  8
250
 10
-2.2300000000000031
 20
-27.475129482478369
 30
0.0
 11
0.0
 21
-27.846796149145039
 31
0.0
  0
LINE
  5
155E
  8
250
 10
-2.2300000000000031
 20
-28.218462815811701
 30
0.0
 11
0.0
 21
-27.846796149145039
 31
0.0
  0
LINE
  5
155F
  8
250
 10
0.0
 20
-27.846796149145039
 30
0.0
 11
-2.2300000000000031
 21
-27.846796149145039
 31
0.0
  0
LINE
  5
1560
  8
250
 10
-75.769999999999968
 20
-28.218462815811701
 30
0.0
 11
-77.999999999999972
 21
-27.846796149145039
 31
0.0
  0
LINE
  5
1561
  8
250
 10
-75.769999999999968
 20
-27.475129482478369
 30
0.0
 11
-77.999999999999972
 21
-27.846796149145039
 31
0.0
  0
LINE
  5
1562
  8
250
 10
-77.999999999999972
 20
-27.846796149145039
 30
0.0
 11
-75.769999999999968
 21
-27.846796149145039
 31
0.0
  0
TEXT
  5
1563
  8
250
 10
-13.166666666666609
 20
-19.846796149145032
 30
0.0
 40
2.7999999999999989
  1
16.6
  0
LINE
  5
1564
  8
250
 10
-2.2299999999999471
 20
-20.475129482478369
 30
0.0
 11
0.0000000000000568
 21
-20.846796149145039
 31
0.0
  0
LINE
  5
1565
  8
250
 10
-2.2299999999999471
 20
-21.218462815811701
 30
0.0
 11
0.0000000000000568
 21
-20.846796149145039
 31
0.0
  0
LINE
  5
1566
  8
250
 10
0.0000000000000568
 20
-20.846796149145039
 30
0.0
 11
-2.2299999999999471
 21
-20.846796149145039
 31
0.0
  0
LINE
  5
1567
  8
250
 10
-14.369999999999971
 20
-21.218462815811701
 30
0.0
 11
-16.599999999999959
 21
-20.846796149145039
 31
0.0
  0
LINE
  5
1568
  8
250
 10
-14.369999999999971
 20
-20.475129482478369
 30
0.0
 11
-16.599999999999959
 21
-20.846796149145039
 31
0.0
  0
LINE
  5
1569
  8
250
 10
-16.599999999999959
 20
-20.846796149145039
 30
0.0
 11
-14.369999999999971
 21
-20.846796149145039
 31
0.0
  0
LINE
  5
156A
  8
250
 10
-77.499999999999972
 20
-4.9999999999999707
 30
0.0
 11
-90.321512867651975
 21
-4.999999999999968
 31
0.0
  0
LINE
  5
156B
  8
250
 10
-77.499999999999972
 20
4.9999999999999707
 30
0.0
 11
-90.321512867651975
 21
4.9999999999999751
 31
0.0
  0
LINE
  5
156C
  8
250
 10
-89.321512867651947
 20
-2.769999999999968
 30
0.0
 11
-89.321512867651947
 21
2.7699999999999738
 31
0.0
  0
TEXT
  5
1570
  8
250
 10
-90.321512867651975
 20
-3.8952380952380929
 30
0.0
 40
3.0
  1
\U+2205
 50
90.0
  0
TEXT
  5
1571
  8
250
 10
-90.421512867651956
 20
-1.180952380952379
 30
0.0
 40
2.7999999999999989
  1
10
 50
90.0
  0
LINE
  5
1572
  8
250
 10
-89.693179534318631
 20
2.7699999999999738
 30
0.0
 11
-89.321512867651947
 21
4.9999999999999751
 31
0.0
  0
LINE
  5
1573
  8
250
 10
-88.949846200985291
 20
2.7699999999999738
 30
0.0
 11
-89.321512867651947
 21
4.9999999999999751
 31
0.0
  0
LINE
  5
1574
  8
250
 10
-89.321512867651947
 20
4.9999999999999751
 30
0.0
 11
-89.321512867651947
 21
2.7699999999999738
 31
0.0
  0
LINE
  5
1575
  8
250
 10
-88.949846200985291
 20
-2.769999999999968
 30
0.0
 11
-89.321512867651947
 21
-4.999999999999968
 31
0.0
  0
LINE
  5
1576
  8
250
 10
-89.693179534318631
 20
-2.769999999999968
 30
0.0
 11
-89.321512867651947
 21
-4.999999999999968
 31
0.0
  0
LINE
  5
1577
  8
250
 10
-89.321512867651947
 20
-4.999999999999968
 30
0.0
 11
-89.321512867651947
 21
-2.769999999999968
 31
0.0
  0
LINE
  5
1578
  8
250
 10
-3.4664809956597651
 20
3.1500000000000048
 30
0.0
 11
12.268761228285481
 21
3.149999999999999
 31
0.0
  0
LINE
  5
1579
  8
250
 10
11.268761228285481
 20
7.6100000000000003
 30
0.0
 11
11.268761228285481
 21
5.379999999999999
 31
0.0
  0
LINE
  5
157A
  8
250
 10
11.268761228285481
 20
3.149999999999999
 30
0.0
 11
11.268761228285481
 21
-5.2761904761904663
 31
0.0
  0
INSERT
  5
157C
  8
240
  2
*U42
 10
0.0
 20
0.0
 30
0.0
  0
LINE
  5
157D
  8
250
 10
11.64042789495215
 20
5.379999999999999
 30
0.0
 11
11.268761228285481
 21
3.149999999999999
 31
0.0
  0
LINE
  5
157E
  8
250
 10
10.897094561618809
 20
5.379999999999999
 30
0.0
 11
11.268761228285481
 21
3.149999999999999
 31
0.0
  0
LINE
  5
157F
  8
250
 10
11.268761228285481
 20
3.149999999999999
 30
0.0
 11
11.268761228285481
 21
5.379999999999999
 31
0.0
  0
TEXT
  5
1580
  8
250
 10
-7.2970237428544351
 20
8.838425072669251
 30
0.0
 40
2.7999999999999989
  1
45üï
 50
17.208626853837181
  0
LINE
  5
1581
  8
250
 10
-4.5016861723601522
 20
7.992251341780662
 30
0.0
 11
-6.4698675154913579
 21
6.8799122245770219
 31
0.0
  0
LINE
  5
1582
  8
250
 10
-4.9688329856765421
 20
8.5704539872716659
 30
0.0
 11
-6.4698675154913579
 21
6.8799122245770219
 31
0.0
  0
LINE
  5
1583
  8
250
 10
-6.4698675154913579
 20
6.8799122245770219
 30
0.0
 11
-4.7352595790183472
 21
8.2813526645261621
 31
0.0
  0
LINE
  5
1584
  8
250
 10
-2.2588857135437759
 20
9.7225673285320724
 30
0.0
 11
0.0000000000000142
 21
9.6305268794955765
 31
0.0
  0
LINE
  5
1585
  8
250
 10
-2.1666347395262302
 20
8.9849805863537302
 30
0.0
 11
0.0000000000000142
 21
9.6305268794955765
 31
0.0
  0
LINE
  5
1586
  8
250
 10
0.0000000000000142
 20
9.6305268794955765
 30
0.0
 11
-2.2127602265350101
 21
9.3537739574429022
 31
0.0
  0
INSERT
  5
17BB
  8
240
  2
A$C35C75C4F
 10
0.0
 20
0.0
 30
0.0
  0
VIEWPORT
  5
22
 67
     1
  8
0
 10
261.51769911504419
 20
148.5
 30
0.0
 40
523.0353982300885
 41
297.0
 68
     1
 69
     1
1001
ACAD
1000
MVIEW
1002
{
1070
    16
1010
0.0
1020
0.0
1030
0.0
1010
0.0
1020
0.0
1030
1.0
1040
0.0
1040
297.0
1040
261.51769911504419
1040
148.5
1040
50.0
1040
0.0
1040
0.0
1070
     0
1070
   100
1070
     1
1070
     1
1070
     0
1070
     0
1070
     0
1070
     0
1040
0.0
1040
0.0
1040
0.0
1040
1.0
1040
1.0
1040
10.0
1040
10.0
1070
     0
1002
{
1002
}
1002
}
1001
GENIUS_GENODEF_13
1002
{
1000
HIER
1070
     0
1002
}
1002
{
1000
MANEDIT
1070
     0
1002
}
1002
{
1000
NOSEL
1070
     0
1002
}
1002
{
1000
BEHIND
1070
     0
1002
}
1002
{
1000
OTHER
1070
     0
1002
}
1002
{
1000
REACTOR
1002
}
1001
GENIUS_GENOBJ-N-SDF_13
1002
{
1000
OWNER
1000
GEN
1002
}
1001
GENIUS_GENSCREG_15
1000
PF
1040
1.0
1000
DF
1040
1.0
1000
MIN
1011
0.0
1021
0.0
1031
0.0
1021
0.0
1031
0.0
1000
MAX
1011
523.0353982300885
1021
0.0
1031
0.0
1021
297.0
1031
0.0
1000
FLAGS
1070
     2
  0
ENDSEC
  0
EOF
