  0
SECTION
  2
HEADER
  9
$ACADVER
  1
AC1009
  9
$INSBASE
 10
0.0
 20
0.0
 30
0.0
  9
$EXTMIN
 10
-2.9301260704027872
 20
-11.74770290151787
 30
0.0
  9
$EXTMAX
 10
92.0
 20
38.0
 30
0.0
  9
$LIMMIN
 10
0.0
 20
0.0
  9
$LIMMAX
 10
297.0
 20
210.0
  9
$ORTHOMODE
 70
     1
  9
$REGENMODE
 70
     1
  9
$FILLMODE
 70
     1
  9
$QTEXTMODE
 70
     0
  9
$MIRRTEXT
 70
     1
  9
$DRAGMODE
 70
     2
  9
$LTSCALE
 40
10.0
  9
$OSMODE
 70
    37
  9
$ATTMODE
 70
     1
  9
$TEXTSIZE
 40
3.0
  9
$TRACEWID
 40
1.0
  9
$TEXTSTYLE
  7
YOKO
  9
$CLAYER
  8
240
  9
$CELTYPE
  6
BYLAYER
  9
$CECOLOR
 62
   256
  9
$DIMSCALE
 40
1.0
  9
$DIMASZ
 40
2.2299999999999991
  9
$DIMEXO
 40
0.5
  9
$DIMDLI
 40
7.0
  9
$DIMRND
 40
0.0
  9
$DIMDLE
 40
0.0
  9
$DIMEXE
 40
1.0
  9
$DIMTP
 40
0.0
  9
$DIMTM
 40
0.01
  9
$DIMTXT
 40
2.7999999999999989
  9
$DIMCEN
 40
0.0
  9
$DIMTSZ
 40
0.0
  9
$DIMTOL
 70
     0
  9
$DIMLIM
 70
     0
  9
$DIMTIH
 70
     0
  9
$DIMTOH
 70
     0
  9
$DIMSE1
 70
     0
  9
$DIMSE2
 70
     0
  9
$DIMTAD
 70
     3
  9
$DIMZIN
 70
     9
  9
$DIMBLK
  1
OPEN
  9
$DIMASO
 70
     1
  9
$DIMSHO
 70
     1
  9
$DIMPOST
  1

  9
$DIMAPOST
  1

  9
$DIMALT
 70
     0
  9
$DIMALTD
 70
     2
  9
$DIMALTF
 40
25.399999999999999
  9
$DIMLFAC
 40
1.0
  9
$DIMTOFL
 70
     1
  9
$DIMTVP
 40
0.0
  9
$DIMTIX
 70
     1
  9
$DIMSOXD
 70
     0
  9
$DIMSAH
 70
     0
  9
$DIMBLK1
  1

  9
$DIMBLK2
  1

  9
$DIMSTYLE
  2
BIGT
  9
$DIMCLRD
 70
   256
  9
$DIMCLRE
 70
   256
  9
$DIMCLRT
 70
    40
  9
$DIMTFAC
 40
1.0
  9
$DIMGAP
 40
1.0
  9
$LUNITS
 70
     2
  9
$LUPREC
 70
     6
  9
$SKETCHINC
 40
1.0
  9
$FILLETRAD
 40
0.0
  9
$AUNITS
 70
     0
  9
$AUPREC
 70
     6
  9
$MENU
  1
.
  9
$ELEVATION
 40
0.0
  9
$PELEVATION
 40
0.0
  9
$THICKNESS
 40
0.0
  9
$LIMCHECK
 70
     0
  9
$BLIPMODE
 70
     0
  9
$CHAMFERA
 40
0.2
  9
$CHAMFERB
 40
0.2
  9
$SKPOLY
 70
     0
  9
$TDCREATE
 40
2458474.6691865399
  9
$TDUPDATE
 40
2458474.6762649538
  9
$TDINDWG
 40
0.0065410648
  9
$TDUSRTIMER
 40
0.0065410417
  9
$USRTIMER
 70
     1
  9
$ANGBASE
 50
0.0
  9
$ANGDIR
 70
     0
  9
$PDMODE
 70
     1
  9
$PDSIZE
 40
0.0
  9
$PLINEWID
 40
0.0
  9
$COORDS
 70
     1
  9
$SPLFRAME
 70
     0
  9
$SPLINETYPE
 70
     6
  9
$SPLINESEGS
 70
     4
  9
$ATTDIA
 70
     1
  9
$ATTREQ
 70
     1
  9
$HANDLING
 70
     1
  9
$HANDSEED
  5
468F
  9
$SURFTAB1
 70
     6
  9
$SURFTAB2
 70
     6
  9
$SURFTYPE
 70
     6
  9
$SURFU
 70
     6
  9
$SURFV
 70
     6
  9
$UCSNAME
  2

  9
$UCSORG
 10
0.0
 20
0.0
 30
0.0
  9
$UCSXDIR
 10
1.0
 20
0.0
 30
0.0
  9
$UCSYDIR
 10
0.0
 20
1.0
 30
0.0
  9
$PUCSNAME
  2

  9
$PUCSORG
 10
0.0
 20
0.0
 30
0.0
  9
$PUCSXDIR
 10
1.0
 20
0.0
 30
0.0
  9
$PUCSYDIR
 10
0.0
 20
1.0
 30
0.0
  9
$USERI1
 70
     1
  9
$USERI2
 70
     0
  9
$USERI3
 70
     0
  9
$USERI4
 70
     0
  9
$USERI5
 70
     0
  9
$USERR1
 40
0.0
  9
$USERR2
 40
0.0
  9
$USERR3
 40
0.0
  9
$USERR4
 40
0.0
  9
$USERR5
 40
0.0
  9
$WORLDVIEW
 70
     1
  9
$SHADEDGE
 70
     3
  9
$SHADEDIF
 70
    70
  9
$TILEMODE
 70
     1
  9
$MAXACTVP
 70
    16
  9
$PLIMCHECK
 70
     0
  9
$PEXTMIN
 10
1.0000000000000000E+020
 20
1.0000000000000000E+020
 30
1.0000000000000000E+020
  9
$PEXTMAX
 10
-1.0000000000000000E+020
 20
-1.0000000000000000E+020
 30
-1.0000000000000000E+020
  9
$PLIMMIN
 10
0.0
 20
0.0
  9
$PLIMMAX
 10
420.0
 20
297.0
  9
$UNITMODE
 70
     0
  9
$VISRETAIN
 70
     1
  9
$PLINEGEN
 70
     0
  9
$PSLTSCALE
 70
     1
  0
ENDSEC
  0
SECTION
  2
TABLES
  0
TABLE
  2
VPORT
 70
     1
  0
VPORT
  2
*ACTIVE
 70
     0
 10
0.0
 20
0.0
 11
1.0
 21
1.0
 12
51.015577456130707
 22
14.14642732586128
 13
0.0
 23
0.0
 14
7.0
 24
7.0
 15
7.0
 25
7.0
 16
0.0
 26
0.0
 36
1.0
 17
0.0
 27
0.0
 37
0.0
 40
122.993275229669
 41
1.5459770114942519
 42
50.0
 43
0.0
 44
0.0
 50
0.0
 51
0.0
 71
     0
 72
  2000
 73
     1
 74
     0
 75
     0
 76
     1
 77
     0
 78
     0
  0
ENDTAB
  0
TABLE
  2
LTYPE
 70
    18
  0
LTYPE
  2
CONTINUOUS
 70
     0
  3
Solid line
 72
    65
 73
     0
 40
0.0
  0
LTYPE
  2
CENTER2
 70
     0
  3
___ _ ___ _ ___ _ ___ _ ___ _ ___ _ ___ _ ___ _
 72
    65
 73
     4
 40
1.125
 49
0.75
 49
-0.125
 49
0.125
 49
-0.125
  0
LTYPE
  2
AM_ISO02W050
 70
     0
  3
__ __ __ __ __ __ __ __ __ __ __ __ __ __ __
 72
    65
 73
     2
 40
7.5
 49
6.0
 49
-1.5
  0
LTYPE
  2
AMCONSTR
 70
     0
  3
_______________________
 72
    65
 73
     2
 40
9999.0
 49
9999.0
 49
0.0
  0
LTYPE
  2
ACISOWELD
 70
     0
  3
_ _ _ _ _
 72
    65
 73
     2
 40
2.0
 49
2.0
 49
-1.0
  0
LTYPE
  2
ACISOTGB
 70
     0
  3
__ . . __ . .
 72
    65
 73
     6
 40
9.0
 49
4.0
 49
-1.0
 49
1.0
 49
-1.0
 49
1.0
 49
-1.0
  0
LTYPE
  2
ACISOTGL
 70
     0
  3
_ _ _ _ _
 72
    65
 73
     2
 40
3.0
 49
2.0
 49
-1.0
  0
LTYPE
  2
AM_ISO08W050
 70
     0
  3
____ . ____ . ____ . ____ . ____ . ____ . ____
 72
    65
 73
     4
 40
18.0
 49
12.0
 49
-1.5
 49
3.0
 49
-1.5
  0
LTYPE
  2
AM_ISO09W050
 70
     0
  3
_____ . . _____ . . _____ . . ____ .. ____
 72
    65
 73
     6
 40
22.5
 49
12.0
 49
-1.5
 49
3.0
 49
-1.5
 49
3.0
 49
-1.5
  0
LTYPE
  2
AM_ISO08W050X2
 70
     0
  3
__ . __ . __ . __ . __ . __
 72
    65
 73
     4
 40
9.0
 49
6.0
 49
-0.75
 49
1.5
 49
-0.75
  0
LTYPE
  2
AM_ISO02W050X2
 70
     0
  3
 _ _ _ _ _ _ _ _ _ _ _ _
 72
    65
 73
     2
 40
3.75
 49
3.0
 49
-0.75
  0
LTYPE
  2
AMZIGZAG
 70
     0
  3
/\/-/\/-/\/-/\/-/\/-/\/
 72
    65
 73
     2
 40
11.0001
 49
0.0001
 49
-11.0
  0
ENDTAB
  0
TABLE
  2
LAYER
 70
     7
  0
LAYER
  2
0
 70
     0
 62
     7
  6
CONTINUOUS
  0
LAYER
  2
DEFPOINTS
 70
     0
 62
     7
  6
CONTINUOUS
  0
LAYER
  2
245
 70
     0
 62
     2
  6
CENTER2
  0
LAYER
  2
240
 70
     0
 62
     4
  6
CONTINUOUS
  0
LAYER
  2
241
 70
     0
 62
   211
  6
CONTINUOUS
  0
LAYER
  2
247
 70
     0
 62
    60
  6
CONTINUOUS
  0
LAYER
  2
250
 70
     0
 62
     3
  6
CONTINUOUS
  0
ENDTAB
  0
TABLE
  2
STYLE
 70
     7
  0
STYLE
  2
STANDARD
 70
     0
 40
0.0
 41
1.0
 50
0.0
 71
     0
 42
3.0
  3
romans.shx
  4
extfont.shx
  0
STYLE
  2
ACISOGDT
 70
     0
 40
0.0
 41
1.0
 50
0.0
 71
     0
 42
3.0
  3
amgdt.shx
  4
extfont.shx
  0
STYLE
  2
ACJISTS
 70
     0
 40
1.0
 41
1.0
 50
0.0
 71
     0
 42
3.0
  3
amgdt.shx
  4
extfont.shx
  0
STYLE
  2
YOKO
 70
     0
 40
0.0
 41
1.0
 50
0.0
 71
     0
 42
3.0
  3
romans.shx
  4
extfont.shx
  0
STYLE
  2

 70
     1
 40
0.0
 41
1.0
 50
0.0
 71
     0
 42
3.0
  3
genltshp.shx
  4

  0
ENDTAB
  0
TABLE
  2
VIEW
 70
     0
  0
ENDTAB
  0
TABLE
  2
UCS
 70
     0
  0
ENDTAB
  0
TABLE
  2
APPID
 70
    38
  0
APPID
  2
ACAD
 70
     0
  0
APPID
  2
GLOBAL
 70
     0
  0
APPID
  2
DETAIL
 70
     0
  0
APPID
  2
GRPNAME
 70
     0
  0
APPID
  2
GPARA
 70
     0
  0
APPID
  2
MCAD_NO_VIS
 70
     0
  0
APPID
  2
ACAD_TEMP_GRAPHIC
 70
     0
  0
APPID
  2
ACATTRIBSERVICES
 70
     0
  0
APPID
  2
GENIUS_GENSCREG_15
 70
     0
  0
APPID
  2
GENIUS_GENODEF_13
 70
     0
  0
APPID
  2
GENIUS_GENOBJ-N-SDF_13
 70
     0
  0
APPID
  2
GENIUS_GENREC_14
 70
     0
  0
APPID
  2
GENIUS_GENOBJ-N-REC_13
 70
     0
  0
APPID
  2
GENIUS_GENDIMSH_14
 70
     0
  0
APPID
  2
GENIUS_GENOBJ-N-DIM_13
 70
     0
  0
APPID
  2
GENIUS_GENDIM_13
 70
     0
  0
APPID
  2
GENIUS_GENDTOL_13
 70
     0
  0
APPID
  2
GENIUS_GENOLIS_13
 70
     0
  0
APPID
  2
GENIUS_GENOENT_13
 70
     0
  0
APPID
  2
GENIUS_GENOBJ-F-FEM_13
 70
     0
  0
APPID
  2
GENIUS_GENOREF_13
 70
     0
  0
APPID
  2
GENIUS_GEFFEM_13
 70
     0
  0
APPID
  2
GENIUS_GEFFEMP_13
 70
     0
  0
APPID
  2
AD_DRAW
 70
     0
  0
APPID
  2
DESIGNERASSEMBLIES
 70
     0
  0
APPID
  2
ACADM_DIM_EDIT
 70
     0
  0
APPID
  2
AMDT_DM_ADJ
 70
     0
  0
APPID
  2
ITEMNAME
 70
     0
  0
APPID
  2
GENIUS_GENOBJ-N-FIL_13
 70
     0
  0
APPID
  2
GENIUS_GENFIL_13
 70
     0
  0
APPID
  2
GENIUS_GENOBJ-N-CHA_13
 70
     0
  0
APPID
  2
ACAECLAYERSTANDARD
 70
     0
  0
APPID
  2
ACAD_NAV_VCDISPLAY
 70
     0
  0
APPID
  2
ACAD_DSTYLE_DIMINSPECT
 70
     0
  0
APPID
  2
ACAD_EXEMPT_FROM_CAD_STANDARDS
 70
     0
  0
APPID
  2
ACAD_MLEADERVER
 70
     0
  0
APPID
  2
ACAD_DSTYLE_DIMBREAK
 70
     0
  0
APPID
  2
ACAD_DSTYLE_DIMJAG
 70
     0
  0
ENDTAB
  0
TABLE
  2
DIMSTYLE
 70
    23
  0
DIMSTYLE
  2
BIGT
 70
     0
  3

  4

  5
OPEN
  6

  7

 40
1.0
 41
2.2299999999999991
 42
0.5
 43
7.0
 44
1.0
 45
0.0
 46
0.0
 47
0.0
 48
0.01
140
2.7999999999999989
141
0.0
142
0.0
143
25.399999999999999
144
1.0
145
0.0
146
1.0
147
1.0
 71
     0
 72
     0
 73
     0
 74
     0
 75
     0
 76
     0
 77
     3
 78
     9
170
     0
171
     2
172
     1
173
     0
174
     1
175
     0
176
   256
177
   256
178
    40
  0
DIMSTYLE
  2
AM_ISO
 70
     0
  3

  4
"
  5

  6

  7

 40
1.0
 41
2.5
 42
1.0
 43
10.0
 44
1.0
 45
0.0
 46
0.0
 47
0.1
 48
0.1
140
3.5
141
0.0
142
0.0
143
0.0393701
144
1.0
145
0.0
146
0.71
147
1.5
 71
     0
 72
     0
 73
     0
 74
     0
 75
     0
 76
     0
 77
     1
 78
     8
170
     0
171
     2
172
     1
173
     0
174
     0
175
     0
176
   256
177
   256
178
     2
  0
DIMSTYLE
  2
AM_ISO$3
 70
     0
  3

  4
"
  5

  6

  7

 40
1.0
 41
2.5
 42
1.0
 43
10.0
 44
1.0
 45
0.0
 46
0.0
 47
0.1
 48
0.1
140
3.5
141
0.0
142
0.0
143
0.0393701
144
1.0
145
0.0
146
0.71
147
1.5
 71
     0
 72
     0
 73
     0
 74
     1
 75
     0
 76
     0
 77
     1
 78
     8
170
     0
171
     2
172
     0
173
     0
174
     0
175
     0
176
   256
177
   256
178
     2
  0
DIMSTYLE
  2
AM_ISO$4
 70
     0
  3

  4
"
  5

  6

  7

 40
1.0
 41
2.5
 42
1.0
 43
10.0
 44
1.0
 45
0.0
 46
0.0
 47
0.1
 48
0.1
140
3.5
141
0.0
142
0.0
143
0.0393701
144
1.0
145
0.0
146
0.71
147
1.5
 71
     0
 72
     0
 73
     0
 74
     1
 75
     0
 76
     0
 77
     1
 78
     8
170
     0
171
     2
172
     0
173
     0
174
     0
175
     0
176
   256
177
   256
178
     2
  0
DIMSTYLE
  2
AM_ISO$6
 70
     0
  3

  4
"
  5

  6

  7

 40
1.0
 41
2.5
 42
1.0
 43
10.0
 44
1.0
 45
0.0
 46
0.0
 47
0.1
 48
0.1
140
3.5
141
0.0
142
0.0
143
0.0393701
144
1.0
145
0.0
146
0.71
147
1.5
 71
     0
 72
     0
 73
     0
 74
     0
 75
     0
 76
     0
 77
     0
 78
     8
170
     0
171
     2
172
     1
173
     0
174
     0
175
     0
176
   256
177
   256
178
     2
  0
DIMSTYLE
  2
AM_ISO$7
 70
     0
  3

  4
"
  5

  6

  7

 40
1.0
 41
2.5
 42
1.0
 43
10.0
 44
1.0
 45
0.0
 46
0.0
 47
0.1
 48
0.1
140
5.0
141
0.0
142
0.0
143
0.0393701
144
1.0
145
0.0
146
0.71
147
1.5
 71
     0
 72
     0
 73
     0
 74
     0
 75
     0
 76
     0
 77
     1
 78
     8
170
     0
171
     2
172
     1
173
     0
174
     0
175
     0
176
   256
177
   256
178
     2
  0
DIMSTYLE
  2
AM_ISO$SF
 70
     0
  3

  4
"
  5

  6

  7

 40
1.0
 41
2.5
 42
1.0
 43
10.0
 44
1.0
 45
0.0
 46
0.0
 47
0.1
 48
0.1
140
3.5
141
0.0
142
0.0
143
0.0393701
144
1.0
145
0.0
146
0.71
147
1.5
 71
     0
 72
     0
 73
     0
 74
     0
 75
     1
 76
     1
 77
     1
 78
     8
170
     0
171
     2
172
     1
173
     0
174
     0
175
     0
176
   256
177
   256
178
     2
  0
DIMSTYLE
  2
AM_ISO$SH
 70
     0
  3

  4
"
  5

  6
GENAXEH
  7

 40
1.0
 41
2.5
 42
1.0
 43
10.0
 44
1.0
 45
0.0
 46
0.0
 47
0.1
 48
0.1
140
3.5
141
0.0
142
0.0
143
0.0393701
144
2.0
145
0.0
146
0.71
147
1.5
 71
     0
 72
     0
 73
     0
 74
     0
 75
     1
 76
     1
 77
     1
 78
     8
170
     0
171
     2
172
     1
173
     1
174
     0
175
     0
176
   256
177
   256
178
     2
  0
ENDTAB
  0
ENDSEC
  0
SECTION
  2
BLOCKS
  0
BLOCK
  8
0
  2
$MODEL_SPACE
 70
     0
 10
0.0
 20
0.0
 30
0.0
  3
$MODEL_SPACE
  1

  0
ENDBLK
  5
1C
  8
0
  0
BLOCK
 67
     1
  8
0
  2
$PAPER_SPACE
 70
     0
 10
0.0
 20
0.0
 30
0.0
  3
$PAPER_SPACE
  1

  0
ENDBLK
  5
19
 67
     1
  8
0
  0
BLOCK
  8
0
  2
_OPEN
 70
     0
 10
0.0
 20
0.0
 30
0.0
  3
_OPEN
  1

  0
LINE
  5
3E1A
  8
0
  6
BYBLOCK
 62
     0
 10
-1.0
 20
0.1666666666666666
 30
0.0
 11
0.0
 21
0.0
 31
0.0
  0
LINE
  5
3E1B
  8
0
  6
BYBLOCK
 62
     0
 10
-1.0
 20
-0.1666666666666666
 30
0.0
 11
0.0
 21
0.0
 31
0.0
  0
LINE
  5
3E1C
  8
0
  6
BYBLOCK
 62
     0
 10
0.0
 20
0.0
 30
0.0
 11
-1.0
 21
0.0
 31
0.0
  0
ENDBLK
  5
3E1D
  8
0
  0
BLOCK
  8
0
  2
GENAXEH
 70
     0
 10
0.0
 20
0.0
 30
0.0
  3
GENAXEH
  1

  0
LINE
  5
3E45
  8
0
 10
-1.0
 20
0.0
 30
0.0
 11
1.0
 21
0.0
 31
0.0
  0
ENDBLK
  5
3E46
  8
0
  0
ENDSEC
  0
SECTION
  2
ENTITIES
  0
LINE
  5
42D5
  8
240
  6
CONTINUOUS
 10
52.375000000000078
 20
2.9999999999999929
 30
0.0
 11
0.0
 21
3.0
 31
0.0
  0
LINE
  5
42D6
  8
240
  6
CONTINUOUS
 10
-0.0000000000000003
 20
-3.0
 30
0.0
 11
52.375000000000078
 21
-3.0000000000000062
 31
0.0
  0
LINE
  5
42D9
  8
240
  6
CONTINUOUS
 10
52.375000000000078
 20
-3.0000000000000062
 30
0.0
 11
53.000000000000078
 21
-2.3749999999999778
 31
0.0
  0
LINE
  5
42DA
  8
240
  6
CONTINUOUS
 10
53.000000000000078
 20
2.3749999999999929
 30
0.0
 11
52.375000000000078
 21
2.9999999999999929
 31
0.0
  0
LINE
  5
42DB
  8
240
  6
CONTINUOUS
 10
70.339996647503796
 20
2.3749999999999911
 30
0.0
 11
53.000000000000078
 21
2.3749999999999929
 31
0.0
  0
LINE
  5
42DC
  8
240
  6
CONTINUOUS
 10
53.000000000000078
 20
-2.3749999999999778
 30
0.0
 11
74.079185685402408
 21
-2.37499999999998
 31
0.0
  0
LINE
  5
42E7
  8
241
  6
CONTINUOUS
 10
52.375000000000078
 20
2.9999999999999929
 30
0.0
 11
52.375000000000078
 21
-3.0000000000000062
 31
0.0
  0
LINE
  5
42E9
  8
240
  6
CONTINUOUS
 10
0.0
 20
3.0
 30
0.0
 11
-0.0000000000000003
 21
-3.0
 31
0.0
  0
LINE
  5
42EA
  8
241
  6
CONTINUOUS
 10
53.000000000000078
 20
2.3749999999999929
 30
0.0
 11
53.000000000000078
 21
-2.3749999999999778
 31
0.0
  0
LINE
  5
42EC
  8
240
  6
CONTINUOUS
 10
70.5
 20
2.371052332046224
 30
0.0
 11
70.744992760876485
 21
2.3710523320461809
 31
0.0
  0
POLYLINE
  5
42ED
  8
241
  6
CONTINUOUS
 10
70.499999999999986
 20
2.3710523320462111
 30
0.0
 66
     1
 70
     8
  0
VERTEX
  8
241
  5
460D
 10
70.5000
 20
2.37105
 30
0.000000
  70
    32
  0
VERTEX
  8
241
  5
460E
 10
70.4390
 20
2.37348
 30
0.000000
  70
    32
  0
VERTEX
  8
241
  5
460F
 10
70.3783
 20
2.37477
 30
0.000000
  70
    32
  0
VERTEX
  8
241
  5
4610
 10
70.3179
 20
2.37492
 30
0.000000
  70
    32
  0
VERTEX
  8
241
  5
4611
 10
70.2577
 20
2.37394
 30
0.000000
  70
    32
  0
VERTEX
  8
241
  5
4612
 10
70.1980
 20
2.37181
 30
0.000000
  70
    32
  0
VERTEX
  8
241
  5
4613
 10
70.1386
 20
2.36855
 30
0.000000
  70
    32
  0
VERTEX
  8
241
  5
4614
 10
70.0796
 20
2.36415
 30
0.000000
  70
    32
  0
VERTEX
  8
241
  5
4615
 10
70.0210
 20
2.35862
 30
0.000000
  70
    32
  0
VERTEX
  8
241
  5
4616
 10
69.9629
 20
2.35195
 30
0.000000
  70
    32
  0
VERTEX
  8
241
  5
4617
 10
69.9053
 20
2.34416
 30
0.000000
  70
    32
  0
VERTEX
  8
241
  5
4618
 10
69.8482
 20
2.33524
 30
0.000000
  70
    32
  0
VERTEX
  8
241
  5
4619
 10
69.7916
 20
2.32521
 30
0.000000
  70
    32
  0
VERTEX
  8
241
  5
461A
 10
69.7356
 20
2.31406
 30
0.000000
  70
    32
  0
VERTEX
  8
241
  5
461B
 10
69.6802
 20
2.30180
 30
0.000000
  70
    32
  0
VERTEX
  8
241
  5
461C
 10
69.6254
 20
2.28843
 30
0.000000
  70
    32
  0
VERTEX
  8
241
  5
461D
 10
69.5713
 20
2.27397
 30
0.000000
  70
    32
  0
VERTEX
  8
241
  5
461E
 10
69.5178
 20
2.25842
 30
0.000000
  70
    32
  0
VERTEX
  8
241
  5
461F
 10
69.4650
 20
2.24178
 30
0.000000
  70
    32
  0
VERTEX
  8
241
  5
4620
 10
69.4130
 20
2.22407
 30
0.000000
  70
    32
  0
VERTEX
  8
241
  5
4621
 10
69.3617
 20
2.20529
 30
0.000000
  70
    32
  0
VERTEX
  8
241
  5
4622
 10
69.3112
 20
2.18546
 30
0.000000
  70
    32
  0
VERTEX
  8
241
  5
4623
 10
69.2615
 20
2.16457
 30
0.000000
  70
    32
  0
VERTEX
  8
241
  5
4624
 10
69.2126
 20
2.14265
 30
0.000000
  70
    32
  0
VERTEX
  8
241
  5
4625
 10
69.1645
 20
2.11970
 30
0.000000
  70
    32
  0
VERTEX
  8
241
  5
4626
 10
69.1174
 20
2.09574
 30
0.000000
  70
    32
  0
VERTEX
  8
241
  5
4627
 10
69.0711
 20
2.07077
 30
0.000000
  70
    32
  0
VERTEX
  8
241
  5
4628
 10
69.0257
 20
2.04481
 30
0.000000
  70
    32
  0
VERTEX
  8
241
  5
4629
 10
68.9813
 20
2.01786
 30
0.000000
  70
    32
  0
VERTEX
  8
241
  5
462A
 10
68.9378
 20
1.98995
 30
0.000000
  70
    32
  0
VERTEX
  8
241
  5
462B
 10
68.8953
 20
1.96108
 30
0.000000
  70
    32
  0
VERTEX
  8
241
  5
462C
 10
68.8538
 20
1.93128
 30
0.000000
  70
    32
  0
VERTEX
  8
241
  5
462D
 10
68.8133
 20
1.90054
 30
0.000000
  70
    32
  0
VERTEX
  8
241
  5
462E
 10
68.7739
 20
1.86890
 30
0.000000
  70
    32
  0
VERTEX
  8
241
  5
462F
 10
68.7355
 20
1.83636
 30
0.000000
  70
    32
  0
VERTEX
  8
241
  5
4630
 10
68.6982
 20
1.80294
 30
0.000000
  70
    32
  0
VERTEX
  8
241
  5
4631
 10
68.6619
 20
1.76865
 30
0.000000
  70
    32
  0
VERTEX
  8
241
  5
4632
 10
68.6268
 20
1.73352
 30
0.000000
  70
    32
  0
VERTEX
  8
241
  5
4633
 10
68.5928
 20
1.69755
 30
0.000000
  70
    32
  0
VERTEX
  8
241
  5
4634
 10
68.5600
 20
1.66077
 30
0.000000
  70
    32
  0
VERTEX
  8
241
  5
4635
 10
68.5283
 20
1.62320
 30
0.000000
  70
    32
  0
VERTEX
  8
241
  5
4636
 10
68.4978
 20
1.58484
 30
0.000000
  70
    32
  0
VERTEX
  8
241
  5
4637
 10
68.4685
 20
1.54573
 30
0.000000
  70
    32
  0
VERTEX
  8
241
  5
4638
 10
68.4404
 20
1.50587
 30
0.000000
  70
    32
  0
VERTEX
  8
241
  5
4639
 10
68.4135
 20
1.46530
 30
0.000000
  70
    32
  0
VERTEX
  8
241
  5
463A
 10
68.3878
 20
1.42402
 30
0.000000
  70
    32
  0
VERTEX
  8
241
  5
463B
 10
68.3634
 20
1.38205
 30
0.000000
  70
    32
  0
VERTEX
  8
241
  5
463C
 10
68.3402
 20
1.33943
 30
0.000000
  70
    32
  0
VERTEX
  8
241
  5
463D
 10
68.3183
 20
1.29616
 30
0.000000
  70
    32
  0
VERTEX
  8
241
  5
463E
 10
68.2976
 20
1.25227
 30
0.000000
  70
    32
  0
VERTEX
  8
241
  5
463F
 10
68.2783
 20
1.20778
 30
0.000000
  70
    32
  0
VERTEX
  8
241
  5
4640
 10
68.2602
 20
1.16271
 30
0.000000
  70
    32
  0
VERTEX
  8
241
  5
4641
 10
68.2435
 20
1.11708
 30
0.000000
  70
    32
  0
VERTEX
  8
241
  5
4642
 10
68.2280
 20
1.07092
 30
0.000000
  70
    32
  0
VERTEX
  8
241
  5
4643
 10
68.2139
 20
1.02424
 30
0.000000
  70
    32
  0
VERTEX
  8
241
  5
4644
 10
68.2011
 20
0.977073
 30
0.000000
  70
    32
  0
VERTEX
  8
241
  5
4645
 10
68.1896
 20
0.929436
 30
0.000000
  70
    32
  0
VERTEX
  8
241
  5
4646
 10
68.1795
 20
0.881354
 30
0.000000
  70
    32
  0
VERTEX
  8
241
  5
4647
 10
68.1707
 20
0.832849
 30
0.000000
  70
    32
  0
VERTEX
  8
241
  5
4648
 10
68.1632
 20
0.783945
 30
0.000000
  70
    32
  0
VERTEX
  8
241
  5
4649
 10
68.1571
 20
0.734664
 30
0.000000
  70
    32
  0
VERTEX
  8
241
  5
464A
 10
68.1524
 20
0.685032
 30
0.000000
  70
    32
  0
VERTEX
  8
241
  5
464B
 10
68.1490
 20
0.635071
 30
0.000000
  70
    32
  0
VERTEX
  8
241
  5
464C
 10
68.1470
 20
0.584805
 30
0.000000
  70
    32
  0
VERTEX
  8
241
  5
464D
 10
68.1463
 20
0.534259
 30
0.000000
  70
    32
  0
VERTEX
  8
241
  5
464E
 10
68.1470
 20
0.483456
 30
0.000000
  70
    32
  0
VERTEX
  8
241
  5
464F
 10
68.1490
 20
0.432422
 30
0.000000
  70
    32
  0
VERTEX
  8
241
  5
4650
 10
68.1524
 20
0.381181
 30
0.000000
  70
    32
  0
VERTEX
  8
241
  5
4651
 10
68.1571
 20
0.329756
 30
0.000000
  70
    32
  0
VERTEX
  8
241
  5
4652
 10
68.1632
 20
0.278174
 30
0.000000
  70
    32
  0
VERTEX
  8
241
  5
4653
 10
68.1707
 20
0.226458
 30
0.000000
  70
    32
  0
VERTEX
  8
241
  5
4654
 10
68.1795
 20
0.174633
 30
0.000000
  70
    32
  0
VERTEX
  8
241
  5
4655
 10
68.1896
 20
0.122725
 30
0.000000
  70
    32
  0
VERTEX
  8
241
  5
4656
 10
68.2011
 20
0.0707579
 30
0.000000
  70
    32
  0
VERTEX
  8
241
  5
4657
 10
68.2139
 20
0.0187568
 30
0.000000
  70
    32
  0
VERTEX
  8
241
  5
4658
 10
68.2280
 20
-0.0332532
 30
0.000000
  70
    32
  0
VERTEX
  8
241
  5
4659
 10
68.2435
 20
-0.0852473
 30
0.000000
  70
    32
  0
VERTEX
  8
241
  5
465A
 10
68.2602
 20
-0.137201
 30
0.000000
  70
    32
  0
VERTEX
  8
241
  5
465B
 10
68.2783
 20
-0.189088
 30
0.000000
  70
    32
  0
VERTEX
  8
241
  5
465C
 10
68.2976
 20
-0.240885
 30
0.000000
  70
    32
  0
VERTEX
  8
241
  5
465D
 10
68.3183
 20
-0.292566
 30
0.000000
  70
    32
  0
VERTEX
  8
241
  5
465E
 10
68.3402
 20
-0.344107
 30
0.000000
  70
    32
  0
VERTEX
  8
241
  5
465F
 10
68.3634
 20
-0.395483
 30
0.000000
  70
    32
  0
VERTEX
  8
241
  5
4660
 10
68.3878
 20
-0.446669
 30
0.000000
  70
    32
  0
VERTEX
  8
241
  5
4661
 10
68.4135
 20
-0.497641
 30
0.000000
  70
    32
  0
VERTEX
  8
241
  5
4662
 10
68.4404
 20
-0.548374
 30
0.000000
  70
    32
  0
VERTEX
  8
241
  5
4663
 10
68.4685
 20
-0.598845
 30
0.000000
  70
    32
  0
VERTEX
  8
241
  5
4664
 10
68.4978
 20
-0.649028
 30
0.000000
  70
    32
  0
VERTEX
  8
241
  5
4665
 10
68.5283
 20
-0.698900
 30
0.000000
  70
    32
  0
VERTEX
  8
241
  5
4666
 10
68.5600
 20
-0.748437
 30
0.000000
  70
    32
  0
VERTEX
  8
241
  5
4667
 10
68.5928
 20
-0.797615
 30
0.000000
  70
    32
  0
VERTEX
  8
241
  5
4668
 10
68.6268
 20
-0.846410
 30
0.000000
  70
    32
  0
VERTEX
  8
241
  5
4669
 10
68.6619
 20
-0.894799
 30
0.000000
  70
    32
  0
VERTEX
  8
241
  5
466A
 10
68.6982
 20
-0.942760
 30
0.000000
  70
    32
  0
VERTEX
  8
241
  5
466B
 10
68.7355
 20
-0.990268
 30
0.000000
  70
    32
  0
VERTEX
  8
241
  5
466C
 10
68.7739
 20
-1.03730
 30
0.000000
  70
    32
  0
VERTEX
  8
241
  5
466D
 10
68.8133
 20
-1.08384
 30
0.000000
  70
    32
  0
VERTEX
  8
241
  5
466E
 10
68.8538
 20
-1.12985
 30
0.000000
  70
    32
  0
VERTEX
  8
241
  5
466F
 10
68.8953
 20
-1.17533
 30
0.000000
  70
    32
  0
VERTEX
  8
241
  5
4670
 10
68.9378
 20
-1.22024
 30
0.000000
  70
    32
  0
VERTEX
  8
241
  5
4671
 10
68.9813
 20
-1.26456
 30
0.000000
  70
    32
  0
VERTEX
  8
241
  5
4672
 10
69.0257
 20
-1.30828
 30
0.000000
  70
    32
  0
VERTEX
  8
241
  5
4673
 10
69.0711
 20
-1.35137
 30
0.000000
  70
    32
  0
VERTEX
  8
241
  5
4674
 10
69.1174
 20
-1.39382
 30
0.000000
  70
    32
  0
VERTEX
  8
241
  5
4675
 10
69.1645
 20
-1.43559
 30
0.000000
  70
    32
  0
VERTEX
  8
241
  5
4676
 10
69.2126
 20
-1.47668
 30
0.000000
  70
    32
  0
VERTEX
  8
241
  5
4677
 10
69.2615
 20
-1.51706
 30
0.000000
  70
    32
  0
VERTEX
  8
241
  5
4678
 10
69.3112
 20
-1.55671
 30
0.000000
  70
    32
  0
VERTEX
  8
241
  5
4679
 10
69.3617
 20
-1.59561
 30
0.000000
  70
    32
  0
VERTEX
  8
241
  5
467A
 10
69.4130
 20
-1.63375
 30
0.000000
  70
    32
  0
VERTEX
  8
241
  5
467B
 10
69.4650
 20
-1.67111
 30
0.000000
  70
    32
  0
VERTEX
  8
241
  5
467C
 10
69.5178
 20
-1.70766
 30
0.000000
  70
    32
  0
VERTEX
  8
241
  5
467D
 10
69.5713
 20
-1.74340
 30
0.000000
  70
    32
  0
VERTEX
  8
241
  5
467E
 10
69.6254
 20
-1.77830
 30
0.000000
  70
    32
  0
VERTEX
  8
241
  5
467F
 10
69.6802
 20
-1.81234
 30
0.000000
  70
    32
  0
VERTEX
  8
241
  5
4680
 10
69.7356
 20
-1.84552
 30
0.000000
  70
    32
  0
VERTEX
  8
241
  5
4681
 10
69.7916
 20
-1.87781
 30
0.000000
  70
    32
  0
VERTEX
  8
241
  5
4682
 10
69.8482
 20
-1.90920
 30
0.000000
  70
    32
  0
VERTEX
  8
241
  5
4683
 10
69.9053
 20
-1.93968
 30
0.000000
  70
    32
  0
VERTEX
  8
241
  5
4684
 10
69.9629
 20
-1.96922
 30
0.000000
  70
    32
  0
VERTEX
  8
241
  5
4685
 10
70.0210
 20
-1.99783
 30
0.000000
  70
    32
  0
VERTEX
  8
241
  5
4686
 10
70.0796
 20
-2.02547
 30
0.000000
  70
    32
  0
VERTEX
  8
241
  5
4687
 10
70.1386
 20
-2.05214
 30
0.000000
  70
    32
  0
VERTEX
  8
241
  5
4688
 10
70.1980
 20
-2.07783
 30
0.000000
  70
    32
  0
VERTEX
  8
241
  5
4689
 10
70.2577
 20
-2.10252
 30
0.000000
  70
    32
  0
VERTEX
  8
241
  5
468A
 10
70.3179
 20
-2.12620
 30
0.000000
  70
    32
  0
VERTEX
  8
241
  5
468B
 10
70.3783
 20
-2.14887
 30
0.000000
  70
    32
  0
VERTEX
  8
241
  5
468C
 10
70.4390
 20
-2.17050
 30
0.000000
  70
    32
  0
VERTEX
  8
241
  5
468D
 10
70.5000
 20
-2.19109
 30
0.000000
  70
    32
  0
SEQEND
  8
241
  5
468E
  0
LINE
  5
42EE
  8
241
  6
CONTINUOUS
 10
74.190949675158905
 20
-2.1910914885710979
 30
0.0
 11
70.5
 21
-2.191091488571097
 31
0.0
  0
LINE
  5
42F0
  8
241
  6
CONTINUOUS
 10
70.5
 20
2.371052332046224
 30
0.0
 11
70.5
 21
-2.191091488571097
 31
0.0
  0
LINE
  5
42F2
  8
240
  6
CONTINUOUS
 10
71.667086922484302
 20
2.1345294170000022
 30
0.0
 11
70.744992760876485
 21
2.3710523320461809
 31
0.0
  0
LINE
  5
42F6
  8
240
  6
CONTINUOUS
 10
74.190949675158905
 20
-2.1910914885710979
 30
0.0
 11
74.442508390808328
 21
-0.7644311179418363
 31
0.0
  0
LINE
  5
4331
  8
241
  6
CONTINUOUS
 10
74.486638321509702
 20
-0.6720935317966712
 30
0.0
 11
74.997111991300415
 21
2.222946511081052
 31
0.0
  0
ARC
  5
4332
  8
241
  6
CONTINUOUS
 10
74.291991693025693
 20
-0.6357821870148348
 30
0.0
 40
0.1980046053505977
 50
274.5883266250213
 51
349.43293153055151
  0
LINE
  5
4333
  8
241
  6
CONTINUOUS
 10
71.305760336676784
 20
-1.102001625631595
 30
0.0
 11
74.307831237775403
 21
-0.8331522266919881
 31
0.0
  0
ARC
  5
4334
  8
241
  6
CONTINUOUS
 10
71.284922049779212
 20
-0.906056852246232
 30
0.0
 40
0.1970497105247398
 50
170.9165743574903
 51
276.0704608554953
  0
LINE
  5
4335
  8
241
  6
CONTINUOUS
 10
71.600817107601088
 20
2.020091906165097
 30
0.0
 11
71.090343437810404
 21
-0.874948136712655
 31
0.0
  0
ARC
  5
4336
  8
241
  6
CONTINUOUS
 10
71.795463736085097
 20
1.983780561383232
 30
0.0
 40
0.1980046053506309
 50
94.588326625014716
 51
169.43293153054481
  0
LINE
  5
4337
  8
241
  6
CONTINUOUS
 10
74.781695092434006
 20
2.4500000000000068
 30
0.0
 11
71.779624191335515
 21
2.1811506010603998
 31
0.0
  0
ARC
  5
4338
  8
241
  6
CONTINUOUS
 10
74.802533379331592
 20
2.254055226614629
 30
0.0
 40
0.1970497105247115
 50
350.9165743574805
 51
96.070460855496904
  0
LINE
  5
433E
  8
245
 10
-2.5943598226521938
 20
0.0000000000000003
 30
0.0
 11
76.433761501344421
 21
-0.0000000000000094
 31
0.0
  0
TEXT
  5
4343
  8
241
 10
0.0
 20
35.0
 30
0.0
 40
3.0
  1
ST06W-EB5-20
  7
YOKO
  0
LINE
  5
43D0
  8
240
  6
CONTINUOUS
 10
74.190949675158905
 20
-2.1910914885710979
 30
0.0
 11
74.079185685402408
 21
-2.37499999999998
 31
0.0
  0
LINE
  5
4407
  8
250
  6
CONTINUOUS
 10
-2.930126070402753
 20
-11.74770290151787
 30
0.0
 11
12.53654059626388
 21
-11.74770290151787
 31
0.0
  0
LINE
  5
4408
  8
250
  6
CONTINUOUS
 10
12.53654059626388
 20
-11.74770290151787
 30
0.0
 11
17.547667335230301
 21
-4.8079298634236247
 31
0.0
  0
LINE
  5
4409
  8
250
  6
CONTINUOUS
 10
17.547667335230301
 20
-4.8079298634236247
 30
0.0
 11
18.853151769814311
 21
-3.0000000000000022
 31
0.0
  0
LINE
  5
440A
  8
250
  6
CONTINUOUS
 10
17.785685816150881
 20
-4.9798001490312362
 30
0.0
 11
18.853151769814311
 21
-3.0000000000000022
 31
0.0
  0
LINE
  5
440B
  8
250
  6
CONTINUOUS
 10
18.853151769814311
 20
-3.0000000000000022
 30
0.0
 11
17.309648854309739
 21
-4.6360595778160141
 31
0.0
  0
TEXT
  5
440C
  8
250
  6
CONTINUOUS
 10
-3.3301260704027862
 20
-10.34770290151789
 30
0.0
 40
2.799999999999998
  1
ST06W
  7
ACJISTS
  0
LINE
  5
440D
  8
247
  6
CONTINUOUS
 10
4.25
 20
-1.5
 30
0.0
 11
8.8846153843300026
 21
-1.5
 31
0.0
  0
LINE
  5
440E
  8
247
  6
CONTINUOUS
 10
5.0451065000120252
 20
1.0
 30
0.0
 11
4.4429411899426441
 21
-1.0999999999160071
 31
0.0
  0
LINE
  5
440F
  8
247
  6
CONTINUOUS
 10
5.6748485964809561
 20
0.0038461538861156
 30
0.0
 11
4.7594639811329671
 21
0.0038461538861156
 31
0.0
  0
ARC
  5
4410
  8
247
  6
CONTINUOUS
 10
5.9127365980531854
 20
0.6152809327059005
 30
0.0
 40
0.3876715809326743
 50
342.9978896752952
 51
82.924166218513619
  0
ARC
  5
4411
  8
247
  6
CONTINUOUS
 10
5.617522443195865
 20
0.6947768689719851
 30
0.0
 40
0.6933047965358767
 50
274.74293685219902
 51
343.84922627326682
1001
GENIUS_GENOBJ-N-FIL_13
1002
{
1000
OWNER
1000
GEN
1002
}
1001
GENIUS_GENODEF_13
1002
{
1000
HIER
1070
     0
1002
}
1002
{
1000
MANEDIT
1070
     0
1002
}
1002
{
1000
NOSEL
1070
     0
1002
}
1002
{
1000
BEHIND
1070
     0
1002
}
1002
{
1000
OTHER
1070
     0
1002
}
1002
{
1000
REACTOR
1002
}
  0
LINE
  5
4412
  8
247
  6
CONTINUOUS
 10
5.3583258052906331
 20
-1.0999999999160071
 30
0.0
 11
4.4429411899426441
 21
-1.0999999999160071
 31
0.0
  0
LINE
  5
4413
  8
247
  6
CONTINUOUS
 10
5.0451065000120252
 20
1.0
 30
0.0
 11
5.960491115360071
 21
1.0
 31
0.0
  0
ARC
  5
4414
  8
247
  6
CONTINUOUS
 10
5.6216935237331409
 20
-0.3874169627679293
 30
0.0
 40
0.394857301075386
 50
335.99094165252171
 51
82.263443459069123
  0
ARC
  5
4415
  8
247
  6
CONTINUOUS
 10
5.2875533895730751
 20
-0.3912003273326263
 30
0.0
 40
0.7123241612361686
 50
275.70198516425643
 51
347.27733843682199
1001
GENIUS_GENOBJ-N-FIL_13
1002
{
1000
OWNER
1000
GEN
1002
}
1001
GENIUS_GENODEF_13
1002
{
1000
HIER
1070
     0
1002
}
1002
{
1000
MANEDIT
1070
     0
1002
}
1002
{
1000
NOSEL
1070
     0
1002
}
1002
{
1000
BEHIND
1070
     0
1002
}
1002
{
1000
OTHER
1070
     0
1002
}
1002
{
1000
REACTOR
1002
}
  0
LINE
  5
4416
  8
247
  6
CONTINUOUS
 10
6.3160181129366011
 20
-1.0999999999160071
 30
0.0
 11
6.9181834230060399
 21
1.0
 31
0.0
  0
LINE
  5
4417
  8
247
  6
CONTINUOUS
 10
8.4143372690920142
 20
1.0
 30
0.0
 11
8.0183216356964504
 21
1.0
 31
0.0
  0
LINE
  5
4418
  8
247
  6
CONTINUOUS
 10
7.3912603460560131
 20
-1.0999999999160071
 30
0.0
 11
7.8220295768080623
 21
-1.0999999999160071
 31
0.0
  0
ARC
  5
4419
  8
247
  6
CONTINUOUS
 10
8.6181834229300307
 20
-0.4582995950834176
 30
0.0
 40
1.576855057639547
 50
112.3594881415292
 51
164.9932485428464
  0
ARC
  5
441A
  8
247
  6
CONTINUOUS
 10
8.152488633866767
 20
0.4341811414619771
 30
0.0
 40
0.6234706797009447
 50
4.9945893190753123
 51
65.166328957308281
1001
GENIUS_GENOBJ-N-FIL_13
1002
{
1000
OWNER
1000
GEN
1002
}
1001
GENIUS_GENODEF_13
1002
{
1000
HIER
1070
     0
1002
}
1002
{
1000
MANEDIT
1070
     0
1002
}
1002
{
1000
NOSEL
1070
     0
1002
}
1002
{
1000
BEHIND
1070
     0
1002
}
1002
{
1000
OTHER
1070
     0
1002
}
1002
{
1000
REACTOR
1002
}
  0
ARC
  5
441B
  8
247
  6
CONTINUOUS
 10
7.5558160489672419
 20
-0.162102121969383
 30
0.0
 40
0.9749472149106983
 50
285.8460965557839
 51
352.3251370041624
  0
ARC
  5
441C
  8
247
  6
CONTINUOUS
 10
7.964788361227761
 20
-0.3714704019710098
 30
0.0
 40
0.9271945638692009
 50
159.71360167048971
 51
231.7887456564151
1001
GENIUS_GENOBJ-N-FIL_13
1002
{
1000
OWNER
1000
GEN
1002
}
1001
GENIUS_GENODEF_13
1002
{
1000
HIER
1070
     0
1002
}
1002
{
1000
MANEDIT
1070
     0
1002
}
1002
{
1000
NOSEL
1070
     0
1002
}
1002
{
1000
BEHIND
1070
     0
1002
}
1002
{
1000
OTHER
1070
     0
1002
}
1002
{
1000
REACTOR
1002
}
  0
LINE
  5
441D
  8
247
  6
CONTINUOUS
 10
8.0374141921840305
 20
-0.2923076922559176
 30
0.0
 11
8.522029576780028
 21
-0.2923076922559176
 31
0.0
  0
ARC
  5
441E
  8
247
  6
CONTINUOUS
 10
4.25
 20
-0.25
 30
0.0
 40
1.25
 50
90.0
 51
270.0
  0
LINE
  5
441F
  8
247
  6
CONTINUOUS
 10
4.25
 20
1.0
 30
0.0
 11
4.6961538460860179
 21
1.0
 31
0.0
  0
ARC
  5
4420
  8
247
  6
CONTINUOUS
 10
8.8846153843300026
 20
-0.25
 30
0.0
 40
1.25
 50
270.0
 51
90.0
  0
LINE
  5
44E1
  8
250
  6
CONTINUOUS
 10
75.302533379331592
 20
2.4511049371393399
 30
0.0
 11
92.0
 21
2.4511049371393359
 31
0.0
  0
LINE
  5
44E3
  8
250
  6
CONTINUOUS
 10
91.0
 20
4.6811049371393363
 30
0.0
 11
91.0
 21
6.9111049371393349
 31
0.0
  0
LINE
  5
44E4
  8
250
  6
CONTINUOUS
 10
91.0
 20
-3.8851878530357449
 30
0.0
 11
91.0
 21
2.4511049371393359
 31
0.0
  0
LINE
  5
44E8
  8
250
  6
CONTINUOUS
 10
74.999583089856301
 20
2.754055226614629
 30
0.0
 11
74.999583089856301
 21
24.503275449503011
 31
0.0
  0
LINE
  5
44E9
  8
250
  6
CONTINUOUS
 10
0.0000000000000003
 20
3.5
 30
0.0
 11
0.0000000000000016
 21
24.503275449503011
 31
0.0
  0
LINE
  5
44EA
  8
250
  6
CONTINUOUS
 10
72.769583089856297
 20
23.503275449503011
 30
0.0
 11
2.2300000000000009
 21
23.503275449503011
 31
0.0
  0
LINE
  5
44EE
  8
250
  6
CONTINUOUS
 10
74.999583089856301
 20
2.754055226614629
 30
0.0
 11
74.999583089856301
 21
17.50327544950294
 31
0.0
  0
LINE
  5
44EF
  8
250
  6
CONTINUOUS
 10
54.999583089856301
 20
2.874999999999992
 30
0.0
 11
54.999583089856301
 21
17.50327544950294
 31
0.0
  0
LINE
  5
44F0
  8
250
  6
CONTINUOUS
 10
72.769583089856297
 20
16.50327544950294
 30
0.0
 11
57.229583089856298
 21
16.50327544950294
 31
0.0
  0
TEXT
  5
44F4
  8
250
  6
CONTINUOUS
 10
34.833124878261494
 20
24.503275449503011
 30
0.0
 40
2.7999999999999989
  1
75
  0
LINE
  5
44F5
  8
250
  6
CONTINUOUS
 10
2.2300000000000009
 20
23.131608782836349
 30
0.0
 11
0.0000000000000016
 21
23.503275449503011
 31
0.0
  0
LINE
  5
44F6
  8
250
  6
CONTINUOUS
 10
2.2300000000000009
 20
23.874942116169681
 30
0.0
 11
0.0000000000000016
 21
23.503275449503011
 31
0.0
  0
LINE
  5
44F7
  8
250
  6
CONTINUOUS
 10
0.0000000000000016
 20
23.503275449503011
 30
0.0
 11
2.2300000000000009
 21
23.503275449503011
 31
0.0
  0
LINE
  5
44F8
  8
250
  6
CONTINUOUS
 10
72.769583089856297
 20
23.874942116169681
 30
0.0
 11
74.999583089856301
 21
23.503275449503011
 31
0.0
  0
LINE
  5
44F9
  8
250
  6
CONTINUOUS
 10
72.769583089856297
 20
23.131608782836349
 30
0.0
 11
74.999583089856301
 21
23.503275449503011
 31
0.0
  0
LINE
  5
44FA
  8
250
  6
CONTINUOUS
 10
74.999583089856301
 20
23.503275449503011
 30
0.0
 11
72.769583089856297
 21
23.503275449503011
 31
0.0
  0
TEXT
  5
44FB
  8
250
  6
CONTINUOUS
 10
60.46624975652297
 20
18.703275449502939
 30
0.0
 40
2.7999999999999989
  1
(20)
  0
LINE
  5
44FC
  8
250
  6
CONTINUOUS
 10
57.229583089856298
 20
16.13160878283627
 30
0.0
 11
54.999583089856301
 21
16.50327544950294
 31
0.0
  0
LINE
  5
44FD
  8
250
  6
CONTINUOUS
 10
57.229583089856298
 20
16.87494211616961
 30
0.0
 11
54.999583089856301
 21
16.50327544950294
 31
0.0
  0
LINE
  5
44FE
  8
250
  6
CONTINUOUS
 10
54.999583089856301
 20
16.50327544950294
 30
0.0
 11
57.229583089856298
 21
16.50327544950294
 31
0.0
  0
LINE
  5
44FF
  8
250
  6
CONTINUOUS
 10
72.769583089856297
 20
16.87494211616961
 30
0.0
 11
74.999583089856301
 21
16.50327544950294
 31
0.0
  0
LINE
  5
4500
  8
250
  6
CONTINUOUS
 10
72.769583089856297
 20
16.13160878283627
 30
0.0
 11
74.999583089856301
 21
16.50327544950294
 31
0.0
  0
LINE
  5
4501
  8
250
  6
CONTINUOUS
 10
74.999583089856301
 20
16.50327544950294
 30
0.0
 11
72.769583089856297
 21
16.50327544950294
 31
0.0
  0
TEXT
  5
4502
  8
250
  6
CONTINUOUS
 10
88.799999999999983
 20
-10.66778086476366
 30
0.0
 40
2.7999999999999989
  1
(\U+03C65.0ü`6.0)
 50
90.0
  0
LINE
  5
4503
  8
250
  6
CONTINUOUS
 10
91.37166666666667
 20
4.6811049371393363
 30
0.0
 11
91.0
 21
2.4511049371393359
 31
0.0
  0
LINE
  5
4504
  8
250
  6
CONTINUOUS
 10
90.62833333333333
 20
4.6811049371393363
 30
0.0
 11
91.0
 21
2.4511049371393359
 31
0.0
  0
LINE
  5
4505
  8
250
  6
CONTINUOUS
 10
91.0
 20
2.4511049371393359
 30
0.0
 11
91.0
 21
4.6811049371393363
 31
0.0
  0
VIEWPORT
  5
22
 67
     1
  8
0
 10
261.51769911504419
 20
148.5
 30
0.0
 40
523.0353982300885
 41
297.0
 68
     1
 69
     1
1001
ACAD
1000
MVIEW
1002
{
1070
    16
1010
0.0
1020
0.0
1030
0.0
1010
0.0
1020
0.0
1030
1.0
1040
0.0
1040
297.0
1040
261.51769911504419
1040
148.5
1040
50.0
1040
0.0
1040
0.0
1070
     0
1070
   100
1070
     1
1070
     1
1070
     0
1070
     0
1070
     0
1070
     0
1040
0.0
1040
0.0
1040
0.0
1040
1.0
1040
1.0
1040
10.0
1040
10.0
1070
     0
1002
{
1002
}
1002
}
1001
GENIUS_GENODEF_13
1002
{
1000
HIER
1070
     0
1002
}
1002
{
1000
MANEDIT
1070
     0
1002
}
1002
{
1000
NOSEL
1070
     0
1002
}
1002
{
1000
BEHIND
1070
     0
1002
}
1002
{
1000
OTHER
1070
     0
1002
}
1002
{
1000
REACTOR
1002
}
1001
GENIUS_GENOBJ-N-SDF_13
1002
{
1000
OWNER
1000
GEN
1002
}
1001
GENIUS_GENSCREG_15
1000
PF
1040
1.0
1000
DF
1040
1.0
1000
MIN
1011
0.0
1021
0.0
1031
0.0
1021
0.0
1031
0.0
1000
MAX
1011
523.0353982300885
1021
0.0
1031
0.0
1021
297.0
1031
0.0
1000
FLAGS
1070
     4
  0
ENDSEC
  0
EOF
