  0
SECTION
  2
HEADER
  9
$ACADVER
  1
AC1009
  9
$INSBASE
 10
0.0
 20
0.0
 30
0.0
  9
$EXTMIN
 10
-109.0000000000012932
 20
-12.7000000000000099
 30
0.0
  9
$EXTMAX
 10
18.0
 20
47.0000000000000071
 30
0.0
  9
$LIMMIN
 10
0.0
 20
0.0
  9
$LIMMAX
 10
297.0
 20
210.0
  9
$ORTHOMODE
 70
     0
  9
$REGENMODE
 70
     1
  9
$FILLMODE
 70
     1
  9
$QTEXTMODE
 70
     0
  9
$MIRRTEXT
 70
     1
  9
$DRAGMODE
 70
     2
  9
$LTSCALE
 40
10.0
  9
$OSMODE
 70
   807
  9
$ATTMODE
 70
     1
  9
$TEXTSIZE
 40
3.0
  9
$TRACEWID
 40
1.0
  9
$TEXTSTYLE
  7
YOKO
  9
$CLAYER
  8
240
  9
$CELTYPE
  6
BYLAYER
  9
$CECOLOR
 62
   256
  9
$DIMSCALE
 40
1.0
  9
$DIMASZ
 40
2.2299999999999991
  9
$DIMEXO
 40
0.5
  9
$DIMDLI
 40
7.0
  9
$DIMRND
 40
0.0
  9
$DIMDLE
 40
0.0
  9
$DIMEXE
 40
1.0
  9
$DIMTP
 40
0.0
  9
$DIMTM
 40
0.01
  9
$DIMTXT
 40
2.7999999999999989
  9
$DIMCEN
 40
0.0
  9
$DIMTSZ
 40
0.0
  9
$DIMTOL
 70
     0
  9
$DIMLIM
 70
     0
  9
$DIMTIH
 70
     0
  9
$DIMTOH
 70
     0
  9
$DIMSE1
 70
     0
  9
$DIMSE2
 70
     0
  9
$DIMTAD
 70
     3
  9
$DIMZIN
 70
     9
  9
$DIMBLK
  1
OPEN
  9
$DIMASO
 70
     1
  9
$DIMSHO
 70
     1
  9
$DIMPOST
  1

  9
$DIMAPOST
  1

  9
$DIMALT
 70
     0
  9
$DIMALTD
 70
     2
  9
$DIMALTF
 40
25.3999999999999986
  9
$DIMLFAC
 40
1.0
  9
$DIMTOFL
 70
     1
  9
$DIMTVP
 40
0.0
  9
$DIMTIX
 70
     1
  9
$DIMSOXD
 70
     0
  9
$DIMSAH
 70
     0
  9
$DIMBLK1
  1

  9
$DIMBLK2
  1

  9
$DIMSTYLE
  2
BIGT
  9
$DIMCLRD
 70
   256
  9
$DIMCLRE
 70
   256
  9
$DIMCLRT
 70
    40
  9
$DIMTFAC
 40
1.0
  9
$DIMGAP
 40
1.0
  9
$LUNITS
 70
     2
  9
$LUPREC
 70
     3
  9
$SKETCHINC
 40
1.0
  9
$FILLETRAD
 40
0.0
  9
$AUNITS
 70
     0
  9
$AUPREC
 70
     3
  9
$MENU
  1
.
  9
$ELEVATION
 40
0.0
  9
$PELEVATION
 40
0.0
  9
$THICKNESS
 40
0.0
  9
$LIMCHECK
 70
     0
  9
$BLIPMODE
 70
     0
  9
$CHAMFERA
 40
0.25
  9
$CHAMFERB
 40
0.25
  9
$SKPOLY
 70
     0
  9
$TDCREATE
 40
2458193.7620486109517515
  9
$TDUPDATE
 40
2458194.6849305559881032
  9
$TDINDWG
 40
0.0275115741
  9
$TDUSRTIMER
 40
0.0275115741
  9
$USRTIMER
 70
     1
  9
$ANGBASE
 50
0.0
  9
$ANGDIR
 70
     0
  9
$PDMODE
 70
     1
  9
$PDSIZE
 40
0.0
  9
$PLINEWID
 40
0.0
  9
$COORDS
 70
     1
  9
$SPLFRAME
 70
     0
  9
$SPLINETYPE
 70
     6
  9
$SPLINESEGS
 70
     4
  9
$ATTDIA
 70
     1
  9
$ATTREQ
 70
     1
  9
$HANDLING
 70
     1
  9
$HANDSEED
  5
1CBB
  9
$SURFTAB1
 70
     6
  9
$SURFTAB2
 70
     6
  9
$SURFTYPE
 70
     6
  9
$SURFU
 70
     6
  9
$SURFV
 70
     6
  9
$UCSNAME
  2

  9
$UCSORG
 10
0.0
 20
0.0
 30
0.0
  9
$UCSXDIR
 10
1.0
 20
0.0
 30
0.0
  9
$UCSYDIR
 10
0.0
 20
1.0
 30
0.0
  9
$PUCSNAME
  2

  9
$PUCSORG
 10
0.0
 20
0.0
 30
0.0
  9
$PUCSXDIR
 10
1.0
 20
0.0
 30
0.0
  9
$PUCSYDIR
 10
0.0
 20
1.0
 30
0.0
  9
$USERI1
 70
     1
  9
$USERI2
 70
     0
  9
$USERI3
 70
     0
  9
$USERI4
 70
     0
  9
$USERI5
 70
     0
  9
$USERR1
 40
0.0
  9
$USERR2
 40
0.0
  9
$USERR3
 40
0.0
  9
$USERR4
 40
0.0
  9
$USERR5
 40
0.0
  9
$WORLDVIEW
 70
     1
  9
$SHADEDGE
 70
     3
  9
$SHADEDIF
 70
    70
  9
$TILEMODE
 70
     1
  9
$MAXACTVP
 70
    16
  9
$PLIMCHECK
 70
     0
  9
$PEXTMIN
 10
1.0000000000000000E+20
 20
1.0000000000000000E+20
 30
1.0000000000000000E+20
  9
$PEXTMAX
 10
-1.0000000000000000E+20
 20
-1.0000000000000000E+20
 30
-1.0000000000000000E+20
  9
$PLIMMIN
 10
0.0
 20
0.0
  9
$PLIMMAX
 10
420.0
 20
297.0
  9
$UNITMODE
 70
     0
  9
$VISRETAIN
 70
     1
  9
$PLINEGEN
 70
     0
  9
$PSLTSCALE
 70
     1
  0
ENDSEC
  0
SECTION
  2
TABLES
  0
TABLE
  2
VPORT
 70
     1
  0
VPORT
  2
*ACTIVE
 70
     0
 10
0.0
 20
0.0
 11
1.0
 21
1.0
 12
-19.7986016523878696
 22
1.622413874163569
 13
0.0
 23
0.0
 14
7.0
 24
7.0
 15
7.0
 25
7.0
 16
0.0
 26
0.0
 36
1.0
 17
0.0
 27
0.0
 37
0.0
 40
144.0273132887579095
 41
1.8592342342342341
 42
50.0
 43
0.0
 44
0.0
 50
0.0
 51
0.0
 71
     0
 72
  2000
 73
     1
 74
     0
 75
     0
 76
     1
 77
     0
 78
     0
  0
ENDTAB
  0
TABLE
  2
LTYPE
 70
    16
  0
LTYPE
  2
CONTINUOUS
 70
     0
  3
Solid line
 72
    65
 73
     0
 40
0.0
  0
LTYPE
  2
CENTER2
 70
     0
  3
___ _ ___ _ ___ _ ___ _ ___ _ ___ _ ___ _ ___ _
 72
    65
 73
     4
 40
1.125
 49
0.75
 49
-0.125
 49
0.125
 49
-0.125
  0
LTYPE
  2
HIDDEN2
 70
     0
  3
_ _ _ _ _ _ _ _ _ _ _ _ _ _ _ _ _ _ _ _ _ _ _ _
 72
    65
 73
     2
 40
0.1875
 49
0.125
 49
-0.0625
  0
LTYPE
  2
PHANTOM2
 70
     0
  3
___ _ _ ___ _ _ ___ _ _ ___ _ _ ___ _ _ ___ _ _
 72
    65
 73
     6
 40
1.25
 49
0.625
 49
-0.125
 49
0.125
 49
-0.125
 49
0.125
 49
-0.125
  0
LTYPE
  2
CENTER
 70
     0
  3
____ _ ____ _ ____ _ ____ _ ____ _ ____ _ ____ 
 72
    65
 73
     4
 40
2.0
 49
1.25
 49
-0.25
 49
0.25
 49
-0.25
  0
LTYPE
  2
AM_ISO02W050
 70
     0
  3
__ __ __ __ __ __ __ __ __ __ __ __ __ __ __
 72
    65
 73
     2
 40
7.5
 49
6.0
 49
-1.5
  0
LTYPE
  2
AMCONSTR
 70
     0
  3
_______________________
 72
    65
 73
     2
 40
9999.0
 49
9999.0
 49
0.0
  0
LTYPE
  2
ACISOWELD
 70
     0
  3
_ _ _ _ _
 72
    65
 73
     2
 40
2.0
 49
2.0
 49
-1.0
  0
LTYPE
  2
ACISOTGB
 70
     0
  3
__ . . __ . .
 72
    65
 73
     6
 40
9.0
 49
4.0
 49
-1.0
 49
1.0
 49
-1.0
 49
1.0
 49
-1.0
  0
LTYPE
  2
ACISOTGL
 70
     0
  3
_ _ _ _ _
 72
    65
 73
     2
 40
3.0
 49
2.0
 49
-1.0
  0
LTYPE
  2
ACJISTGB
 70
     0
  3
__ . . __ . .
 72
    65
 73
     6
 40
9.0
 49
4.0
 49
-1.0
 49
1.0
 49
-1.0
 49
1.0
 49
-1.0
  0
LTYPE
  2
ACJISTGL
 70
     0
  3
_ _ _ _ _
 72
    65
 73
     2
 40
3.0
 49
2.0
 49
-1.0
  0
LTYPE
  2
HIDDEN
 70
     0
  3
Hidden __ __ __ __ __ __ __ __ __ __ __ __ __ _
 72
    65
 73
     2
 40
9.5249999999999986
 49
6.3499999999999988
 49
-3.1749999999999989
  0
LTYPE
  2
AMZIGZAG2
 70
     0
  3
/\/-/\/-/\/-/\/-/\/-/\/
 72
    65
 73
     2
 40
0.4401
 49
0.0001
 49
-0.4400000000000001
  0
LTYPE
  2
ACANSTGB
 70
     0
  3
__ . . __ . .
 72
    65
 73
     6
 40
0.35433070866
 49
0.15748031496
 49
-0.03937007874
 49
0.03937007874
 49
-0.03937007874
 49
0.03937007874
 49
-0.03937007874
  0
LTYPE
  2
ACANSTGL
 70
     0
  3
_ _ _ _ _
 72
    65
 73
     2
 40
0.11811023622
 49
0.07874015748
 49
-0.03937007874
  0
ENDTAB
  0
TABLE
  2
LAYER
 70
     8
  0
LAYER
  2
0
 70
     0
 62
     7
  6
CONTINUOUS
  0
LAYER
  2
DEFPOINTS
 70
     0
 62
     7
  6
CONTINUOUS
  0
LAYER
  2
245
 70
     0
 62
     2
  6
CENTER2
  0
LAYER
  2
240
 70
     0
 62
     4
  6
CONTINUOUS
  0
LAYER
  2
241
 70
     0
 62
   211
  6
CONTINUOUS
  0
LAYER
  2
243
 70
     0
 62
   211
  6
HIDDEN2
  0
LAYER
  2
247
 70
     0
 62
    60
  6
CONTINUOUS
  0
LAYER
  2
250
 70
     0
 62
     3
  6
CONTINUOUS
  0
ENDTAB
  0
TABLE
  2
STYLE
 70
     8
  0
STYLE
  2
STANDARD
 70
     0
 40
0.0
 41
1.0
 50
0.0
 71
     0
 42
3.0
  3
romans.shx
  4
extfont.shx
  0
STYLE
  2
ACISOTS
 70
     0
 40
1.0
 41
1.0
 50
0.0
 71
     0
 42
3.0
  3
amgdt.shx
  4
extfont.shx
  0
STYLE
  2
ACISOGDT
 70
     0
 40
0.0
 41
1.0
 50
0.0
 71
     0
 42
3.0
  3
amgdt.shx
  4
extfont.shx
  0
STYLE
  2
ACJISTS
 70
     0
 40
1.0
 41
1.0
 50
0.0
 71
     0
 42
3.0
  3
amgdt.shx
  4
extfont.shx
  0
STYLE
  2
ACJISGDT
 70
     0
 40
0.0
 41
1.0
 50
0.0
 71
     0
 42
3.0
  3
amgdt.shx
  4
extfont.shx
  0
STYLE
  2
YOKO
 70
     0
 40
0.0
 41
1.0
 50
0.0
 71
     0
 42
3.0
  3
romans.shx
  4
extfont.shx
  0
STYLE
  2

 70
     1
 40
0.0
 41
1.0
 50
0.0
 71
     0
 42
3.0
  3
genltshp.shx
  4

  0
STYLE
  2
ACANSGDT
 70
     0
 40
0.0
 41
1.0
 50
0.0
 71
     0
 42
3.0
  3
amgdt.shx
  4

  0
ENDTAB
  0
TABLE
  2
VIEW
 70
     0
  0
ENDTAB
  0
TABLE
  2
UCS
 70
     0
  0
ENDTAB
  0
TABLE
  2
APPID
 70
    43
  0
APPID
  2
ACAD
 70
     0
  0
APPID
  2
GLOBAL
 70
     0
  0
APPID
  2
DETAIL
 70
     0
  0
APPID
  2
GRPNAME
 70
     0
  0
APPID
  2
GPARA
 70
     0
  0
APPID
  2
MCAD_NO_VIS
 70
     0
  0
APPID
  2
ACAD_TEMP_GRAPHIC
 70
     0
  0
APPID
  2
ACATTRIBSERVICES
 70
     0
  0
APPID
  2
GENIUS_GENSCREG_15
 70
     0
  0
APPID
  2
GENIUS_GENODEF_13
 70
     0
  0
APPID
  2
GENIUS_GENOBJ-N-SDF_13
 70
     0
  0
APPID
  2
GENIUS_GENREC_14
 70
     0
  0
APPID
  2
GENIUS_GENOBJ-N-REC_13
 70
     0
  0
APPID
  2
GENIUS_GENDIMSH_14
 70
     0
  0
APPID
  2
GENIUS_GENOBJ-N-DIM_13
 70
     0
  0
APPID
  2
GENIUS_GENDIM_13
 70
     0
  0
APPID
  2
GENIUS_GENDTOL_13
 70
     0
  0
APPID
  2
GENIUS_GENOLIS_13
 70
     0
  0
APPID
  2
GENIUS_GENOENT_13
 70
     0
  0
APPID
  2
GENIUS_GENOBJ-F-FEM_13
 70
     0
  0
APPID
  2
GENIUS_GENOREF_13
 70
     0
  0
APPID
  2
GENIUS_GEFFEM_13
 70
     0
  0
APPID
  2
GENIUS_GEFFEMP_13
 70
     0
  0
APPID
  2
AD_DRAW
 70
     0
  0
APPID
  2
DESIGNERASSEMBLIES
 70
     0
  0
APPID
  2
ACADM_DIM_EDIT
 70
     0
  0
APPID
  2
AMDT_DM_ADJ
 70
     0
  0
APPID
  2
ACAD_NAV_VCDISPLAY
 70
     0
  0
APPID
  2
HATCH_TYPE
 70
     0
  0
APPID
  2
HATCH_DISPLAY
 70
     0
  0
APPID
  2
HATCH_DISTANCE
 70
     0
  0
APPID
  2
ACAD_DSTYLE_DIMJAG
 70
     0
  0
APPID
  2
ACAD_DSTYLE_DIMBREAK
 70
     0
  0
APPID
  2
ACAECLAYERSTANDARD
 70
     0
  0
APPID
  2
GENIUS_GENOBJ-N-FIL_13
 70
     0
  0
APPID
  2
ACAD_MLEADERVER
 70
     0
  0
APPID
  2
ACAD_DSTYLE_DIMARC_LENGTH_
 70
     0
  0
APPID
  2
ACAD_DSTYLE_DIM_LINETYPE
 70
     0
  0
APPID
  2
ACAD_DSTYLE_DIM_EXT1_LINETYPE
 70
     0
  0
APPID
  2
ACAD_DSTYLE_DIM_EXT2_LINETYPE
 70
     0
  0
APPID
  2
ACAD_EXEMPT_FROM_CAD_STANDARDS
 70
     0
  0
APPID
  2
ACAD_DSTYLE_DIMINSPECT
 70
     0
  0
APPID
  2
ACADANNOMONITORALERTICONDI
 70
     0
  0
ENDTAB
  0
TABLE
  2
DIMSTYLE
 70
    29
  0
DIMSTYLE
  2
BIGT
 70
     0
  3

  4

  5
OPEN
  6

  7

 40
1.0
 41
2.2299999999999991
 42
0.5
 43
7.0
 44
1.0
 45
0.0
 46
0.0
 47
0.0
 48
0.01
140
2.7999999999999989
141
0.0
142
0.0
143
25.3999999999999986
144
1.0
145
0.0
146
1.0
147
1.0
 71
     0
 72
     0
 73
     0
 74
     0
 75
     0
 76
     0
 77
     3
 78
     9
170
     0
171
     2
172
     1
173
     0
174
     1
175
     0
176
   256
177
   256
178
    40
  0
DIMSTYLE
  2
AM_ISO
 70
     0
  3

  4
"
  5

  6

  7

 40
1.0
 41
2.5
 42
1.0
 43
10.0
 44
1.0
 45
0.0
 46
0.0
 47
0.1
 48
0.1
140
3.5
141
0.0
142
0.0
143
0.0393701
144
1.0
145
0.0
146
0.71
147
1.5
 71
     0
 72
     0
 73
     0
 74
     0
 75
     0
 76
     0
 77
     1
 78
     8
170
     0
171
     2
172
     1
173
     0
174
     0
175
     0
176
   256
177
   256
178
     2
  0
DIMSTYLE
  2
AM_ISO$3
 70
     0
  3

  4
"
  5

  6

  7

 40
1.0
 41
2.5
 42
1.0
 43
10.0
 44
1.0
 45
0.0
 46
0.0
 47
0.1
 48
0.1
140
3.5
141
0.0
142
0.0
143
0.0393701
144
1.0
145
0.0
146
0.71
147
1.5
 71
     0
 72
     0
 73
     0
 74
     1
 75
     0
 76
     0
 77
     1
 78
     8
170
     0
171
     2
172
     0
173
     0
174
     0
175
     0
176
   256
177
   256
178
     2
  0
DIMSTYLE
  2
AM_ISO$4
 70
     0
  3

  4
"
  5

  6

  7

 40
1.0
 41
2.5
 42
1.0
 43
10.0
 44
1.0
 45
0.0
 46
0.0
 47
0.1
 48
0.1
140
3.5
141
0.0
142
0.0
143
0.0393701
144
1.0
145
0.0
146
0.71
147
1.5
 71
     0
 72
     0
 73
     0
 74
     1
 75
     0
 76
     0
 77
     1
 78
     8
170
     0
171
     2
172
     0
173
     0
174
     0
175
     0
176
   256
177
   256
178
     2
  0
DIMSTYLE
  2
AM_ISO$6
 70
     0
  3

  4
"
  5

  6

  7

 40
1.0
 41
2.5
 42
1.0
 43
10.0
 44
1.0
 45
0.0
 46
0.0
 47
0.1
 48
0.1
140
3.5
141
0.0
142
0.0
143
0.0393701
144
1.0
145
0.0
146
0.71
147
1.5
 71
     0
 72
     0
 73
     0
 74
     0
 75
     0
 76
     0
 77
     0
 78
     8
170
     0
171
     2
172
     1
173
     0
174
     0
175
     0
176
   256
177
   256
178
     2
  0
DIMSTYLE
  2
AM_ISO$7
 70
     0
  3

  4
"
  5

  6

  7

 40
1.0
 41
2.5
 42
1.0
 43
10.0
 44
1.0
 45
0.0
 46
0.0
 47
0.1
 48
0.1
140
5.0
141
0.0
142
0.0
143
0.0393701
144
1.0
145
0.0
146
0.71
147
1.5
 71
     0
 72
     0
 73
     0
 74
     0
 75
     0
 76
     0
 77
     1
 78
     8
170
     0
171
     2
172
     1
173
     0
174
     0
175
     0
176
   256
177
   256
178
     2
  0
DIMSTYLE
  2
AM_ISO$SF
 70
     0
  3

  4
"
  5

  6

  7

 40
1.0
 41
2.5
 42
1.0
 43
10.0
 44
1.0
 45
0.0
 46
0.0
 47
0.1
 48
0.1
140
3.5
141
0.0
142
0.0
143
0.0393701
144
1.0
145
0.0
146
0.71
147
1.5
 71
     0
 72
     0
 73
     0
 74
     0
 75
     1
 76
     1
 77
     1
 78
     8
170
     0
171
     2
172
     1
173
     0
174
     0
175
     0
176
   256
177
   256
178
     2
  0
DIMSTYLE
  2
AM_ISO$SH
 70
     0
  3

  4
"
  5

  6
GENAXEH
  7

 40
1.0
 41
2.5
 42
1.0
 43
10.0
 44
1.0
 45
0.0
 46
0.0
 47
0.1
 48
0.1
140
3.5
141
0.0
142
0.0
143
0.0393701
144
2.0
145
0.0
146
0.71
147
1.5
 71
     0
 72
     0
 73
     0
 74
     0
 75
     1
 76
     1
 77
     1
 78
     8
170
     0
171
     2
172
     1
173
     1
174
     0
175
     0
176
   256
177
   256
178
     2
  0
DIMSTYLE
  2
BIGT$2
 70
     0
  3

  4

  5
OPEN
  6

  7

 40
1.0
 41
2.2299999999999991
 42
0.5
 43
7.0
 44
1.0
 45
0.0
 46
0.0
 47
0.0
 48
0.01
140
2.7999999999999989
141
0.0
142
0.0
143
25.3999999999999986
144
1.0
145
0.0
146
1.0
147
1.0
 71
     0
 72
     0
 73
     0
 74
     0
 75
     0
 76
     0
 77
     3
 78
     9
170
     0
171
     2
172
     1
173
     0
174
     0
175
     0
176
   256
177
   256
178
    40
  0
DIMSTYLE
  2
BIGT$3
 70
     0
  3

  4

  5
OPEN
  6

  7

 40
1.0
 41
2.2299999999999991
 42
0.5
 43
2.5
 44
1.0
 45
0.0
 46
0.0
 47
0.0
 48
0.01
140
2.7999999999999989
141
0.0
142
0.0
143
25.3999999999999986
144
1.0
145
0.0
146
1.0
147
1.0
 71
     0
 72
     0
 73
     0
 74
     0
 75
     0
 76
     0
 77
     3
 78
     9
170
     0
171
     2
172
     1
173
     0
174
     0
175
     0
176
   256
177
   256
178
    40
  0
DIMSTYLE
  2
BIGT$7
 70
     0
  3

  4

  5
OPEN
  6

  7

 40
0.0
 41
2.2299999999999991
 42
0.5
 43
7.0
 44
1.0
 45
0.0
 46
0.0
 47
0.0
 48
0.01
140
2.7999999999999989
141
0.0
142
0.0
143
25.3999999999999986
144
1.0
145
0.0
146
1.0
147
1.0
 71
     0
 72
     0
 73
     0
 74
     0
 75
     0
 76
     0
 77
     3
 78
     9
170
     0
171
     2
172
     0
173
     0
174
     0
175
     0
176
   256
177
   256
178
    40
  0
DIMSTYLE
  2
BIGT$6
 70
     0
  3

  4

  5
OPEN
  6

  7

 40
1.0
 41
2.2299999999999991
 42
0.5
 43
2.5
 44
1.0
 45
0.0
 46
0.0
 47
0.0
 48
0.01
140
2.7999999999999989
141
0.0
142
0.0
143
25.3999999999999986
144
1.0
145
0.0
146
1.0
147
1.0
 71
     0
 72
     0
 73
     0
 74
     0
 75
     0
 76
     0
 77
     3
 78
     9
170
     0
171
     2
172
     1
173
     0
174
     0
175
     0
176
   256
177
   256
178
    40
  0
DIMSTYLE
  2
BIGT$0
 70
     0
  3

  4

  5
OPEN
  6

  7

 40
1.0
 41
2.2299999999999991
 42
0.5
 43
7.0
 44
1.0
 45
0.0
 46
0.0
 47
0.0
 48
0.01
140
2.7999999999999989
141
0.0
142
0.0
143
25.3999999999999986
144
1.0
145
0.0
146
1.0
147
1.0
 71
     0
 72
     0
 73
     0
 74
     0
 75
     0
 76
     0
 77
     3
 78
     9
170
     0
171
     2
172
     1
173
     0
174
     0
175
     0
176
   256
177
   256
178
    40
  0
DIMSTYLE
  2
BIGT$4
 70
     0
  3

  4

  5
OPEN
  6

  7

 40
1.0
 41
2.2299999999999991
 42
0.5
 43
2.5
 44
1.0
 45
0.0
 46
0.0
 47
0.0
 48
0.01
140
2.7999999999999989
141
0.0
142
0.0
143
25.3999999999999986
144
1.0
145
0.0
146
1.0
147
1.0
 71
     0
 72
     0
 73
     0
 74
     0
 75
     0
 76
     0
 77
     3
 78
     9
170
     0
171
     2
172
     1
173
     0
174
     0
175
     0
176
   256
177
   256
178
    40
  0
DIMSTYLE
  2
BIGT$SH
 70
     0
  3

  4

  5
OPEN
  6

  7

 40
1.0
 41
2.2299999999999991
 42
0.5
 43
7.0
 44
1.0
 45
0.0
 46
0.0
 47
0.0
 48
0.0
140
2.7999999999999989
141
0.0
142
0.0
143
25.3999999999999986
144
1.0
145
0.0
146
1.0
147
1.0
 71
     0
 72
     0
 73
     0
 74
     0
 75
     0
 76
     0
 77
     3
 78
     9
170
     0
171
     2
172
     1
173
     0
174
     0
175
     0
176
   256
177
   256
178
    40
  0
DIMSTYLE
  2
BIGT$SF
 70
     0
  3

  4

  5
OPEN
  6

  7

 40
1.0
 41
2.2299999999999991
 42
0.5
 43
7.0
 44
1.0
 45
0.0
 46
0.0
 47
0.0
 48
0.0
140
2.7999999999999989
141
0.0
142
0.0
143
25.3999999999999986
144
1.0
145
0.0
146
1.0
147
1.0
 71
     0
 72
     0
 73
     0
 74
     0
 75
     0
 76
     0
 77
     3
 78
     9
170
     0
171
     2
172
     1
173
     0
174
     0
175
     0
176
   256
177
   256
178
    40
  0
DIMSTYLE
  2
TECHNICAL_OSAKA
 70
     0
  3

  4
"
  5
OPEN30
  6

  7

 40
1.0
 41
2.5
 42
1.0
 43
10.0
 44
1.0
 45
0.0
 46
0.0
 47
0.1
 48
0.1
140
2.7999999999999989
141
0.0
142
0.0
143
0.0393701
144
1.0
145
0.0
146
0.71
147
1.5
 71
     0
 72
     0
 73
     0
 74
     0
 75
     0
 76
     0
 77
     3
 78
     8
170
     0
171
     2
172
     1
173
     0
174
     0
175
     0
176
   256
177
   256
178
    40
  0
DIMSTYLE
  2
TECHNICAL_OSAKA$3
 70
     0
  3

  4
"
  5
OPEN30
  6

  7

 40
1.0
 41
2.5
 42
1.0
 43
10.0
 44
1.0
 45
0.0
 46
0.0
 47
0.1
 48
0.1
140
2.7999999999999989
141
0.0
142
0.0
143
0.0393701
144
1.0
145
0.0
146
0.71
147
1.5
 71
     0
 72
     0
 73
     0
 74
     1
 75
     0
 76
     0
 77
     3
 78
     8
170
     0
171
     2
172
     0
173
     0
174
     0
175
     0
176
   256
177
   256
178
    40
  0
DIMSTYLE
  2
TECHNICAL_OSAKA$4
 70
     0
  3

  4
"
  5
OPEN30
  6

  7

 40
1.0
 41
2.5
 42
1.0
 43
10.0
 44
1.0
 45
0.0
 46
0.0
 47
0.1
 48
0.1
140
2.7999999999999989
141
0.0
142
0.0
143
0.0393701
144
1.0
145
0.0
146
0.71
147
1.5
 71
     0
 72
     0
 73
     0
 74
     1
 75
     0
 76
     0
 77
     3
 78
     8
170
     0
171
     2
172
     0
173
     0
174
     0
175
     0
176
   256
177
   256
178
    40
  0
DIMSTYLE
  2
TECHNICAL_OSAKA$6
 70
     0
  3

  4
"
  5
OPEN30
  6

  7

 40
1.0
 41
2.5
 42
1.0
 43
10.0
 44
1.0
 45
0.0
 46
0.0
 47
0.1
 48
0.1
140
2.7999999999999989
141
0.0
142
0.0
143
0.0393701
144
1.0
145
0.0
146
0.71
147
1.5
 71
     0
 72
     0
 73
     0
 74
     0
 75
     0
 76
     0
 77
     0
 78
     8
170
     0
171
     2
172
     1
173
     0
174
     0
175
     0
176
   256
177
   256
178
    40
  0
DIMSTYLE
  2
TECHNICAL_OSAKA$7
 70
     0
  3

  4
"
  5
OPEN30
  6

  7

 40
1.0
 41
2.5
 42
1.0
 43
10.0
 44
1.0
 45
0.0
 46
0.0
 47
0.1
 48
0.1
140
2.7999999999999989
141
0.0
142
0.0
143
0.0393701
144
1.0
145
0.0
146
0.71
147
1.5
 71
     0
 72
     0
 73
     0
 74
     0
 75
     0
 76
     0
 77
     3
 78
     8
170
     0
171
     2
172
     1
173
     0
174
     0
175
     0
176
   256
177
   256
178
    40
  0
DIMSTYLE
  2
TECHNICAL_OSAKA$SF
 70
     0
  3

  4
"
  5
OPEN30
  6
OPEN30
  7
OPEN30
 40
1.0
 41
2.5
 42
1.0
 43
10.0
 44
1.0
 45
0.0
 46
0.0
 47
0.1
 48
0.1
140
3.5
141
0.0
142
0.0
143
0.0393701
144
1.0
145
0.0
146
0.71
147
1.5
 71
     0
 72
     0
 73
     0
 74
     0
 75
     1
 76
     1
 77
     3
 78
     8
170
     0
171
     2
172
     1
173
     0
174
     0
175
     0
176
   256
177
   256
178
    40
  0
DIMSTYLE
  2
TECHNICAL_OSAKA$SH
 70
     0
  3

  4
"
  5
OPEN30
  6
GENAXEH
  7
OPEN30
 40
1.0
 41
2.5
 42
1.0
 43
10.0
 44
1.0
 45
0.0
 46
0.0
 47
0.1
 48
0.1
140
3.5
141
0.0
142
0.0
143
0.0393701
144
2.0
145
0.0
146
0.71
147
1.5
 71
     0
 72
     0
 73
     0
 74
     0
 75
     1
 76
     1
 77
     3
 78
     8
170
     0
171
     2
172
     1
173
     1
174
     0
175
     0
176
   256
177
   256
178
    40
  0
DIMSTYLE
  2
AM_ANSI
 70
     0
  3

  4
mm
  5

  6

  7

 40
1.0
 41
0.12
 42
0.05
 43
0.5
 44
0.1
 45
0.0
 46
0.0
 47
0.1
 48
0.1
140
0.12
141
0.0
142
0.0
143
25.3999999999999986
144
1.0
145
0.0
146
0.71
147
0.06
 71
     0
 72
     0
 73
     1
 74
     1
 75
     0
 76
     0
 77
     0
 78
     7
170
     0
171
     2
172
     0
173
     0
174
     0
175
     0
176
   256
177
   256
178
     3
  0
DIMSTYLE
  2
AM_ANSI$3
 70
     0
  3

  4
mm
  5

  6

  7

 40
1.0
 41
0.12
 42
0.05
 43
0.5
 44
0.1
 45
0.0
 46
0.0
 47
0.1
 48
0.1
140
0.12
141
0.0
142
0.0
143
25.3999999999999986
144
1.0
145
0.0
146
0.71
147
0.06
 71
     0
 72
     0
 73
     1
 74
     1
 75
     0
 76
     0
 77
     0
 78
     7
170
     0
171
     2
172
     0
173
     0
174
     0
175
     0
176
   256
177
   256
178
     3
  0
DIMSTYLE
  2
AM_ANSI$4
 70
     0
  3

  4
mm
  5

  6

  7

 40
1.0
 41
0.12
 42
0.05
 43
0.5
 44
0.1
 45
0.0
 46
0.0
 47
0.1
 48
0.1
140
0.12
141
0.0
142
0.0
143
25.3999999999999986
144
1.0
145
0.0
146
0.71
147
0.06
 71
     0
 72
     0
 73
     1
 74
     1
 75
     0
 76
     0
 77
     0
 78
     7
170
     0
171
     2
172
     0
173
     0
174
     0
175
     0
176
   256
177
   256
178
     3
  0
DIMSTYLE
  2
AM_ANSI$7
 70
     0
  3

  4
mm
  5

  6

  7

 40
1.0
 41
0.12
 42
0.05
 43
0.5
 44
0.1
 45
0.0
 46
0.0
 47
0.1
 48
0.1
140
0.12
141
0.0
142
0.0
143
25.3999999999999986
144
1.0
145
0.0
146
0.71
147
0.06
 71
     0
 72
     0
 73
     1
 74
     1
 75
     0
 76
     0
 77
     0
 78
     7
170
     0
171
     2
172
     0
173
     0
174
     0
175
     0
176
   256
177
   256
178
     3
  0
DIMSTYLE
  2
AM_ANSI$SF
 70
     0
  3

  4
mm
  5

  6

  7

 40
1.0
 41
0.12
 42
0.05
 43
0.5
 44
0.1
 45
0.0
 46
0.0
 47
0.1
 48
0.1
140
0.12
141
0.0
142
0.0
143
25.3999999999999986
144
1.0
145
0.0
146
0.71
147
0.06
 71
     0
 72
     0
 73
     1
 74
     1
 75
     1
 76
     1
 77
     0
 78
     7
170
     0
171
     2
172
     0
173
     0
174
     0
175
     0
176
   256
177
   256
178
     3
  0
DIMSTYLE
  2
AM_ANSI$SH
 70
     0
  3

  4
mm
  5

  6
GENAXEH
  7

 40
1.0
 41
0.12
 42
0.05
 43
0.5
 44
0.1
 45
0.0
 46
0.0
 47
0.1
 48
0.1
140
0.12
141
0.0
142
0.0
143
25.3999999999999986
144
1.0
145
0.0
146
0.71
147
0.06
 71
     0
 72
     0
 73
     1
 74
     1
 75
     1
 76
     1
 77
     0
 78
     7
170
     0
171
     2
172
     0
173
     1
174
     0
175
     0
176
   256
177
   256
178
     3
  0
ENDTAB
  0
ENDSEC
  0
SECTION
  2
BLOCKS
  0
BLOCK
  8
0
  2
$MODEL_SPACE
 70
     0
 10
0.0
 20
0.0
 30
0.0
  3
$MODEL_SPACE
  1

  0
ENDBLK
  5
1C
  8
0
  0
BLOCK
 67
     1
  8
0
  2
$PAPER_SPACE
 70
     0
 10
0.0
 20
0.0
 30
0.0
  3
$PAPER_SPACE
  1

  0
ENDBLK
  5
19
 67
     1
  8
0
  0
BLOCK
  8
0
  2
_OPEN
 70
     0
 10
0.0
 20
0.0
 30
0.0
  3
_OPEN
  1

  0
LINE
  5
595
  8
0
  6
BYBLOCK
 62
     0
 10
-1.0
 20
0.1666666666666666
 30
0.0
 11
0.0
 21
0.0
 31
0.0
  0
LINE
  5
596
  8
0
  6
BYBLOCK
 62
     0
 10
-1.0
 20
-0.1666666666666666
 30
0.0
 11
0.0
 21
0.0
 31
0.0
  0
LINE
  5
597
  8
0
  6
BYBLOCK
 62
     0
 10
0.0
 20
0.0
 30
0.0
 11
-1.0
 21
0.0
 31
0.0
  0
ENDBLK
  5
599
  8
0
  0
BLOCK
  8
0
  2
GENAXEH
 70
     0
 10
0.0
 20
0.0
 30
0.0
  3
GENAXEH
  1

  0
LINE
  5
6E8
  8
0
 10
-1.0
 20
0.0
 30
0.0
 11
1.0
 21
0.0
 31
0.0
  0
ENDBLK
  5
6EA
  8
0
  0
BLOCK
  8
0
  2
_OPEN30
 70
     0
 10
0.0
 20
0.0
 30
0.0
  3
_OPEN30
  1

  0
LINE
  5
E8F
  8
0
  6
BYBLOCK
 62
     0
 10
-1.0
 20
0.26794919
 30
0.0
 11
0.0
 21
0.0
 31
0.0
  0
LINE
  5
E90
  8
0
  6
BYBLOCK
 62
     0
 10
0.0
 20
0.0
 30
0.0
 11
-1.0
 21
-0.26794919
 31
0.0
  0
LINE
  5
E91
  8
0
  6
BYBLOCK
 62
     0
 10
0.0
 20
0.0
 30
0.0
 11
-1.0
 21
0.0
 31
0.0
  0
ENDBLK
  5
E93
  8
0
  0
BLOCK
  8
0
  2
_ACMOPEN15
 70
     0
 10
0.0
 20
0.0
 30
0.0
  3
_ACMOPEN15
  1

  0
LINE
  5
1359
  8
245
 62
     0
 10
-1.0
 20
0.0
 30
0.0
 11
0.0
 21
0.0
 31
0.0
  0
LINE
  5
135A
  8
245
 62
     0
 10
-1.0
 20
-0.131652497
 30
0.0
 11
0.0
 21
0.0
 31
0.0
  0
LINE
  5
135B
  8
245
 62
     0
 10
0.0
 20
0.0
 30
0.0
 11
-1.0
 21
0.131652497
 31
0.0
  0
ENDBLK
  5
1358
  8
0
  0
ENDSEC
  0
SECTION
  2
ENTITIES
  0
TEXT
  5
149C
  8
241
  6
CONTINUOUS
 10
-98.0
 20
42.0
 30
0.0
 40
5.0
  1
SL25.4-NBS8-80
  7
YOKO
 11
-98.0
 21
42.0
 31
0.0
 73
     1
  0
LINE
  5
1503
  8
240
  6
CONTINUOUS
 10
-84.7999999999999972
 20
-12.6999999999999993
 30
0.0
 11
-15.5000000000002096
 21
-12.6999999999999993
 31
0.0
  0
LINE
  5
1504
  8
240
  6
CONTINUOUS
 10
-84.7999999999999829
 20
12.6999999999999993
 30
0.0
 11
-15.5000000000002096
 21
12.6999999999999993
 31
0.0
  0
LINE
  5
1505
  8
245
  6
CENTER2
 10
-98.3062576236886656
 20
0.0
 30
0.0
 11
1.7624837724190441
 21
0.0
 31
0.0
  0
LINE
  5
1506
  8
240
  6
CONTINUOUS
 10
-96.5
 20
-10.5
 30
0.0
 11
-96.0
 21
-11.0
 31
0.0
  0
LINE
  5
1507
  8
240
  6
CONTINUOUS
 10
-96.0
 20
11.0
 30
0.0
 11
-96.5
 21
10.5
 31
0.0
  0
LINE
  5
1508
  8
240
  6
CONTINUOUS
 10
-96.5
 20
-10.5
 30
0.0
 11
-96.5
 21
10.5
 31
0.0
  0
LINE
  5
1509
  8
240
  6
CONTINUOUS
 10
-84.7999999999999972
 20
-12.6999999999999993
 30
0.0
 11
-86.4999999999999574
 21
-11.0
 31
0.0
  0
LINE
  5
150A
  8
240
  6
CONTINUOUS
 10
-96.0
 20
-11.0
 30
0.0
 11
-86.4999999999999574
 21
-11.0
 31
0.0
  0
LINE
  5
150B
  8
240
  6
CONTINUOUS
 10
-96.0
 20
11.0
 30
0.0
 11
-86.4999999999999858
 21
11.0
 31
0.0
  0
LINE
  5
150C
  8
240
  6
CONTINUOUS
 10
-84.7999999999999829
 20
12.6999999999999993
 30
0.0
 11
-86.4999999999999858
 21
11.0
 31
0.0
  0
LINE
  5
1652
  8
240
  6
CONTINUOUS
 10
-11.0
 20
-8.0000000000000462
 30
0.0
 11
-15.5000000000002096
 21
-8.0000000000000391
 31
0.0
  0
LINE
  5
1653
  8
240
  6
CONTINUOUS
 10
-15.5000000000002096
 20
-12.6999999999999993
 30
0.0
 11
-15.5000000000002096
 21
-8.0000000000000391
 31
0.0
  0
LINE
  5
1654
  8
240
  6
CONTINUOUS
 10
-15.5000000000002096
 20
12.6999999999999993
 30
0.0
 11
-15.5000000000002096
 21
7.9999999999999538
 31
0.0
  0
LINE
  5
1655
  8
243
  6
HIDDEN2
 10
0.0000000000035669
 20
5.3262395692969466
 30
0.0
 11
-1.699999999996578
 21
6.3077350269188823
 31
0.0
  0
LINE
  5
1656
  8
243
  6
HIDDEN2
 10
-1.699999999996578
 20
5.2500000000001039
 30
0.0
 11
-1.699999999996578
 21
6.3077350269188823
 31
0.0
  0
LINE
  5
1657
  8
243
  6
HIDDEN2
 10
-3.5999999999964909
 20
6.2522501646376076
 30
0.0
 11
-3.599999999996597
 21
5.249999999999976
 31
0.0
  0
LINE
  5
1658
  8
243
  6
HIDDEN2
 10
-1.699999999996578
 20
5.2500000000001039
 30
0.0
 11
-3.599999999996597
 21
5.249999999999976
 31
0.0
  0
LINE
  5
1659
  8
243
  6
HIDDEN2
 10
-3.5999999999964909
 20
6.2522501646376076
 30
0.0
 11
-18.0000000000002096
 21
4.7387491768115106
 31
0.0
  0
LINE
  5
165A
  8
240
  6
CONTINUOUS
 10
-11.0000000000000995
 20
-12.5000000000000107
 30
0.0
 11
-11.0
 21
-8.0000000000000462
 31
0.0
  0
LINE
  5
165B
  8
240
  6
CONTINUOUS
 10
-11.0000000000000995
 20
-12.5000000000000107
 30
0.0
 11
0.0
 21
-12.4999999999999893
 31
0.0
  0
LINE
  5
165C
  8
240
  6
CONTINUOUS
 10
0.0
 20
12.4999999999999893
 30
0.0
 11
0.0
 21
-12.4999999999999893
 31
0.0
  0
LINE
  5
165D
  8
240
  6
CONTINUOUS
 10
-11.0000000000000995
 20
12.4999999999999893
 30
0.0
 11
0.0
 21
12.4999999999999893
 31
0.0
  0
LINE
  5
165E
  8
240
  6
CONTINUOUS
 10
-11.0000000000000995
 20
7.9999999999999662
 30
0.0
 11
-15.5000000000002096
 21
7.9999999999999538
 31
0.0
  0
LINE
  5
165F
  8
240
  6
CONTINUOUS
 10
-11.0000000000000995
 20
12.4999999999999893
 30
0.0
 11
-11.0
 21
7.9999999999999503
 31
0.0
  0
LINE
  5
1660
  8
241
  6
CONTINUOUS
 10
-11.0
 20
8.0000000000000071
 30
0.0
 11
-11.0
 21
-8.0000000000000391
 31
0.0
  0
LINE
  5
1661
  8
241
  6
CONTINUOUS
 10
-15.5000000000002096
 20
7.9999999999999538
 30
0.0
 11
-15.5000000000002096
 21
-8.0000000000000391
 31
0.0
  0
LINE
  5
1662
  8
243
  6
HIDDEN2
 10
-18.0000000000002096
 20
3.9999999999999831
 30
0.0
 11
0.0
 21
3.9999999999999831
 31
0.0
  0
LINE
  5
1663
  8
243
  6
HIDDEN2
 10
-18.0000000000002096
 20
-4.7387491768114698
 30
0.0
 11
-18.0000000000002096
 21
4.7387491768115106
 31
0.0
  0
LINE
  5
1664
  8
243
  6
HIDDEN2
 10
0.0000000000035669
 20
-5.3262395692969058
 30
0.0
 11
-1.699999999996578
 21
-6.3077350269188406
 31
0.0
  0
LINE
  5
1665
  8
243
  6
HIDDEN2
 10
-1.699999999996578
 20
-5.2500000000000631
 30
0.0
 11
-1.699999999996578
 21
-6.3077350269188406
 31
0.0
  0
LINE
  5
1666
  8
243
  6
HIDDEN2
 10
-3.5999999999964909
 20
-6.2522501646375668
 30
0.0
 11
-3.599999999996597
 21
-5.2499999999999352
 31
0.0
  0
LINE
  5
1667
  8
243
  6
HIDDEN2
 10
-1.699999999996578
 20
-5.2500000000000631
 30
0.0
 11
-3.599999999996597
 21
-5.2499999999999352
 31
0.0
  0
LINE
  5
1668
  8
243
  6
HIDDEN2
 10
-3.5999999999964909
 20
-6.2522501646375668
 30
0.0
 11
-18.0000000000002096
 21
-4.7387491768114698
 31
0.0
  0
LINE
  5
1669
  8
243
  6
HIDDEN2
 10
-18.0000000000002096
 20
-3.9999999999999418
 30
0.0
 11
0.0
 21
-3.9999999999999418
 31
0.0
  0
LINE
  5
166A
  8
250
  6
CONTINUOUS
 10
0.4999999999999929
 20
-12.4999999999999805
 30
0.0
 11
18.0
 21
-12.4999999999999893
 31
0.0
  0
LINE
  5
166B
  8
250
  6
CONTINUOUS
 10
0.4999999999999929
 20
12.5000000000000195
 30
0.0
 11
18.0
 21
12.5000000000000107
 31
0.0
  0
LINE
  5
166C
  8
250
  6
CONTINUOUS
 10
17.0
 20
-10.4999999999999805
 30
0.0
 11
17.0
 21
10.5
 31
0.0
  0
LINE
  5
166D
  8
250
  6
CONTINUOUS
 10
17.3333333333332789
 20
-10.4999999999999893
 30
0.0
 11
17.0
 21
-12.4999999999999893
 31
0.0
  0
LINE
  5
166E
  8
250
  6
CONTINUOUS
 10
16.6666666666666998
 20
-10.4999999999999893
 30
0.0
 11
17.0
 21
-12.4999999999999893
 31
0.0
  0
LINE
  5
166F
  8
250
  6
CONTINUOUS
 10
17.0
 20
-12.4999999999999893
 30
0.0
 11
17.0
 21
-10.4999999999999893
 31
0.0
  0
LINE
  5
1670
  8
250
  6
CONTINUOUS
 10
16.6666666666666998
 20
10.5
 30
0.0
 11
17.0
 21
12.5000000000000107
 31
0.0
  0
LINE
  5
1671
  8
250
  6
CONTINUOUS
 10
17.3333333333332789
 20
10.5
 30
0.0
 11
17.0
 21
12.5000000000000107
 31
0.0
  0
LINE
  5
1672
  8
250
  6
CONTINUOUS
 10
17.0
 20
12.5000000000000107
 30
0.0
 11
17.0
 21
10.5
 31
0.0
  0
TEXT
  5
1673
  8
250
  6
CONTINUOUS
 10
15.9999999999998597
 20
-5.9689289614213701
 30
0.0
 40
2.799999999999998
  1
\U+2205
 50
90.0
1001
ACAD
1000
MTEXTBEGIN
1070
    73
1070
     1
1070
    44
1040
1.0
1070
    74
1070
     0
1000
MTEXTEND
  0
TEXT
  5
1674
  8
250
  6
CONTINUOUS
 10
15.9999999999998597
 20
-3.435595628088036
 30
0.0
 40
2.799999999999998
  1
.984
 50
90.0
1001
ACAD
1000
MTEXTBEGIN
1070
    73
1070
     1
1070
    44
1040
1.0
1070
    74
1070
     0
1000
MTEXTEND
  0
LINE
  5
1675
  8
250
  6
CONTINUOUS
 10
0.4999999999999929
 20
4.0000000000000204
 30
0.0
 11
11.0
 21
4.0000000000000151
 31
0.0
  0
LINE
  5
1676
  8
250
  6
CONTINUOUS
 10
10.0
 20
-1.9999999999999809
 30
0.0
 11
10.0
 21
2.0000000000000142
 31
0.0
  0
LINE
  5
1677
  8
250
  6
CONTINUOUS
 10
9.666666666666714
 20
2.0000000000000151
 30
0.0
 11
10.0
 21
4.0000000000000151
 31
0.0
  0
LINE
  5
1678
  8
250
  6
CONTINUOUS
 10
10.3333333333332806
 20
2.0000000000000151
 30
0.0
 11
10.0
 21
4.0000000000000151
 31
0.0
  0
LINE
  5
1679
  8
250
  6
CONTINUOUS
 10
10.0
 20
4.0000000000000151
 30
0.0
 11
10.0
 21
2.0000000000000151
 31
0.0
  0
TEXT
  5
167A
  8
250
  6
CONTINUOUS
 10
8.5333333333333314
 20
-10.1466666666666097
 30
0.0
 40
2.799999999999998
  1
max.%%C.315
 50
90.0
1001
ACAD
1000
MTEXTBEGIN
1070
    73
1070
     1
1070
    44
1040
1.0
1070
    74
1070
     0
1000
MTEXTEND
  0
LINE
  5
167B
  8
250
  6
CONTINUOUS
 10
0.4999999999999929
 20
-3.9999999999999791
 30
0.0
 11
11.0
 21
-3.9999999999999751
 31
0.0
  0
LINE
  5
167C
  8
250
  6
CONTINUOUS
 10
10.0
 20
2.0000000000000222
 30
0.0
 11
10.0
 21
-1.9999999999999729
 31
0.0
  0
LINE
  5
167D
  8
250
  6
CONTINUOUS
 10
9.666666666666714
 20
-1.999999999999974
 30
0.0
 11
10.0
 21
-3.9999999999999751
 31
0.0
  0
LINE
  5
167E
  8
250
  6
CONTINUOUS
 10
10.3333333333332806
 20
-1.999999999999974
 30
0.0
 11
10.0
 21
-3.9999999999999751
 31
0.0
  0
LINE
  5
167F
  8
250
  6
CONTINUOUS
 10
10.0
 20
-3.9999999999999751
 30
0.0
 11
10.0
 21
-1.999999999999974
 31
0.0
  0
LINE
  5
1680
  8
241
  6
CONTINUOUS
 10
-4.0
 20
-11.4970926301023493
 30
0.0
 11
-11.0000000000000995
 21
-11.4970926301023493
 31
0.0
  0
LINE
  5
1681
  8
241
  6
CONTINUOUS
 10
-4.0
 20
-9.9970926301023546
 30
0.0
 11
-11.0000000000000995
 21
-9.9970926301023546
 31
0.0
  0
LINE
  5
1682
  8
241
  6
CONTINUOUS
 10
-4.0
 20
-11.4970926301023493
 30
0.0
 11
-4.0
 21
-9.9970926301023546
 31
0.0
  0
LINE
  5
1683
  8
241
  6
CONTINUOUS
 10
-4.0
 20
1.50000000000002
 30
0.0
 11
-11.0000000000000995
 21
1.500000000000018
 31
0.0
  0
LINE
  5
1684
  8
241
  6
CONTINUOUS
 10
-4.0
 20
-1.4999999999999789
 30
0.0
 11
-11.0000000000000995
 21
-1.4999999999999769
 31
0.0
  0
LINE
  5
1685
  8
241
  6
CONTINUOUS
 10
-4.0
 20
11.4970926301023901
 30
0.0
 11
-11.0000000000000995
 21
11.4970926301023901
 31
0.0
  0
LINE
  5
1686
  8
241
  6
CONTINUOUS
 10
-4.0
 20
9.9970926301023937
 30
0.0
 11
-11.0000000000000995
 21
9.9970926301023937
 31
0.0
  0
LINE
  5
1687
  8
241
  6
CONTINUOUS
 10
-4.0
 20
-1.4999999999999789
 30
0.0
 11
-4.0
 21
1.50000000000002
 31
0.0
  0
LINE
  5
1688
  8
241
  6
CONTINUOUS
 10
-4.0
 20
11.4970926301023901
 30
0.0
 11
-4.0
 21
9.9970926301023937
 31
0.0
  0
LINE
  5
16D6
  8
247
  6
CONTINUOUS
 10
-89.7500000000700027
 20
-6.0
 30
0.0
 11
-83.0576923080299849
 21
-6.0
 31
0.0
  0
ARC
  5
16D7
  8
247
  6
CONTINUOUS
 10
-89.7500000000700027
 20
-4.2500000000700311
 30
0.0
 40
1.7499999999299991
 50
90.0
 51
270.0
  0
ARC
  5
16D8
  8
247
  6
CONTINUOUS
 10
-83.0576923080299849
 20
-4.2500000000700311
 30
0.0
 40
1.7499999999299991
 50
270.0
 51
90.0
  0
LINE
  5
16D9
  8
247
  6
CONTINUOUS
 10
-88.8846153847199929
 20
-2.5000000001400622
 30
0.0
 11
-89.7448515419620065
 21
-5.5000000000200071
 31
0.0
  0
LINE
  5
16DA
  8
247
  6
CONTINUOUS
 10
-87.9849838183358202
 20
-3.9230769231598961
 30
0.0
 11
-89.2926761259758166
 21
-3.9230769231598961
 31
0.0
  0
ARC
  5
16DB
  8
247
  6
CONTINUOUS
 10
-87.6451438160897851
 20
-3.049598667702865
 30
0.0
 40
0.5538165441895349
 50
342.9978896752954256
 51
82.9241662185127524
  0
ARC
  5
16DC
  8
247
  6
CONTINUOUS
 10
-88.0668783230287886
 20
-2.936033044465828
 30
0.0
 40
0.9904354236226808
 50
274.7429368522014101
 51
343.8492262732664813
1001
GENIUS_GENOBJ-N-FIL_13
1002
{
1000
OWNER
1000
GEN
1002
}
1001
GENIUS_GENODEF_13
1002
{
1000
HIER
1070
     0
1002
}
1002
{
1000
MANEDIT
1070
     0
1002
}
1002
{
1000
NOSEL
1070
     0
1002
}
1002
{
1000
BEHIND
1070
     0
1002
}
1002
{
1000
OTHER
1070
     0
1002
}
1002
{
1000
REACTOR
1002
}
  0
LINE
  5
16DD
  8
247
  6
CONTINUOUS
 10
-88.4371592343220101
 20
-5.5000000000200071
 30
0.0
 11
-89.7448515419620065
 21
-5.5000000000200071
 31
0.0
  0
LINE
  5
16DE
  8
247
  6
CONTINUOUS
 10
-88.8846153847199929
 20
-2.5000000001400622
 30
0.0
 11
-87.5769230770799965
 21
-2.5000000001400622
 31
0.0
  0
ARC
  5
16DF
  8
247
  6
CONTINUOUS
 10
-88.06091963654697
 20
-4.482024232665478
 30
0.0
 40
0.5640818586791229
 50
335.9909416525217125
 51
82.263443459069066
  0
ARC
  5
16E0
  8
247
  6
CONTINUOUS
 10
-88.538262685347064
 20
-4.487429039186507
 30
0.0
 40
1.0176059446230981
 50
275.7019851642580761
 51
347.2773384368222764
1001
GENIUS_GENOBJ-N-FIL_13
1002
{
1000
OWNER
1000
GEN
1002
}
1001
GENIUS_GENODEF_13
1002
{
1000
HIER
1070
     0
1002
}
1002
{
1000
MANEDIT
1070
     0
1002
}
1002
{
1000
NOSEL
1070
     0
1002
}
1002
{
1000
BEHIND
1070
     0
1002
}
1002
{
1000
OTHER
1070
     0
1002
}
1002
{
1000
REACTOR
1002
}
  0
LINE
  5
16E1
  8
247
  6
CONTINUOUS
 10
-86.7833130805420012
 20
-5.5000000000200071
 30
0.0
 11
-85.923076923300016
 21
-2.5000000001400622
 31
0.0
  0
LINE
  5
16E2
  8
247
  6
CONTINUOUS
 10
-83.50000000032
 20
-2.5000000001400622
 30
0.0
 11
-84.0657366194566009
 21
-2.5000000001400622
 31
0.0
  0
LINE
  5
16E3
  8
247
  6
CONTINUOUS
 10
-84.9615384617999752
 20
-5.5000000000200071
 30
0.0
 11
-84.3461538464400178
 21
-5.5000000000200071
 31
0.0
  0
ARC
  5
16E4
  8
247
  6
CONTINUOUS
 10
-83.2087912091228645
 20
-4.5832851359733668
 30
0.0
 40
2.2526500823422122
 50
112.3594881415302069
 51
164.9932485428460041
  0
ARC
  5
16E5
  8
247
  6
CONTINUOUS
 10
-83.8740694792132331
 20
-3.308312655194638
 30
0.0
 40
0.8906723995727782
 50
4.9945893190753781
 51
65.1663289573004931
1001
GENIUS_GENOBJ-N-FIL_13
1002
{
1000
OWNER
1000
GEN
1002
}
1001
GENIUS_GENODEF_13
1002
{
1000
HIER
1070
     0
1002
}
1002
{
1000
MANEDIT
1070
     0
1002
}
1002
{
1000
NOSEL
1070
     0
1002
}
1002
{
1000
BEHIND
1070
     0
1002
}
1002
{
1000
OTHER
1070
     0
1002
}
1002
{
1000
REACTOR
1002
}
  0
ARC
  5
16E6
  8
247
  6
CONTINUOUS
 10
-84.7264588862125834
 20
-4.160145888667782
 30
0.0
 40
1.392781735586712
 50
285.8460965557807185
 51
352.3251370041625137
  0
ARC
  5
16E7
  8
247
  6
CONTINUOUS
 10
-84.1422127258403663
 20
-4.4592434315272831
 30
0.0
 40
1.324563662670287
 50
159.7136016704901067
 51
231.7887456564120896
1001
GENIUS_GENOBJ-N-FIL_13
1002
{
1000
OWNER
1000
GEN
1002
}
1001
GENIUS_GENODEF_13
1002
{
1000
HIER
1070
     0
1002
}
1002
{
1000
MANEDIT
1070
     0
1002
}
1002
{
1000
NOSEL
1070
     0
1002
}
1002
{
1000
BEHIND
1070
     0
1002
}
1002
{
1000
OTHER
1070
     0
1002
}
1002
{
1000
REACTOR
1002
}
  0
LINE
  5
16E8
  8
247
  6
CONTINUOUS
 10
-84.0384615387600036
 20
-4.346153846219976
 30
0.0
 11
-83.3461538464800071
 21
-4.346153846219976
 31
0.0
  0
LINE
  5
16E9
  8
247
  6
CONTINUOUS
 10
-89.7500000000700311
 20
-2.5000000001400622
 30
0.0
 11
-89.0769230770200551
 21
-2.5000000001400622
 31
0.0
  0
LINE
  5
1A7C
  8
250
  6
CONTINUOUS
 10
-15.5000000000002096
 20
13.1999999999999993
 30
0.0
 11
-15.5000000000002096
 21
29.0
 31
0.0
  0
LINE
  5
1A7D
  8
250
  6
CONTINUOUS
 10
0.0
 20
12.8749857636059293
 30
0.0
 11
0.0000000000000011
 21
29.0
 31
0.0
  0
LINE
  5
1A7E
  8
250
  6
CONTINUOUS
 10
-13.2700000000002092
 20
28.0
 30
0.0
 11
-2.2299999999999991
 21
28.0
 31
0.0
  0
LINE
  5
1A82
  8
250
  6
CONTINUOUS
 10
-13.2700000000002092
 20
27.6283333333333303
 30
0.0
 11
-15.5000000000002096
 21
28.0
 31
0.0
  0
LINE
  5
1A83
  8
250
  6
CONTINUOUS
 10
-13.2700000000002092
 20
28.371666666666659
 30
0.0
 11
-15.5000000000002096
 21
28.0
 31
0.0
  0
LINE
  5
1A84
  8
250
  6
CONTINUOUS
 10
-15.5000000000002096
 20
28.0
 30
0.0
 11
-13.2700000000002092
 21
28.0
 31
0.0
  0
LINE
  5
1AAF
  8
250
  6
CONTINUOUS
 10
-2.2299999999999991
 20
28.371666666666659
 30
0.0
 11
0.000000000000001
 21
28.0
 31
0.0
  0
LINE
  5
1AB0
  8
250
  6
CONTINUOUS
 10
-2.2299999999999991
 20
27.6283333333333303
 30
0.0
 11
0.000000000000001
 21
28.0
 31
0.0
  0
LINE
  5
1AB1
  8
250
  6
CONTINUOUS
 10
0.000000000000001
 20
28.0
 30
0.0
 11
-2.2299999999999991
 21
28.0
 31
0.0
  0
TEXT
  5
1AB2
  8
250
  6
CONTINUOUS
 10
-10.9642857142858201
 20
29.0
 30
0.0
 40
3.0
  1
.61
  0
LINE
  5
1AB3
  8
250
  6
CONTINUOUS
 10
-96.5
 20
11.0
 30
0.0
 11
-96.5
 21
29.0
 31
0.0
  0
LINE
  5
1AB4
  8
250
  6
CONTINUOUS
 10
-15.5000000000002096
 20
13.1999999999999993
 30
0.0
 11
-15.5000000000002096
 21
29.0
 31
0.0
  0
LINE
  5
1AB5
  8
250
  6
CONTINUOUS
 10
-94.269999999999996
 20
28.0
 30
0.0
 11
-17.73000000000021
 21
28.0
 31
0.0
  0
LINE
  5
1AB9
  8
250
  6
CONTINUOUS
 10
-94.269999999999996
 20
27.6283333333333303
 30
0.0
 11
-96.5
 21
28.0
 31
0.0
  0
LINE
  5
1ABA
  8
250
  6
CONTINUOUS
 10
-94.269999999999996
 20
28.371666666666659
 30
0.0
 11
-96.5
 21
28.0
 31
0.0
  0
LINE
  5
1ABB
  8
250
  6
CONTINUOUS
 10
-96.5
 20
28.0
 30
0.0
 11
-94.269999999999996
 21
28.0
 31
0.0
  0
LINE
  5
1ABC
  8
250
  6
CONTINUOUS
 10
-17.73000000000021
 20
28.371666666666659
 30
0.0
 11
-15.5000000000002096
 21
28.0
 31
0.0
  0
LINE
  5
1ABD
  8
250
  6
CONTINUOUS
 10
-17.73000000000021
 20
27.6283333333333303
 30
0.0
 11
-15.5000000000002096
 21
28.0
 31
0.0
  0
LINE
  5
1ABE
  8
250
  6
CONTINUOUS
 10
-15.5000000000002096
 20
28.0
 30
0.0
 11
-17.73000000000021
 21
28.0
 31
0.0
  0
TEXT
  5
1ABF
  8
250
  6
CONTINUOUS
 10
-60.9285714285715301
 20
29.0
 30
0.0
 40
3.0
  1
3.19
  0
LINE
  5
1AC0
  8
250
  6
CONTINUOUS
 10
-85.3000000000000256
 20
-12.6999999999999993
 30
0.0
 11
-106.0000000000012932
 21
-12.7000000000000099
 31
0.0
  0
LINE
  5
1AC1
  8
250
  6
CONTINUOUS
 10
-85.3000000000000114
 20
12.6999999999999993
 30
0.0
 11
-106.0000000000012932
 21
12.6999999999999993
 31
0.0
  0
LINE
  5
1AC2
  8
250
  6
CONTINUOUS
 10
-105.0000000000012932
 20
-10.4700000000000006
 30
0.0
 11
-105.0000000000012932
 21
10.4700000000000006
 31
0.0
  0
LINE
  5
1AC6
  8
250
  6
CONTINUOUS
 10
-105.3716666666680055
 20
10.4700000000000006
 30
0.0
 11
-105.0000000000012932
 21
12.6999999999999993
 31
0.0
  0
LINE
  5
1AC7
  8
250
  6
CONTINUOUS
 10
-104.6283333333346945
 20
10.4700000000000006
 30
0.0
 11
-105.0000000000012932
 21
12.6999999999999993
 31
0.0
  0
LINE
  5
1AC8
  8
250
  6
CONTINUOUS
 10
-105.0000000000012932
 20
12.6999999999999993
 30
0.0
 11
-105.0000000000012932
 21
10.4700000000000006
 31
0.0
  0
TEXT
  5
1AC9
  8
250
  6
CONTINUOUS
 10
-106.0000000000012932
 20
-7.7857142857142581
 30
0.0
 40
3.0
  1
\U+22051.000
 50
90.0
  0
LINE
  5
1ACA
  8
250
  6
CONTINUOUS
 10
-104.6283333333346945
 20
-10.4700000000000095
 30
0.0
 11
-105.0000000000012932
 21
-12.7000000000000099
 31
0.0
  0
LINE
  5
1ACB
  8
250
  6
CONTINUOUS
 10
-105.3716666666680055
 20
-10.4700000000000095
 30
0.0
 11
-105.0000000000012932
 21
-12.7000000000000099
 31
0.0
  0
LINE
  5
1ACC
  8
250
  6
CONTINUOUS
 10
-105.0000000000012932
 20
-12.7000000000000099
 30
0.0
 11
-105.0000000000012932
 21
-10.4700000000000095
 31
0.0
  0
VIEWPORT
  5
22
 67
     1
  8
0
 10
261.517699115044195
 20
148.5
 30
0.0
 40
523.0353982300885036
 41
297.0
 68
     1
 69
     1
1001
ACAD
1000
MVIEW
1002
{
1070
    16
1010
0.0
1020
0.0
1030
0.0
1010
0.0
1020
0.0
1030
1.0
1040
0.0
1040
297.0
1040
261.517699115044195
1040
148.5
1040
50.0
1040
0.0
1040
0.0
1070
     0
1070
   100
1070
     1
1070
     1
1070
     0
1070
     0
1070
     0
1070
     0
1040
0.0
1040
0.0
1040
0.0
1040
1.0
1040
1.0
1040
10.0
1040
10.0
1070
     0
1002
{
1002
}
1002
}
1001
GENIUS_GENODEF_13
1002
{
1000
HIER
1070
     0
1002
}
1002
{
1000
MANEDIT
1070
     0
1002
}
1002
{
1000
NOSEL
1070
     0
1002
}
1002
{
1000
BEHIND
1070
     0
1002
}
1002
{
1000
OTHER
1070
     0
1002
}
1002
{
1000
REACTOR
1002
}
1001
GENIUS_GENOBJ-N-SDF_13
1002
{
1000
OWNER
1000
GEN
1002
}
1001
GENIUS_GENSCREG_15
1000
PF
1040
1.0
1000
DF
1040
1.0
1000
MIN
1011
0.0
1021
0.0
1031
0.0
1021
0.0
1031
0.0
1000
MAX
1011
523.0353982300885036
1021
0.0
1031
0.0
1021
297.0
1031
0.0
1000
FLAGS
1070
     4
  0
ENDSEC
  0
EOF
