  0
SECTION
  2
HEADER
  9
$ACADVER
  1
AC1009
  9
$INSBASE
 10
0.0
 20
0.0
 30
0.0
  9
$EXTMIN
 10
-109.0000000000014069
 20
-12.7000000000000099
 30
0.0
  9
$EXTMAX
 10
17.0
 20
47.0000000000000071
 30
0.0
  9
$LIMMIN
 10
0.0
 20
0.0
  9
$LIMMAX
 10
297.0
 20
210.0
  9
$ORTHOMODE
 70
     0
  9
$REGENMODE
 70
     1
  9
$FILLMODE
 70
     1
  9
$QTEXTMODE
 70
     0
  9
$MIRRTEXT
 70
     1
  9
$DRAGMODE
 70
     2
  9
$LTSCALE
 40
10.0
  9
$OSMODE
 70
   807
  9
$ATTMODE
 70
     1
  9
$TEXTSIZE
 40
3.0
  9
$TRACEWID
 40
1.0
  9
$TEXTSTYLE
  7
YOKO
  9
$CLAYER
  8
240
  9
$CELTYPE
  6
BYLAYER
  9
$CECOLOR
 62
   256
  9
$DIMSCALE
 40
1.0
  9
$DIMASZ
 40
2.2299999999999991
  9
$DIMEXO
 40
0.5
  9
$DIMDLI
 40
7.0
  9
$DIMRND
 40
0.0
  9
$DIMDLE
 40
0.0
  9
$DIMEXE
 40
1.0
  9
$DIMTP
 40
0.0
  9
$DIMTM
 40
0.01
  9
$DIMTXT
 40
2.7999999999999989
  9
$DIMCEN
 40
0.0
  9
$DIMTSZ
 40
0.0
  9
$DIMTOL
 70
     0
  9
$DIMLIM
 70
     0
  9
$DIMTIH
 70
     0
  9
$DIMTOH
 70
     0
  9
$DIMSE1
 70
     0
  9
$DIMSE2
 70
     0
  9
$DIMTAD
 70
     3
  9
$DIMZIN
 70
     9
  9
$DIMBLK
  1
OPEN
  9
$DIMASO
 70
     1
  9
$DIMSHO
 70
     1
  9
$DIMPOST
  1

  9
$DIMAPOST
  1

  9
$DIMALT
 70
     0
  9
$DIMALTD
 70
     2
  9
$DIMALTF
 40
25.3999999999999986
  9
$DIMLFAC
 40
1.0
  9
$DIMTOFL
 70
     1
  9
$DIMTVP
 40
0.0
  9
$DIMTIX
 70
     1
  9
$DIMSOXD
 70
     0
  9
$DIMSAH
 70
     0
  9
$DIMBLK1
  1

  9
$DIMBLK2
  1

  9
$DIMSTYLE
  2
BIGT
  9
$DIMCLRD
 70
   256
  9
$DIMCLRE
 70
   256
  9
$DIMCLRT
 70
    40
  9
$DIMTFAC
 40
1.0
  9
$DIMGAP
 40
1.0
  9
$LUNITS
 70
     2
  9
$LUPREC
 70
     3
  9
$SKETCHINC
 40
1.0
  9
$FILLETRAD
 40
0.0
  9
$AUNITS
 70
     0
  9
$AUPREC
 70
     3
  9
$MENU
  1
.
  9
$ELEVATION
 40
0.0
  9
$PELEVATION
 40
0.0
  9
$THICKNESS
 40
0.0
  9
$LIMCHECK
 70
     0
  9
$BLIPMODE
 70
     0
  9
$CHAMFERA
 40
0.25
  9
$CHAMFERB
 40
0.25
  9
$SKPOLY
 70
     0
  9
$TDCREATE
 40
2458193.71929398085922
  9
$TDUPDATE
 40
2458194.6857638889923692
  9
$TDINDWG
 40
0.014849537
  9
$TDUSRTIMER
 40
0.014849537
  9
$USRTIMER
 70
     1
  9
$ANGBASE
 50
0.0
  9
$ANGDIR
 70
     0
  9
$PDMODE
 70
     1
  9
$PDSIZE
 40
0.0
  9
$PLINEWID
 40
0.0
  9
$COORDS
 70
     1
  9
$SPLFRAME
 70
     0
  9
$SPLINETYPE
 70
     6
  9
$SPLINESEGS
 70
     4
  9
$ATTDIA
 70
     1
  9
$ATTREQ
 70
     1
  9
$HANDLING
 70
     1
  9
$HANDSEED
  5
1B7A
  9
$SURFTAB1
 70
     6
  9
$SURFTAB2
 70
     6
  9
$SURFTYPE
 70
     6
  9
$SURFU
 70
     6
  9
$SURFV
 70
     6
  9
$UCSNAME
  2

  9
$UCSORG
 10
0.0
 20
0.0
 30
0.0
  9
$UCSXDIR
 10
1.0
 20
0.0
 30
0.0
  9
$UCSYDIR
 10
0.0
 20
1.0
 30
0.0
  9
$PUCSNAME
  2

  9
$PUCSORG
 10
0.0
 20
0.0
 30
0.0
  9
$PUCSXDIR
 10
1.0
 20
0.0
 30
0.0
  9
$PUCSYDIR
 10
0.0
 20
1.0
 30
0.0
  9
$USERI1
 70
     1
  9
$USERI2
 70
     0
  9
$USERI3
 70
     0
  9
$USERI4
 70
     0
  9
$USERI5
 70
     0
  9
$USERR1
 40
0.0
  9
$USERR2
 40
0.0
  9
$USERR3
 40
0.0
  9
$USERR4
 40
0.0
  9
$USERR5
 40
0.0
  9
$WORLDVIEW
 70
     1
  9
$SHADEDGE
 70
     3
  9
$SHADEDIF
 70
    70
  9
$TILEMODE
 70
     1
  9
$MAXACTVP
 70
    16
  9
$PLIMCHECK
 70
     0
  9
$PEXTMIN
 10
1.0000000000000000E+20
 20
1.0000000000000000E+20
 30
1.0000000000000000E+20
  9
$PEXTMAX
 10
-1.0000000000000000E+20
 20
-1.0000000000000000E+20
 30
-1.0000000000000000E+20
  9
$PLIMMIN
 10
0.0
 20
0.0
  9
$PLIMMAX
 10
420.0
 20
297.0
  9
$UNITMODE
 70
     0
  9
$VISRETAIN
 70
     1
  9
$PLINEGEN
 70
     0
  9
$PSLTSCALE
 70
     1
  0
ENDSEC
  0
SECTION
  2
TABLES
  0
TABLE
  2
VPORT
 70
     1
  0
VPORT
  2
*ACTIVE
 70
     0
 10
0.0
 20
0.0
 11
1.0
 21
1.0
 12
-42.235970066361709
 22
14.7367586255912606
 13
0.0
 23
0.0
 14
7.0
 24
7.0
 15
7.0
 25
7.0
 16
0.0
 26
0.0
 36
1.0
 17
0.0
 27
0.0
 37
0.0
 40
86.3996599956461608
 41
1.8592342342342341
 42
50.0
 43
0.0
 44
0.0
 50
0.0
 51
0.0
 71
     0
 72
  2000
 73
     1
 74
     0
 75
     0
 76
     1
 77
     0
 78
     0
  0
ENDTAB
  0
TABLE
  2
LTYPE
 70
    16
  0
LTYPE
  2
CONTINUOUS
 70
     0
  3
Solid line
 72
    65
 73
     0
 40
0.0
  0
LTYPE
  2
CENTER2
 70
     0
  3
___ _ ___ _ ___ _ ___ _ ___ _ ___ _ ___ _ ___ _
 72
    65
 73
     4
 40
1.125
 49
0.75
 49
-0.125
 49
0.125
 49
-0.125
  0
LTYPE
  2
HIDDEN2
 70
     0
  3
_ _ _ _ _ _ _ _ _ _ _ _ _ _ _ _ _ _ _ _ _ _ _ _
 72
    65
 73
     2
 40
0.1875
 49
0.125
 49
-0.0625
  0
LTYPE
  2
PHANTOM2
 70
     0
  3
___ _ _ ___ _ _ ___ _ _ ___ _ _ ___ _ _ ___ _ _
 72
    65
 73
     6
 40
1.25
 49
0.625
 49
-0.125
 49
0.125
 49
-0.125
 49
0.125
 49
-0.125
  0
LTYPE
  2
CENTER
 70
     0
  3
____ _ ____ _ ____ _ ____ _ ____ _ ____ _ ____ 
 72
    65
 73
     4
 40
2.0
 49
1.25
 49
-0.25
 49
0.25
 49
-0.25
  0
LTYPE
  2
AM_ISO02W050
 70
     0
  3
__ __ __ __ __ __ __ __ __ __ __ __ __ __ __
 72
    65
 73
     2
 40
7.5
 49
6.0
 49
-1.5
  0
LTYPE
  2
AMCONSTR
 70
     0
  3
_______________________
 72
    65
 73
     2
 40
9999.0
 49
9999.0
 49
0.0
  0
LTYPE
  2
ACISOWELD
 70
     0
  3
_ _ _ _ _
 72
    65
 73
     2
 40
2.0
 49
2.0
 49
-1.0
  0
LTYPE
  2
ACISOTGB
 70
     0
  3
__ . . __ . .
 72
    65
 73
     6
 40
9.0
 49
4.0
 49
-1.0
 49
1.0
 49
-1.0
 49
1.0
 49
-1.0
  0
LTYPE
  2
ACISOTGL
 70
     0
  3
_ _ _ _ _
 72
    65
 73
     2
 40
3.0
 49
2.0
 49
-1.0
  0
LTYPE
  2
ACJISTGB
 70
     0
  3
__ . . __ . .
 72
    65
 73
     6
 40
9.0
 49
4.0
 49
-1.0
 49
1.0
 49
-1.0
 49
1.0
 49
-1.0
  0
LTYPE
  2
ACJISTGL
 70
     0
  3
_ _ _ _ _
 72
    65
 73
     2
 40
3.0
 49
2.0
 49
-1.0
  0
LTYPE
  2
HIDDEN
 70
     0
  3
Hidden __ __ __ __ __ __ __ __ __ __ __ __ __ _
 72
    65
 73
     2
 40
9.5249999999999986
 49
6.3499999999999988
 49
-3.1749999999999989
  0
LTYPE
  2
AMZIGZAG2
 70
     0
  3
/\/-/\/-/\/-/\/-/\/-/\/
 72
    65
 73
     2
 40
0.4401
 49
0.0001
 49
-0.4400000000000001
  0
LTYPE
  2
ACANSTGB
 70
     0
  3
__ . . __ . .
 72
    65
 73
     6
 40
0.35433070866
 49
0.15748031496
 49
-0.03937007874
 49
0.03937007874
 49
-0.03937007874
 49
0.03937007874
 49
-0.03937007874
  0
LTYPE
  2
ACANSTGL
 70
     0
  3
_ _ _ _ _
 72
    65
 73
     2
 40
0.11811023622
 49
0.07874015748
 49
-0.03937007874
  0
ENDTAB
  0
TABLE
  2
LAYER
 70
     8
  0
LAYER
  2
0
 70
     0
 62
     7
  6
CONTINUOUS
  0
LAYER
  2
DEFPOINTS
 70
     0
 62
     7
  6
CONTINUOUS
  0
LAYER
  2
245
 70
     0
 62
     2
  6
CENTER2
  0
LAYER
  2
240
 70
     0
 62
     4
  6
CONTINUOUS
  0
LAYER
  2
241
 70
     0
 62
   211
  6
CONTINUOUS
  0
LAYER
  2
243
 70
     0
 62
   211
  6
HIDDEN2
  0
LAYER
  2
247
 70
     0
 62
    60
  6
CONTINUOUS
  0
LAYER
  2
250
 70
     0
 62
     3
  6
CONTINUOUS
  0
ENDTAB
  0
TABLE
  2
STYLE
 70
     8
  0
STYLE
  2
STANDARD
 70
     0
 40
0.0
 41
1.0
 50
0.0
 71
     0
 42
3.0
  3
romans.shx
  4
extfont.shx
  0
STYLE
  2
ACISOTS
 70
     0
 40
1.0
 41
1.0
 50
0.0
 71
     0
 42
3.0
  3
amgdt.shx
  4
extfont.shx
  0
STYLE
  2
ACISOGDT
 70
     0
 40
0.0
 41
1.0
 50
0.0
 71
     0
 42
3.0
  3
amgdt.shx
  4
extfont.shx
  0
STYLE
  2
ACJISTS
 70
     0
 40
1.0
 41
1.0
 50
0.0
 71
     0
 42
3.0
  3
amgdt.shx
  4
extfont.shx
  0
STYLE
  2
ACJISGDT
 70
     0
 40
0.0
 41
1.0
 50
0.0
 71
     0
 42
3.0
  3
amgdt.shx
  4
extfont.shx
  0
STYLE
  2
YOKO
 70
     0
 40
0.0
 41
1.0
 50
0.0
 71
     0
 42
3.0
  3
romans.shx
  4
extfont.shx
  0
STYLE
  2

 70
     1
 40
0.0
 41
1.0
 50
0.0
 71
     0
 42
3.0
  3
genltshp.shx
  4

  0
STYLE
  2
ACANSGDT
 70
     0
 40
0.0
 41
1.0
 50
0.0
 71
     0
 42
3.0
  3
amgdt.shx
  4

  0
ENDTAB
  0
TABLE
  2
VIEW
 70
     0
  0
ENDTAB
  0
TABLE
  2
UCS
 70
     0
  0
ENDTAB
  0
TABLE
  2
APPID
 70
    43
  0
APPID
  2
ACAD
 70
     0
  0
APPID
  2
GLOBAL
 70
     0
  0
APPID
  2
DETAIL
 70
     0
  0
APPID
  2
GRPNAME
 70
     0
  0
APPID
  2
GPARA
 70
     0
  0
APPID
  2
MCAD_NO_VIS
 70
     0
  0
APPID
  2
ACAD_TEMP_GRAPHIC
 70
     0
  0
APPID
  2
ACATTRIBSERVICES
 70
     0
  0
APPID
  2
GENIUS_GENSCREG_15
 70
     0
  0
APPID
  2
GENIUS_GENODEF_13
 70
     0
  0
APPID
  2
GENIUS_GENOBJ-N-SDF_13
 70
     0
  0
APPID
  2
GENIUS_GENREC_14
 70
     0
  0
APPID
  2
GENIUS_GENOBJ-N-REC_13
 70
     0
  0
APPID
  2
GENIUS_GENDIMSH_14
 70
     0
  0
APPID
  2
GENIUS_GENOBJ-N-DIM_13
 70
     0
  0
APPID
  2
GENIUS_GENDIM_13
 70
     0
  0
APPID
  2
GENIUS_GENDTOL_13
 70
     0
  0
APPID
  2
GENIUS_GENOLIS_13
 70
     0
  0
APPID
  2
GENIUS_GENOENT_13
 70
     0
  0
APPID
  2
GENIUS_GENOBJ-F-FEM_13
 70
     0
  0
APPID
  2
GENIUS_GENOREF_13
 70
     0
  0
APPID
  2
GENIUS_GEFFEM_13
 70
     0
  0
APPID
  2
GENIUS_GEFFEMP_13
 70
     0
  0
APPID
  2
AD_DRAW
 70
     0
  0
APPID
  2
DESIGNERASSEMBLIES
 70
     0
  0
APPID
  2
ACADM_DIM_EDIT
 70
     0
  0
APPID
  2
AMDT_DM_ADJ
 70
     0
  0
APPID
  2
ACAD_NAV_VCDISPLAY
 70
     0
  0
APPID
  2
HATCH_TYPE
 70
     0
  0
APPID
  2
HATCH_DISPLAY
 70
     0
  0
APPID
  2
HATCH_DISTANCE
 70
     0
  0
APPID
  2
ACAD_DSTYLE_DIMJAG
 70
     0
  0
APPID
  2
ACAD_DSTYLE_DIMBREAK
 70
     0
  0
APPID
  2
ACAECLAYERSTANDARD
 70
     0
  0
APPID
  2
ACAD_EXEMPT_FROM_CAD_STANDARDS
 70
     0
  0
APPID
  2
ACAD_DSTYLE_DIMINSPECT
 70
     0
  0
APPID
  2
ACADANNOMONITORALERTICONDI
 70
     0
  0
APPID
  2
GENIUS_GENOBJ-N-FIL_13
 70
     0
  0
APPID
  2
ACAD_MLEADERVER
 70
     0
  0
APPID
  2
ACAD_DSTYLE_DIMARC_LENGTH_
 70
     0
  0
APPID
  2
ACAD_DSTYLE_DIM_LINETYPE
 70
     0
  0
APPID
  2
ACAD_DSTYLE_DIM_EXT1_LINETYPE
 70
     0
  0
APPID
  2
ACAD_DSTYLE_DIM_EXT2_LINETYPE
 70
     0
  0
ENDTAB
  0
TABLE
  2
DIMSTYLE
 70
    29
  0
DIMSTYLE
  2
BIGT
 70
     0
  3

  4

  5
OPEN
  6

  7

 40
1.0
 41
2.2299999999999991
 42
0.5
 43
7.0
 44
1.0
 45
0.0
 46
0.0
 47
0.0
 48
0.01
140
2.7999999999999989
141
0.0
142
0.0
143
25.3999999999999986
144
1.0
145
0.0
146
1.0
147
1.0
 71
     0
 72
     0
 73
     0
 74
     0
 75
     0
 76
     0
 77
     3
 78
     9
170
     0
171
     2
172
     1
173
     0
174
     1
175
     0
176
   256
177
   256
178
    40
  0
DIMSTYLE
  2
AM_ISO
 70
     0
  3

  4
"
  5

  6

  7

 40
1.0
 41
2.5
 42
1.0
 43
10.0
 44
1.0
 45
0.0
 46
0.0
 47
0.1
 48
0.1
140
3.5
141
0.0
142
0.0
143
0.0393701
144
1.0
145
0.0
146
0.71
147
1.5
 71
     0
 72
     0
 73
     0
 74
     0
 75
     0
 76
     0
 77
     1
 78
     8
170
     0
171
     2
172
     1
173
     0
174
     0
175
     0
176
   256
177
   256
178
     2
  0
DIMSTYLE
  2
AM_ISO$3
 70
     0
  3

  4
"
  5

  6

  7

 40
1.0
 41
2.5
 42
1.0
 43
10.0
 44
1.0
 45
0.0
 46
0.0
 47
0.1
 48
0.1
140
3.5
141
0.0
142
0.0
143
0.0393701
144
1.0
145
0.0
146
0.71
147
1.5
 71
     0
 72
     0
 73
     0
 74
     1
 75
     0
 76
     0
 77
     1
 78
     8
170
     0
171
     2
172
     0
173
     0
174
     0
175
     0
176
   256
177
   256
178
     2
  0
DIMSTYLE
  2
AM_ISO$4
 70
     0
  3

  4
"
  5

  6

  7

 40
1.0
 41
2.5
 42
1.0
 43
10.0
 44
1.0
 45
0.0
 46
0.0
 47
0.1
 48
0.1
140
3.5
141
0.0
142
0.0
143
0.0393701
144
1.0
145
0.0
146
0.71
147
1.5
 71
     0
 72
     0
 73
     0
 74
     1
 75
     0
 76
     0
 77
     1
 78
     8
170
     0
171
     2
172
     0
173
     0
174
     0
175
     0
176
   256
177
   256
178
     2
  0
DIMSTYLE
  2
AM_ISO$6
 70
     0
  3

  4
"
  5

  6

  7

 40
1.0
 41
2.5
 42
1.0
 43
10.0
 44
1.0
 45
0.0
 46
0.0
 47
0.1
 48
0.1
140
3.5
141
0.0
142
0.0
143
0.0393701
144
1.0
145
0.0
146
0.71
147
1.5
 71
     0
 72
     0
 73
     0
 74
     0
 75
     0
 76
     0
 77
     0
 78
     8
170
     0
171
     2
172
     1
173
     0
174
     0
175
     0
176
   256
177
   256
178
     2
  0
DIMSTYLE
  2
AM_ISO$7
 70
     0
  3

  4
"
  5

  6

  7

 40
1.0
 41
2.5
 42
1.0
 43
10.0
 44
1.0
 45
0.0
 46
0.0
 47
0.1
 48
0.1
140
5.0
141
0.0
142
0.0
143
0.0393701
144
1.0
145
0.0
146
0.71
147
1.5
 71
     0
 72
     0
 73
     0
 74
     0
 75
     0
 76
     0
 77
     1
 78
     8
170
     0
171
     2
172
     1
173
     0
174
     0
175
     0
176
   256
177
   256
178
     2
  0
DIMSTYLE
  2
AM_ISO$SF
 70
     0
  3

  4
"
  5

  6

  7

 40
1.0
 41
2.5
 42
1.0
 43
10.0
 44
1.0
 45
0.0
 46
0.0
 47
0.1
 48
0.1
140
3.5
141
0.0
142
0.0
143
0.0393701
144
1.0
145
0.0
146
0.71
147
1.5
 71
     0
 72
     0
 73
     0
 74
     0
 75
     1
 76
     1
 77
     1
 78
     8
170
     0
171
     2
172
     1
173
     0
174
     0
175
     0
176
   256
177
   256
178
     2
  0
DIMSTYLE
  2
AM_ISO$SH
 70
     0
  3

  4
"
  5

  6
GENAXEH
  7

 40
1.0
 41
2.5
 42
1.0
 43
10.0
 44
1.0
 45
0.0
 46
0.0
 47
0.1
 48
0.1
140
3.5
141
0.0
142
0.0
143
0.0393701
144
2.0
145
0.0
146
0.71
147
1.5
 71
     0
 72
     0
 73
     0
 74
     0
 75
     1
 76
     1
 77
     1
 78
     8
170
     0
171
     2
172
     1
173
     1
174
     0
175
     0
176
   256
177
   256
178
     2
  0
DIMSTYLE
  2
BIGT$2
 70
     0
  3

  4

  5
OPEN
  6

  7

 40
1.0
 41
2.2299999999999991
 42
0.5
 43
7.0
 44
1.0
 45
0.0
 46
0.0
 47
0.0
 48
0.01
140
2.7999999999999989
141
0.0
142
0.0
143
25.3999999999999986
144
1.0
145
0.0
146
1.0
147
1.0
 71
     0
 72
     0
 73
     0
 74
     0
 75
     0
 76
     0
 77
     3
 78
     9
170
     0
171
     2
172
     1
173
     0
174
     0
175
     0
176
   256
177
   256
178
    40
  0
DIMSTYLE
  2
BIGT$3
 70
     0
  3

  4

  5
OPEN
  6

  7

 40
1.0
 41
2.2299999999999991
 42
0.5
 43
2.5
 44
1.0
 45
0.0
 46
0.0
 47
0.0
 48
0.01
140
2.7999999999999989
141
0.0
142
0.0
143
25.3999999999999986
144
1.0
145
0.0
146
1.0
147
1.0
 71
     0
 72
     0
 73
     0
 74
     0
 75
     0
 76
     0
 77
     3
 78
     9
170
     0
171
     2
172
     1
173
     0
174
     0
175
     0
176
   256
177
   256
178
    40
  0
DIMSTYLE
  2
BIGT$7
 70
     0
  3

  4

  5
OPEN
  6

  7

 40
0.0
 41
2.2299999999999991
 42
0.5
 43
7.0
 44
1.0
 45
0.0
 46
0.0
 47
0.0
 48
0.01
140
2.7999999999999989
141
0.0
142
0.0
143
25.3999999999999986
144
1.0
145
0.0
146
1.0
147
1.0
 71
     0
 72
     0
 73
     0
 74
     0
 75
     0
 76
     0
 77
     3
 78
     9
170
     0
171
     2
172
     0
173
     0
174
     0
175
     0
176
   256
177
   256
178
    40
  0
DIMSTYLE
  2
BIGT$6
 70
     0
  3

  4

  5
OPEN
  6

  7

 40
1.0
 41
2.2299999999999991
 42
0.5
 43
2.5
 44
1.0
 45
0.0
 46
0.0
 47
0.0
 48
0.01
140
2.7999999999999989
141
0.0
142
0.0
143
25.3999999999999986
144
1.0
145
0.0
146
1.0
147
1.0
 71
     0
 72
     0
 73
     0
 74
     0
 75
     0
 76
     0
 77
     3
 78
     9
170
     0
171
     2
172
     1
173
     0
174
     0
175
     0
176
   256
177
   256
178
    40
  0
DIMSTYLE
  2
BIGT$0
 70
     0
  3

  4

  5
OPEN
  6

  7

 40
1.0
 41
2.2299999999999991
 42
0.5
 43
7.0
 44
1.0
 45
0.0
 46
0.0
 47
0.0
 48
0.01
140
2.7999999999999989
141
0.0
142
0.0
143
25.3999999999999986
144
1.0
145
0.0
146
1.0
147
1.0
 71
     0
 72
     0
 73
     0
 74
     0
 75
     0
 76
     0
 77
     3
 78
     9
170
     0
171
     2
172
     1
173
     0
174
     0
175
     0
176
   256
177
   256
178
    40
  0
DIMSTYLE
  2
BIGT$4
 70
     0
  3

  4

  5
OPEN
  6

  7

 40
1.0
 41
2.2299999999999991
 42
0.5
 43
2.5
 44
1.0
 45
0.0
 46
0.0
 47
0.0
 48
0.01
140
2.7999999999999989
141
0.0
142
0.0
143
25.3999999999999986
144
1.0
145
0.0
146
1.0
147
1.0
 71
     0
 72
     0
 73
     0
 74
     0
 75
     0
 76
     0
 77
     3
 78
     9
170
     0
171
     2
172
     1
173
     0
174
     0
175
     0
176
   256
177
   256
178
    40
  0
DIMSTYLE
  2
BIGT$SH
 70
     0
  3

  4

  5
OPEN
  6

  7

 40
1.0
 41
2.2299999999999991
 42
0.5
 43
7.0
 44
1.0
 45
0.0
 46
0.0
 47
0.0
 48
0.0
140
2.7999999999999989
141
0.0
142
0.0
143
25.3999999999999986
144
1.0
145
0.0
146
1.0
147
1.0
 71
     0
 72
     0
 73
     0
 74
     0
 75
     0
 76
     0
 77
     3
 78
     9
170
     0
171
     2
172
     1
173
     0
174
     0
175
     0
176
   256
177
   256
178
    40
  0
DIMSTYLE
  2
BIGT$SF
 70
     0
  3

  4

  5
OPEN
  6

  7

 40
1.0
 41
2.2299999999999991
 42
0.5
 43
7.0
 44
1.0
 45
0.0
 46
0.0
 47
0.0
 48
0.0
140
2.7999999999999989
141
0.0
142
0.0
143
25.3999999999999986
144
1.0
145
0.0
146
1.0
147
1.0
 71
     0
 72
     0
 73
     0
 74
     0
 75
     0
 76
     0
 77
     3
 78
     9
170
     0
171
     2
172
     1
173
     0
174
     0
175
     0
176
   256
177
   256
178
    40
  0
DIMSTYLE
  2
TECHNICAL_OSAKA
 70
     0
  3

  4
"
  5
OPEN30
  6

  7

 40
1.0
 41
2.5
 42
1.0
 43
10.0
 44
1.0
 45
0.0
 46
0.0
 47
0.1
 48
0.1
140
2.7999999999999989
141
0.0
142
0.0
143
0.0393701
144
1.0
145
0.0
146
0.71
147
1.5
 71
     0
 72
     0
 73
     0
 74
     0
 75
     0
 76
     0
 77
     3
 78
     8
170
     0
171
     2
172
     1
173
     0
174
     0
175
     0
176
   256
177
   256
178
    40
  0
DIMSTYLE
  2
TECHNICAL_OSAKA$3
 70
     0
  3

  4
"
  5
OPEN30
  6

  7

 40
1.0
 41
2.5
 42
1.0
 43
10.0
 44
1.0
 45
0.0
 46
0.0
 47
0.1
 48
0.1
140
2.7999999999999989
141
0.0
142
0.0
143
0.0393701
144
1.0
145
0.0
146
0.71
147
1.5
 71
     0
 72
     0
 73
     0
 74
     1
 75
     0
 76
     0
 77
     3
 78
     8
170
     0
171
     2
172
     0
173
     0
174
     0
175
     0
176
   256
177
   256
178
    40
  0
DIMSTYLE
  2
TECHNICAL_OSAKA$4
 70
     0
  3

  4
"
  5
OPEN30
  6

  7

 40
1.0
 41
2.5
 42
1.0
 43
10.0
 44
1.0
 45
0.0
 46
0.0
 47
0.1
 48
0.1
140
2.7999999999999989
141
0.0
142
0.0
143
0.0393701
144
1.0
145
0.0
146
0.71
147
1.5
 71
     0
 72
     0
 73
     0
 74
     1
 75
     0
 76
     0
 77
     3
 78
     8
170
     0
171
     2
172
     0
173
     0
174
     0
175
     0
176
   256
177
   256
178
    40
  0
DIMSTYLE
  2
TECHNICAL_OSAKA$6
 70
     0
  3

  4
"
  5
OPEN30
  6

  7

 40
1.0
 41
2.5
 42
1.0
 43
10.0
 44
1.0
 45
0.0
 46
0.0
 47
0.1
 48
0.1
140
2.7999999999999989
141
0.0
142
0.0
143
0.0393701
144
1.0
145
0.0
146
0.71
147
1.5
 71
     0
 72
     0
 73
     0
 74
     0
 75
     0
 76
     0
 77
     0
 78
     8
170
     0
171
     2
172
     1
173
     0
174
     0
175
     0
176
   256
177
   256
178
    40
  0
DIMSTYLE
  2
TECHNICAL_OSAKA$7
 70
     0
  3

  4
"
  5
OPEN30
  6

  7

 40
1.0
 41
2.5
 42
1.0
 43
10.0
 44
1.0
 45
0.0
 46
0.0
 47
0.1
 48
0.1
140
2.7999999999999989
141
0.0
142
0.0
143
0.0393701
144
1.0
145
0.0
146
0.71
147
1.5
 71
     0
 72
     0
 73
     0
 74
     0
 75
     0
 76
     0
 77
     3
 78
     8
170
     0
171
     2
172
     1
173
     0
174
     0
175
     0
176
   256
177
   256
178
    40
  0
DIMSTYLE
  2
TECHNICAL_OSAKA$SF
 70
     0
  3

  4
"
  5
OPEN30
  6
OPEN30
  7
OPEN30
 40
1.0
 41
2.5
 42
1.0
 43
10.0
 44
1.0
 45
0.0
 46
0.0
 47
0.1
 48
0.1
140
3.5
141
0.0
142
0.0
143
0.0393701
144
1.0
145
0.0
146
0.71
147
1.5
 71
     0
 72
     0
 73
     0
 74
     0
 75
     1
 76
     1
 77
     3
 78
     8
170
     0
171
     2
172
     1
173
     0
174
     0
175
     0
176
   256
177
   256
178
    40
  0
DIMSTYLE
  2
TECHNICAL_OSAKA$SH
 70
     0
  3

  4
"
  5
OPEN30
  6
GENAXEH
  7
OPEN30
 40
1.0
 41
2.5
 42
1.0
 43
10.0
 44
1.0
 45
0.0
 46
0.0
 47
0.1
 48
0.1
140
3.5
141
0.0
142
0.0
143
0.0393701
144
2.0
145
0.0
146
0.71
147
1.5
 71
     0
 72
     0
 73
     0
 74
     0
 75
     1
 76
     1
 77
     3
 78
     8
170
     0
171
     2
172
     1
173
     1
174
     0
175
     0
176
   256
177
   256
178
    40
  0
DIMSTYLE
  2
AM_ANSI
 70
     0
  3

  4
mm
  5

  6

  7

 40
1.0
 41
0.12
 42
0.05
 43
0.5
 44
0.1
 45
0.0
 46
0.0
 47
0.1
 48
0.1
140
0.12
141
0.0
142
0.0
143
25.3999999999999986
144
1.0
145
0.0
146
0.71
147
0.06
 71
     0
 72
     0
 73
     1
 74
     1
 75
     0
 76
     0
 77
     0
 78
     7
170
     0
171
     2
172
     0
173
     0
174
     0
175
     0
176
   256
177
   256
178
     3
  0
DIMSTYLE
  2
AM_ANSI$3
 70
     0
  3

  4
mm
  5

  6

  7

 40
1.0
 41
0.12
 42
0.05
 43
0.5
 44
0.1
 45
0.0
 46
0.0
 47
0.1
 48
0.1
140
0.12
141
0.0
142
0.0
143
25.3999999999999986
144
1.0
145
0.0
146
0.71
147
0.06
 71
     0
 72
     0
 73
     1
 74
     1
 75
     0
 76
     0
 77
     0
 78
     7
170
     0
171
     2
172
     0
173
     0
174
     0
175
     0
176
   256
177
   256
178
     3
  0
DIMSTYLE
  2
AM_ANSI$4
 70
     0
  3

  4
mm
  5

  6

  7

 40
1.0
 41
0.12
 42
0.05
 43
0.5
 44
0.1
 45
0.0
 46
0.0
 47
0.1
 48
0.1
140
0.12
141
0.0
142
0.0
143
25.3999999999999986
144
1.0
145
0.0
146
0.71
147
0.06
 71
     0
 72
     0
 73
     1
 74
     1
 75
     0
 76
     0
 77
     0
 78
     7
170
     0
171
     2
172
     0
173
     0
174
     0
175
     0
176
   256
177
   256
178
     3
  0
DIMSTYLE
  2
AM_ANSI$7
 70
     0
  3

  4
mm
  5

  6

  7

 40
1.0
 41
0.12
 42
0.05
 43
0.5
 44
0.1
 45
0.0
 46
0.0
 47
0.1
 48
0.1
140
0.12
141
0.0
142
0.0
143
25.3999999999999986
144
1.0
145
0.0
146
0.71
147
0.06
 71
     0
 72
     0
 73
     1
 74
     1
 75
     0
 76
     0
 77
     0
 78
     7
170
     0
171
     2
172
     0
173
     0
174
     0
175
     0
176
   256
177
   256
178
     3
  0
DIMSTYLE
  2
AM_ANSI$SF
 70
     0
  3

  4
mm
  5

  6

  7

 40
1.0
 41
0.12
 42
0.05
 43
0.5
 44
0.1
 45
0.0
 46
0.0
 47
0.1
 48
0.1
140
0.12
141
0.0
142
0.0
143
25.3999999999999986
144
1.0
145
0.0
146
0.71
147
0.06
 71
     0
 72
     0
 73
     1
 74
     1
 75
     1
 76
     1
 77
     0
 78
     7
170
     0
171
     2
172
     0
173
     0
174
     0
175
     0
176
   256
177
   256
178
     3
  0
DIMSTYLE
  2
AM_ANSI$SH
 70
     0
  3

  4
mm
  5

  6
GENAXEH
  7

 40
1.0
 41
0.12
 42
0.05
 43
0.5
 44
0.1
 45
0.0
 46
0.0
 47
0.1
 48
0.1
140
0.12
141
0.0
142
0.0
143
25.3999999999999986
144
1.0
145
0.0
146
0.71
147
0.06
 71
     0
 72
     0
 73
     1
 74
     1
 75
     1
 76
     1
 77
     0
 78
     7
170
     0
171
     2
172
     0
173
     1
174
     0
175
     0
176
   256
177
   256
178
     3
  0
ENDTAB
  0
ENDSEC
  0
SECTION
  2
BLOCKS
  0
BLOCK
  8
0
  2
$MODEL_SPACE
 70
     0
 10
0.0
 20
0.0
 30
0.0
  3
$MODEL_SPACE
  1

  0
ENDBLK
  5
1C
  8
0
  0
BLOCK
 67
     1
  8
0
  2
$PAPER_SPACE
 70
     0
 10
0.0
 20
0.0
 30
0.0
  3
$PAPER_SPACE
  1

  0
ENDBLK
  5
19
 67
     1
  8
0
  0
BLOCK
  8
0
  2
_OPEN
 70
     0
 10
0.0
 20
0.0
 30
0.0
  3
_OPEN
  1

  0
LINE
  5
595
  8
0
  6
BYBLOCK
 62
     0
 10
-1.0
 20
0.1666666666666666
 30
0.0
 11
0.0
 21
0.0
 31
0.0
  0
LINE
  5
596
  8
0
  6
BYBLOCK
 62
     0
 10
-1.0
 20
-0.1666666666666666
 30
0.0
 11
0.0
 21
0.0
 31
0.0
  0
LINE
  5
597
  8
0
  6
BYBLOCK
 62
     0
 10
0.0
 20
0.0
 30
0.0
 11
-1.0
 21
0.0
 31
0.0
  0
ENDBLK
  5
599
  8
0
  0
BLOCK
  8
0
  2
GENAXEH
 70
     0
 10
0.0
 20
0.0
 30
0.0
  3
GENAXEH
  1

  0
LINE
  5
6E8
  8
0
 10
-1.0
 20
0.0
 30
0.0
 11
1.0
 21
0.0
 31
0.0
  0
ENDBLK
  5
6EA
  8
0
  0
BLOCK
  8
0
  2
_OPEN30
 70
     0
 10
0.0
 20
0.0
 30
0.0
  3
_OPEN30
  1

  0
LINE
  5
E8F
  8
0
  6
BYBLOCK
 62
     0
 10
-1.0
 20
0.26794919
 30
0.0
 11
0.0
 21
0.0
 31
0.0
  0
LINE
  5
E90
  8
0
  6
BYBLOCK
 62
     0
 10
0.0
 20
0.0
 30
0.0
 11
-1.0
 21
-0.26794919
 31
0.0
  0
LINE
  5
E91
  8
0
  6
BYBLOCK
 62
     0
 10
0.0
 20
0.0
 30
0.0
 11
-1.0
 21
0.0
 31
0.0
  0
ENDBLK
  5
E93
  8
0
  0
BLOCK
  8
0
  2
_ACMOPEN15
 70
     0
 10
0.0
 20
0.0
 30
0.0
  3
_ACMOPEN15
  1

  0
LINE
  5
1359
  8
245
 62
     0
 10
-1.0
 20
0.0
 30
0.0
 11
0.0
 21
0.0
 31
0.0
  0
LINE
  5
135A
  8
245
 62
     0
 10
-1.0
 20
-0.131652497
 30
0.0
 11
0.0
 21
0.0
 31
0.0
  0
LINE
  5
135B
  8
245
 62
     0
 10
0.0
 20
0.0
 30
0.0
 11
-1.0
 21
0.131652497
 31
0.0
  0
ENDBLK
  5
1358
  8
0
  0
ENDSEC
  0
SECTION
  2
ENTITIES
  0
LINE
  5
1529
  8
240
  6
CONTINUOUS
 10
-14.0000000000001794
 20
-12.6999999999999993
 30
0.0
 11
-83.3000000000000682
 21
-12.6999999999999993
 31
0.0
  0
LINE
  5
152A
  8
240
  6
CONTINUOUS
 10
-14.0000000000001794
 20
12.6999999999999993
 30
0.0
 11
-83.2999999999999403
 21
12.6999999999999993
 31
0.0
  0
LINE
  5
152B
  8
245
  6
CENTER2
 10
2.086953510294391
 20
0.0
 30
0.0
 11
-96.7835626859650233
 21
0.0
 31
0.0
  0
LINE
  5
1534
  8
240
  6
CONTINUOUS
 10
-95.0
 20
-10.5
 30
0.0
 11
-95.0
 21
10.5
 31
0.0
  0
LINE
  5
1535
  8
240
  6
CONTINUOUS
 10
-83.3000000000000682
 20
-12.6999999999999993
 30
0.0
 11
-85.0
 21
-11.0
 31
0.0
  0
LINE
  5
1536
  8
240
  6
CONTINUOUS
 10
-85.0
 20
-11.0
 30
0.0
 11
-94.5000000000000142
 21
-11.0
 31
0.0
  0
LINE
  5
1537
  8
240
  6
CONTINUOUS
 10
-95.0
 20
-10.5
 30
0.0
 11
-94.5000000000000142
 21
-11.0
 31
0.0
  0
LINE
  5
1538
  8
240
  6
CONTINUOUS
 10
-85.0000000000000142
 20
11.0
 30
0.0
 11
-94.5000000000000142
 21
11.0
 31
0.0
  0
LINE
  5
1539
  8
240
  6
CONTINUOUS
 10
-94.5000000000000142
 20
11.0
 30
0.0
 11
-95.0
 21
10.5
 31
0.0
  0
LINE
  5
153A
  8
240
  6
CONTINUOUS
 10
-83.2999999999999403
 20
12.6999999999999993
 30
0.0
 11
-85.0000000000000142
 21
11.0
 31
0.0
  0
LINE
  5
167A
  8
240
  6
CONTINUOUS
 10
-14.0000000000001794
 20
-12.6999999999999993
 30
0.0
 11
-14.0000000000001794
 21
-6.0000000000000231
 31
0.0
  0
LINE
  5
167B
  8
240
  6
CONTINUOUS
 10
-9.4999999999999858
 20
-6.0000000000000364
 30
0.0
 11
-14.0000000000001794
 21
-6.0000000000000231
 31
0.0
  0
LINE
  5
167C
  8
240
  6
CONTINUOUS
 10
-14.0000000000001794
 20
12.6999999999999993
 30
0.0
 11
-14.0000000000001794
 21
5.9999999999999689
 31
0.0
  0
LINE
  5
167D
  8
240
  6
CONTINUOUS
 10
-14.0000000000001794
 20
5.9999999999999689
 30
0.0
 11
-9.5
 21
5.9999999999999698
 31
0.0
  0
LINE
  5
167E
  8
241
  6
CONTINUOUS
 10
-14.0000000000001794
 20
-6.0000000000000231
 30
0.0
 11
-14.0000000000001794
 21
5.999999999999968
 31
0.0
  0
LINE
  5
167F
  8
243
  6
HIDDEN2
 10
-1.300000000000451
 20
4.100000000000021
 30
0.0
 11
-1.3000000000003951
 21
4.8077350269190724
 31
0.0
  0
LINE
  5
1680
  8
243
  6
HIDDEN2
 10
-1.3000000000003951
 20
4.8077350269190724
 30
0.0
 11
0.0000000000000426
 21
4.057179676969465
 31
0.0
  0
LINE
  5
1681
  8
243
  6
HIDDEN2
 10
-2.600000000000378
 20
4.100000000000021
 30
0.0
 11
-2.600000000000477
 21
4.752250164637557
 31
0.0
  0
LINE
  5
1682
  8
243
  6
HIDDEN2
 10
-2.600000000000378
 20
4.100000000000021
 30
0.0
 11
-1.300000000000451
 21
4.100000000000021
 31
0.0
  0
LINE
  5
1683
  8
243
  6
HIDDEN2
 10
-2.600000000000477
 20
4.752250164637557
 30
0.0
 11
-15.0000000000001794
 21
3.448957647343311
 31
0.0
  0
LINE
  5
1684
  8
243
  6
HIDDEN2
 10
-15.0000000000001794
 20
3.0
 30
0.0
 11
0.0
 21
3.0
 31
0.0
  0
LINE
  5
1685
  8
240
  6
CONTINUOUS
 10
0.0
 20
-9.9999999999999982
 30
0.0
 11
-9.5
 21
-10.0000000000000107
 31
0.0
  0
LINE
  5
1686
  8
240
  6
CONTINUOUS
 10
0.0
 20
9.9999999999999982
 30
0.0
 11
0.0
 21
-9.9999999999999982
 31
0.0
  0
LINE
  5
1687
  8
240
  6
CONTINUOUS
 10
0.0
 20
9.9999999999999982
 30
0.0
 11
-9.5
 21
10.0000000000000107
 31
0.0
  0
LINE
  5
1688
  8
240
  6
CONTINUOUS
 10
-9.5
 20
-10.0000000000000107
 30
0.0
 11
-9.4999999999999858
 21
-6.0000000000000364
 31
0.0
  0
LINE
  5
1689
  8
241
  6
CONTINUOUS
 10
-9.5
 20
-6.000000000000032
 30
0.0
 11
-9.5
 21
0.0
 31
0.0
  0
LINE
  5
168A
  8
240
  6
CONTINUOUS
 10
-9.5
 20
10.0000000000000107
 30
0.0
 11
-9.5
 21
5.9999999999999698
 31
0.0
  0
LINE
  5
168B
  8
241
  6
CONTINUOUS
 10
-9.5
 20
5.9999999999999698
 30
0.0
 11
-9.5
 21
0.0
 31
0.0
  0
LINE
  5
168C
  8
243
  6
HIDDEN2
 10
-15.0000000000001794
 20
-3.448957647343311
 30
0.0
 11
-15.0000000000001794
 21
3.448957647343311
 31
0.0
  0
LINE
  5
168D
  8
243
  6
HIDDEN2
 10
-1.300000000000451
 20
-4.100000000000021
 30
0.0
 11
-1.3000000000003951
 21
-4.8077350269190724
 31
0.0
  0
LINE
  5
168E
  8
243
  6
HIDDEN2
 10
-1.3000000000003951
 20
-4.8077350269190724
 30
0.0
 11
0.0000000000000426
 21
-4.057179676969465
 31
0.0
  0
LINE
  5
168F
  8
243
  6
HIDDEN2
 10
-2.600000000000378
 20
-4.100000000000021
 30
0.0
 11
-2.600000000000477
 21
-4.752250164637557
 31
0.0
  0
LINE
  5
1690
  8
243
  6
HIDDEN2
 10
-2.600000000000378
 20
-4.100000000000021
 30
0.0
 11
-1.300000000000451
 21
-4.100000000000021
 31
0.0
  0
LINE
  5
1691
  8
243
  6
HIDDEN2
 10
-2.600000000000477
 20
-4.752250164637557
 30
0.0
 11
-15.0000000000001794
 21
-3.448957647343311
 31
0.0
  0
LINE
  5
1692
  8
243
  6
HIDDEN2
 10
-15.0000000000001794
 20
-3.0
 30
0.0
 11
0.0
 21
-3.0
 31
0.0
  0
LINE
  5
1693
  8
250
  6
CONTINUOUS
 10
0.5
 20
3.0
 30
0.0
 11
10.0
 21
2.999999999999996
 31
0.0
  0
LINE
  5
1694
  8
250
  6
CONTINUOUS
 10
9.0
 20
-4.999999999999992
 30
0.0
 11
9.0
 21
-6.9999999999999911
 31
0.0
  0
LINE
  5
1695
  8
250
  6
CONTINUOUS
 10
8.6666666666666856
 20
4.9999999999999947
 30
0.0
 11
9.0
 21
2.999999999999996
 31
0.0
  0
LINE
  5
1696
  8
250
  6
CONTINUOUS
 10
9.3333333333333144
 20
4.9999999999999938
 30
0.0
 11
9.0
 21
2.999999999999996
 31
0.0
  0
TEXT
  5
1697
  8
250
  6
CONTINUOUS
 10
7.5333333333333172
 20
-9.6556452485314761
 30
0.0
 40
2.799999999999998
  1
max.%%C.236
 50
90.0
1001
ACAD
1000
MTEXTBEGIN
1070
    73
1070
     1
1070
    44
1040
1.0
1070
    74
1070
     0
1000
MTEXTEND
  0
LINE
  5
1698
  8
250
  6
CONTINUOUS
 10
0.5
 20
-10.0
 30
0.0
 11
17.0
 21
-10.0000000000000107
 31
0.0
  0
LINE
  5
1699
  8
250
  6
CONTINUOUS
 10
0.5
 20
10.0
 30
0.0
 11
17.0
 21
10.0
 31
0.0
  0
LINE
  5
169A
  8
250
  6
CONTINUOUS
 10
16.0
 20
-7.770000000000012
 30
0.0
 11
16.0
 21
7.769999999999996
 31
0.0
  0
LINE
  5
169B
  8
250
  6
CONTINUOUS
 10
16.3716666666665986
 20
-7.7700000000000093
 30
0.0
 11
16.0
 21
-10.0000000000000107
 31
0.0
  0
LINE
  5
169C
  8
250
  6
CONTINUOUS
 10
15.6283333333333001
 20
-7.7700000000000093
 30
0.0
 11
16.0
 21
-10.0000000000000107
 31
0.0
  0
LINE
  5
169D
  8
250
  6
CONTINUOUS
 10
16.0
 20
-10.0000000000000107
 30
0.0
 11
16.0
 21
-7.7700000000000093
 31
0.0
  0
LINE
  5
169E
  8
250
  6
CONTINUOUS
 10
15.6283333333333001
 20
7.7700000000000014
 30
0.0
 11
16.0
 21
10.0
 31
0.0
  0
LINE
  5
169F
  8
250
  6
CONTINUOUS
 10
16.3716666666665986
 20
7.7700000000000014
 30
0.0
 11
16.0
 21
10.0
 31
0.0
  0
LINE
  5
16A0
  8
250
  6
CONTINUOUS
 10
16.0
 20
10.0
 30
0.0
 11
16.0
 21
7.7700000000000014
 31
0.0
  0
TEXT
  5
16A1
  8
250
  6
CONTINUOUS
 10
15.0
 20
-6.0477833637429841
 30
0.0
 40
3.0
  1
\U+2205
 50
90.0
1001
ACAD
1000
MTEXTBEGIN
1070
    73
1070
     1
1070
    44
1040
1.0
1070
    74
1070
     0
1000
MTEXTEND
  0
TEXT
  5
16A2
  8
250
  6
CONTINUOUS
 10
14.9000000000000004
 20
-3.333497649457267
 30
0.0
 40
2.799999999999998
  1
.787
 50
90.0
1001
ACAD
1000
MTEXTBEGIN
1070
    73
1070
     1
1070
    44
1040
1.0
1070
    74
1070
     0
1000
MTEXTEND
  0
LINE
  5
16A3
  8
250
  6
CONTINUOUS
 10
0.5
 20
-3.0
 30
0.0
 11
10.0
 21
-2.999999999999996
 31
0.0
  0
LINE
  5
16A4
  8
250
  6
CONTINUOUS
 10
9.0
 20
4.999999999999992
 30
0.0
 11
9.0
 21
6.9999999999999911
 31
0.0
  0
LINE
  5
16A5
  8
250
  6
CONTINUOUS
 10
8.6666666666666856
 20
-4.9999999999999947
 30
0.0
 11
9.0
 21
-2.999999999999996
 31
0.0
  0
LINE
  5
16A6
  8
250
  6
CONTINUOUS
 10
9.3333333333333144
 20
-4.9999999999999938
 30
0.0
 11
9.0
 21
-2.999999999999996
 31
0.0
  0
LINE
  5
16A7
  8
250
  6
CONTINUOUS
 10
9.0
 20
4.9999999999999982
 30
0.0
 11
9.0
 21
-4.9999999999999982
 31
0.0
  0
LINE
  5
16A8
  8
241
  6
CONTINUOUS
 10
-3.5
 20
9.2173294280422073
 30
0.0
 11
-3.5
 21
7.967329428042202
 31
0.0
  0
LINE
  5
16A9
  8
241
  6
CONTINUOUS
 10
-3.5
 20
7.967329428042202
 30
0.0
 11
-9.4999999999999858
 21
7.967329428042202
 31
0.0
  0
LINE
  5
16AA
  8
241
  6
CONTINUOUS
 10
-3.5
 20
9.2173294280422073
 30
0.0
 11
-9.5
 21
9.2173294280422073
 31
0.0
  0
LINE
  5
16AB
  8
241
  6
CONTINUOUS
 10
-3.5
 20
1.249999999999998
 30
0.0
 11
-9.5
 21
1.249999999999998
 31
0.0
  0
LINE
  5
16AC
  8
241
  6
CONTINUOUS
 10
-3.5
 20
-9.2173294280422589
 30
0.0
 11
-3.5
 21
-7.9673294280422571
 31
0.0
  0
LINE
  5
16AD
  8
241
  6
CONTINUOUS
 10
-3.5
 20
-1.249999999999998
 30
0.0
 11
-9.5
 21
-1.249999999999998
 31
0.0
  0
LINE
  5
16AE
  8
241
  6
CONTINUOUS
 10
-3.5
 20
-9.2173294280422589
 30
0.0
 11
-9.4999999999999858
 21
-9.2173294280422589
 31
0.0
  0
LINE
  5
16AF
  8
241
  6
CONTINUOUS
 10
-3.5
 20
-7.9673294280422571
 30
0.0
 11
-9.4999999999999858
 21
-7.9673294280422571
 31
0.0
  0
LINE
  5
16B0
  8
241
  6
CONTINUOUS
 10
-3.5
 20
-1.249999999999998
 30
0.0
 11
-3.5
 21
1.249999999999998
 31
0.0
  0
LINE
  5
18BE
  8
247
  6
CONTINUOUS
 10
-88.2500000000699885
 20
-6.0
 30
0.0
 11
-81.5576923080299991
 21
-6.0
 31
0.0
  0
ARC
  5
18BF
  8
247
  6
CONTINUOUS
 10
-88.2500000000699885
 20
-4.2500000000700311
 30
0.0
 40
1.7499999999299991
 50
90.0
 51
270.0
  0
ARC
  5
18C0
  8
247
  6
CONTINUOUS
 10
-81.5576923080299991
 20
-4.2500000000700311
 30
0.0
 40
1.7499999999299991
 50
270.0
 51
90.0
  0
LINE
  5
18C1
  8
247
  6
CONTINUOUS
 10
-87.3846153847199929
 20
-2.5000000001400622
 30
0.0
 11
-88.2448515419620065
 21
-5.5000000000200071
 31
0.0
  0
LINE
  5
18C2
  8
247
  6
CONTINUOUS
 10
-86.4849838183358059
 20
-3.9230769231598961
 30
0.0
 11
-87.7926761259758166
 21
-3.9230769231598961
 31
0.0
  0
ARC
  5
18C3
  8
247
  6
CONTINUOUS
 10
-86.1451438160897851
 20
-3.049598667702865
 30
0.0
 40
0.5538165441895349
 50
342.9978896752954256
 51
82.9241662185127524
  0
ARC
  5
18C4
  8
247
  6
CONTINUOUS
 10
-86.5668783230287744
 20
-2.936033044465828
 30
0.0
 40
0.9904354236226808
 50
274.7429368522014101
 51
343.8492262732664813
1001
GENIUS_GENOBJ-N-FIL_13
1002
{
1000
OWNER
1000
GEN
1002
}
1001
GENIUS_GENODEF_13
1002
{
1000
HIER
1070
     0
1002
}
1002
{
1000
MANEDIT
1070
     0
1002
}
1002
{
1000
NOSEL
1070
     0
1002
}
1002
{
1000
BEHIND
1070
     0
1002
}
1002
{
1000
OTHER
1070
     0
1002
}
1002
{
1000
REACTOR
1002
}
  0
LINE
  5
18C5
  8
247
  6
CONTINUOUS
 10
-86.9371592343220101
 20
-5.5000000000200071
 30
0.0
 11
-88.2448515419620065
 21
-5.5000000000200071
 31
0.0
  0
LINE
  5
18C6
  8
247
  6
CONTINUOUS
 10
-87.3846153847199929
 20
-2.5000000001400622
 30
0.0
 11
-86.0769230770799965
 21
-2.5000000001400622
 31
0.0
  0
ARC
  5
18C7
  8
247
  6
CONTINUOUS
 10
-86.56091963654697
 20
-4.482024232665478
 30
0.0
 40
0.5640818586791229
 50
335.9909416525217125
 51
82.263443459069066
  0
ARC
  5
18C8
  8
247
  6
CONTINUOUS
 10
-87.038262685347064
 20
-4.487429039186507
 30
0.0
 40
1.0176059446230981
 50
275.7019851642580761
 51
347.2773384368222764
1001
GENIUS_GENOBJ-N-FIL_13
1002
{
1000
OWNER
1000
GEN
1002
}
1001
GENIUS_GENODEF_13
1002
{
1000
HIER
1070
     0
1002
}
1002
{
1000
MANEDIT
1070
     0
1002
}
1002
{
1000
NOSEL
1070
     0
1002
}
1002
{
1000
BEHIND
1070
     0
1002
}
1002
{
1000
OTHER
1070
     0
1002
}
1002
{
1000
REACTOR
1002
}
  0
LINE
  5
18C9
  8
247
  6
CONTINUOUS
 10
-85.2833130805420012
 20
-5.5000000000200071
 30
0.0
 11
-84.423076923300016
 21
-2.5000000001400622
 31
0.0
  0
LINE
  5
18CA
  8
247
  6
CONTINUOUS
 10
-82.00000000032
 20
-2.5000000001400622
 30
0.0
 11
-82.5657366194566009
 21
-2.5000000001400622
 31
0.0
  0
LINE
  5
18CB
  8
247
  6
CONTINUOUS
 10
-83.4615384618000036
 20
-5.5000000000200071
 30
0.0
 11
-82.8461538464400178
 21
-5.5000000000200071
 31
0.0
  0
ARC
  5
18CC
  8
247
  6
CONTINUOUS
 10
-81.7087912091228645
 20
-4.5832851359733668
 30
0.0
 40
2.2526500823422122
 50
112.3594881415302069
 51
164.9932485428460041
  0
ARC
  5
18CD
  8
247
  6
CONTINUOUS
 10
-82.3740694792132331
 20
-3.308312655194638
 30
0.0
 40
0.8906723995727782
 50
4.9945893190753781
 51
65.1663289573004931
1001
GENIUS_GENOBJ-N-FIL_13
1002
{
1000
OWNER
1000
GEN
1002
}
1001
GENIUS_GENODEF_13
1002
{
1000
HIER
1070
     0
1002
}
1002
{
1000
MANEDIT
1070
     0
1002
}
1002
{
1000
NOSEL
1070
     0
1002
}
1002
{
1000
BEHIND
1070
     0
1002
}
1002
{
1000
OTHER
1070
     0
1002
}
1002
{
1000
REACTOR
1002
}
  0
ARC
  5
18CE
  8
247
  6
CONTINUOUS
 10
-83.2264588862125692
 20
-4.160145888667782
 30
0.0
 40
1.392781735586712
 50
285.8460965557807185
 51
352.3251370041625137
  0
ARC
  5
18CF
  8
247
  6
CONTINUOUS
 10
-82.6422127258403663
 20
-4.4592434315272831
 30
0.0
 40
1.324563662670287
 50
159.7136016704901067
 51
231.7887456564120896
1001
GENIUS_GENOBJ-N-FIL_13
1002
{
1000
OWNER
1000
GEN
1002
}
1001
GENIUS_GENODEF_13
1002
{
1000
HIER
1070
     0
1002
}
1002
{
1000
MANEDIT
1070
     0
1002
}
1002
{
1000
NOSEL
1070
     0
1002
}
1002
{
1000
BEHIND
1070
     0
1002
}
1002
{
1000
OTHER
1070
     0
1002
}
1002
{
1000
REACTOR
1002
}
  0
LINE
  5
18D0
  8
247
  6
CONTINUOUS
 10
-82.5384615387600036
 20
-4.346153846219976
 30
0.0
 11
-81.8461538464800071
 21
-4.346153846219976
 31
0.0
  0
LINE
  5
18D1
  8
247
  6
CONTINUOUS
 10
-88.2500000000700311
 20
-2.5000000001400622
 30
0.0
 11
-87.5769230770200551
 21
-2.5000000001400622
 31
0.0
  0
TEXT
  5
192C
  8
241
  6
CONTINUOUS
 10
-98.0
 20
42.0
 30
0.0
 40
5.0
  1
SL25.4-NBS6-80
  7
YOKO
 11
-98.0
 21
42.0
 31
0.0
 73
     1
  0
LINE
  5
192D
  8
250
  6
CONTINUOUS
 10
-14.0000000000001794
 20
13.1999999999999993
 30
0.0
 11
-14.0000000000001794
 21
29.0
 31
0.0
  0
LINE
  5
192E
  8
250
  6
CONTINUOUS
 10
0.0
 20
10.4103379402241103
 30
0.0
 11
0.0000000000000012
 21
29.0
 31
0.0
  0
LINE
  5
192F
  8
250
  6
CONTINUOUS
 10
-11.7700000000001808
 20
28.0
 30
0.0
 11
-2.2299999999999982
 21
28.0
 31
0.0
  0
LINE
  5
1933
  8
250
  6
CONTINUOUS
 10
-11.7700000000001808
 20
27.6283333333333303
 30
0.0
 11
-14.0000000000001794
 21
28.0
 31
0.0
  0
LINE
  5
1934
  8
250
  6
CONTINUOUS
 10
-11.7700000000001808
 20
28.371666666666659
 30
0.0
 11
-14.0000000000001794
 21
28.0
 31
0.0
  0
LINE
  5
1935
  8
250
  6
CONTINUOUS
 10
-14.0000000000001794
 20
28.0
 30
0.0
 11
-11.7700000000001808
 21
28.0
 31
0.0
  0
LINE
  5
1936
  8
250
  6
CONTINUOUS
 10
-2.2299999999999982
 20
28.371666666666659
 30
0.0
 11
0.0000000000000012
 21
28.0
 31
0.0
  0
LINE
  5
1937
  8
250
  6
CONTINUOUS
 10
-2.2299999999999982
 20
27.6283333333333303
 30
0.0
 11
0.0000000000000012
 21
28.0
 31
0.0
  0
LINE
  5
1938
  8
250
  6
CONTINUOUS
 10
0.0000000000000012
 20
28.0
 30
0.0
 11
-2.2299999999999982
 21
28.0
 31
0.0
  0
TEXT
  5
1939
  8
250
  6
CONTINUOUS
 10
-10.6428571428572294
 20
29.0
 30
0.0
 40
3.0
  1
.55
  0
LINE
  5
193A
  8
250
  6
CONTINUOUS
 10
-95.0
 20
11.0
 30
0.0
 11
-95.0
 21
29.0
 31
0.0
  0
LINE
  5
193B
  8
250
  6
CONTINUOUS
 10
-14.0000000000001794
 20
13.1999999999999993
 30
0.0
 11
-14.0000000000001794
 21
29.0
 31
0.0
  0
LINE
  5
193C
  8
250
  6
CONTINUOUS
 10
-92.769999999999996
 20
28.0
 30
0.0
 11
-16.2300000000001816
 21
28.0
 31
0.0
  0
LINE
  5
1940
  8
250
  6
CONTINUOUS
 10
-92.769999999999996
 20
27.6283333333333303
 30
0.0
 11
-95.0
 21
28.0
 31
0.0
  0
LINE
  5
1941
  8
250
  6
CONTINUOUS
 10
-92.769999999999996
 20
28.371666666666659
 30
0.0
 11
-95.0
 21
28.0
 31
0.0
  0
LINE
  5
1942
  8
250
  6
CONTINUOUS
 10
-95.0
 20
28.0
 30
0.0
 11
-92.769999999999996
 21
28.0
 31
0.0
  0
LINE
  5
1943
  8
250
  6
CONTINUOUS
 10
-16.2300000000001816
 20
28.371666666666659
 30
0.0
 11
-14.0000000000001794
 21
28.0
 31
0.0
  0
LINE
  5
1944
  8
250
  6
CONTINUOUS
 10
-16.2300000000001816
 20
27.6283333333333303
 30
0.0
 11
-14.0000000000001794
 21
28.0
 31
0.0
  0
LINE
  5
1945
  8
250
  6
CONTINUOUS
 10
-14.0000000000001794
 20
28.0
 30
0.0
 11
-16.2300000000001816
 21
28.0
 31
0.0
  0
TEXT
  5
1946
  8
250
  6
CONTINUOUS
 10
-59.4285714285715088
 20
29.0
 30
0.0
 40
3.0
  1
3.19
  0
LINE
  5
1947
  8
250
  6
CONTINUOUS
 10
-83.8000000000000966
 20
-12.6999999999999993
 30
0.0
 11
-106.0000000000014069
 21
-12.7000000000000099
 31
0.0
  0
LINE
  5
1948
  8
250
  6
CONTINUOUS
 10
-83.7999999999999687
 20
12.6999999999999993
 30
0.0
 11
-106.0000000000014069
 21
12.6999999999999993
 31
0.0
  0
LINE
  5
1949
  8
250
  6
CONTINUOUS
 10
-105.0000000000014069
 20
-10.4700000000000095
 30
0.0
 11
-105.0000000000014069
 21
10.4700000000000006
 31
0.0
  0
LINE
  5
194D
  8
250
  6
CONTINUOUS
 10
-104.6283333333346945
 20
-10.4700000000000095
 30
0.0
 11
-105.0000000000014069
 21
-12.7000000000000099
 31
0.0
  0
LINE
  5
194E
  8
250
  6
CONTINUOUS
 10
-105.371666666668105
 20
-10.4700000000000095
 30
0.0
 11
-105.0000000000014069
 21
-12.7000000000000099
 31
0.0
  0
LINE
  5
194F
  8
250
  6
CONTINUOUS
 10
-105.0000000000014069
 20
-12.7000000000000099
 30
0.0
 11
-105.0000000000014069
 21
-10.4700000000000095
 31
0.0
  0
LINE
  5
1950
  8
250
  6
CONTINUOUS
 10
-105.371666666668105
 20
10.4700000000000006
 30
0.0
 11
-105.0000000000014069
 21
12.6999999999999993
 31
0.0
  0
LINE
  5
1951
  8
250
  6
CONTINUOUS
 10
-104.6283333333346945
 20
10.4700000000000006
 30
0.0
 11
-105.0000000000014069
 21
12.6999999999999993
 31
0.0
  0
LINE
  5
1952
  8
250
  6
CONTINUOUS
 10
-105.0000000000014069
 20
12.6999999999999993
 30
0.0
 11
-105.0000000000014069
 21
10.4700000000000006
 31
0.0
  0
TEXT
  5
1953
  8
250
  6
CONTINUOUS
 10
-106.0000000000014069
 20
-7.7857142857142589
 30
0.0
 40
3.0
  1
\U+22051.000
 50
90.0
  0
VIEWPORT
  5
22
 67
     1
  8
0
 10
261.517699115044195
 20
148.5
 30
0.0
 40
523.0353982300885036
 41
297.0
 68
     1
 69
     1
1001
ACAD
1000
MVIEW
1002
{
1070
    16
1010
0.0
1020
0.0
1030
0.0
1010
0.0
1020
0.0
1030
1.0
1040
0.0
1040
297.0
1040
261.517699115044195
1040
148.5
1040
50.0
1040
0.0
1040
0.0
1070
     0
1070
   100
1070
     1
1070
     1
1070
     0
1070
     0
1070
     0
1070
     0
1040
0.0
1040
0.0
1040
0.0
1040
1.0
1040
1.0
1040
10.0
1040
10.0
1070
     0
1002
{
1002
}
1002
}
1001
GENIUS_GENODEF_13
1002
{
1000
HIER
1070
     0
1002
}
1002
{
1000
MANEDIT
1070
     0
1002
}
1002
{
1000
NOSEL
1070
     0
1002
}
1002
{
1000
BEHIND
1070
     0
1002
}
1002
{
1000
OTHER
1070
     0
1002
}
1002
{
1000
REACTOR
1002
}
1001
GENIUS_GENOBJ-N-SDF_13
1002
{
1000
OWNER
1000
GEN
1002
}
1001
GENIUS_GENSCREG_15
1000
PF
1040
1.0
1000
DF
1040
1.0
1000
MIN
1011
0.0
1021
0.0
1031
0.0
1021
0.0
1031
0.0
1000
MAX
1011
523.0353982300885036
1021
0.0
1031
0.0
1021
297.0
1031
0.0
1000
FLAGS
1070
     4
  0
ENDSEC
  0
EOF
