  0
SECTION
  2
HEADER
  9
$ACADVER
  1
AC1009
  9
$INSBASE
 10
0.0
 20
0.0
 30
0.0
  9
$EXTMIN
 10
-151.0000000000007958
 20
-12.7000000000000099
 30
0.0
  9
$EXTMAX
 10
17.0
 20
47.0000000000000071
 30
0.0
  9
$LIMMIN
 10
0.0
 20
0.0
  9
$LIMMAX
 10
297.0
 20
210.0
  9
$ORTHOMODE
 70
     0
  9
$REGENMODE
 70
     1
  9
$FILLMODE
 70
     1
  9
$QTEXTMODE
 70
     0
  9
$MIRRTEXT
 70
     1
  9
$DRAGMODE
 70
     2
  9
$LTSCALE
 40
10.0
  9
$OSMODE
 70
   807
  9
$ATTMODE
 70
     1
  9
$TEXTSIZE
 40
3.0
  9
$TRACEWID
 40
1.0
  9
$TEXTSTYLE
  7
YOKO
  9
$CLAYER
  8
240
  9
$CELTYPE
  6
BYLAYER
  9
$CECOLOR
 62
   256
  9
$DIMSCALE
 40
1.0
  9
$DIMASZ
 40
2.2299999999999991
  9
$DIMEXO
 40
0.5
  9
$DIMDLI
 40
7.0
  9
$DIMRND
 40
0.0
  9
$DIMDLE
 40
0.0
  9
$DIMEXE
 40
1.0
  9
$DIMTP
 40
0.0
  9
$DIMTM
 40
0.01
  9
$DIMTXT
 40
2.7999999999999989
  9
$DIMCEN
 40
0.0
  9
$DIMTSZ
 40
0.0
  9
$DIMTOL
 70
     0
  9
$DIMLIM
 70
     0
  9
$DIMTIH
 70
     0
  9
$DIMTOH
 70
     0
  9
$DIMSE1
 70
     0
  9
$DIMSE2
 70
     0
  9
$DIMTAD
 70
     3
  9
$DIMZIN
 70
     9
  9
$DIMBLK
  1
OPEN
  9
$DIMASO
 70
     1
  9
$DIMSHO
 70
     1
  9
$DIMPOST
  1

  9
$DIMAPOST
  1

  9
$DIMALT
 70
     0
  9
$DIMALTD
 70
     2
  9
$DIMALTF
 40
25.3999999999999986
  9
$DIMLFAC
 40
1.0
  9
$DIMTOFL
 70
     1
  9
$DIMTVP
 40
0.0
  9
$DIMTIX
 70
     1
  9
$DIMSOXD
 70
     0
  9
$DIMSAH
 70
     0
  9
$DIMBLK1
  1

  9
$DIMBLK2
  1

  9
$DIMSTYLE
  2
BIGT
  9
$DIMCLRD
 70
   256
  9
$DIMCLRE
 70
   256
  9
$DIMCLRT
 70
    40
  9
$DIMTFAC
 40
1.0
  9
$DIMGAP
 40
1.0
  9
$LUNITS
 70
     2
  9
$LUPREC
 70
     3
  9
$SKETCHINC
 40
1.0
  9
$FILLETRAD
 40
0.0
  9
$AUNITS
 70
     0
  9
$AUPREC
 70
     3
  9
$MENU
  1
.
  9
$ELEVATION
 40
0.0
  9
$PELEVATION
 40
0.0
  9
$THICKNESS
 40
0.0
  9
$LIMCHECK
 70
     0
  9
$BLIPMODE
 70
     0
  9
$CHAMFERA
 40
0.25
  9
$CHAMFERB
 40
0.25
  9
$SKPOLY
 70
     0
  9
$TDCREATE
 40
2458193.7507060188800097
  9
$TDUPDATE
 40
2458194.685543981846422
  9
$TDINDWG
 40
0.0118402778
  9
$TDUSRTIMER
 40
0.0118402778
  9
$USRTIMER
 70
     1
  9
$ANGBASE
 50
0.0
  9
$ANGDIR
 70
     0
  9
$PDMODE
 70
     1
  9
$PDSIZE
 40
0.0
  9
$PLINEWID
 40
0.0
  9
$COORDS
 70
     1
  9
$SPLFRAME
 70
     0
  9
$SPLINETYPE
 70
     6
  9
$SPLINESEGS
 70
     4
  9
$ATTDIA
 70
     1
  9
$ATTREQ
 70
     1
  9
$HANDLING
 70
     1
  9
$HANDSEED
  5
19E9
  9
$SURFTAB1
 70
     6
  9
$SURFTAB2
 70
     6
  9
$SURFTYPE
 70
     6
  9
$SURFU
 70
     6
  9
$SURFV
 70
     6
  9
$UCSNAME
  2

  9
$UCSORG
 10
0.0
 20
0.0
 30
0.0
  9
$UCSXDIR
 10
1.0
 20
0.0
 30
0.0
  9
$UCSYDIR
 10
0.0
 20
1.0
 30
0.0
  9
$PUCSNAME
  2

  9
$PUCSORG
 10
0.0
 20
0.0
 30
0.0
  9
$PUCSXDIR
 10
1.0
 20
0.0
 30
0.0
  9
$PUCSYDIR
 10
0.0
 20
1.0
 30
0.0
  9
$USERI1
 70
     1
  9
$USERI2
 70
     0
  9
$USERI3
 70
     0
  9
$USERI4
 70
     0
  9
$USERI5
 70
     0
  9
$USERR1
 40
0.0
  9
$USERR2
 40
0.0
  9
$USERR3
 40
0.0
  9
$USERR4
 40
0.0
  9
$USERR5
 40
0.0
  9
$WORLDVIEW
 70
     1
  9
$SHADEDGE
 70
     3
  9
$SHADEDIF
 70
    70
  9
$TILEMODE
 70
     1
  9
$MAXACTVP
 70
    16
  9
$PLIMCHECK
 70
     0
  9
$PEXTMIN
 10
1.0000000000000000E+20
 20
1.0000000000000000E+20
 30
1.0000000000000000E+20
  9
$PEXTMAX
 10
-1.0000000000000000E+20
 20
-1.0000000000000000E+20
 30
-1.0000000000000000E+20
  9
$PLIMMIN
 10
0.0
 20
0.0
  9
$PLIMMAX
 10
420.0
 20
297.0
  9
$UNITMODE
 70
     0
  9
$VISRETAIN
 70
     1
  9
$PLINEGEN
 70
     0
  9
$PSLTSCALE
 70
     1
  0
ENDSEC
  0
SECTION
  2
TABLES
  0
TABLE
  2
VPORT
 70
     1
  0
VPORT
  2
*ACTIVE
 70
     0
 10
0.0
 20
0.0
 11
1.0
 21
1.0
 12
-59.3963767281321111
 22
7.3736076951942939
 13
0.0
 23
0.0
 14
7.0
 24
7.0
 15
7.0
 25
7.0
 16
0.0
 26
0.0
 36
1.0
 17
0.0
 27
0.0
 37
0.0
 40
139.2781065234428866
 41
1.8592342342342341
 42
50.0
 43
0.0
 44
0.0
 50
0.0
 51
0.0
 71
     0
 72
  2000
 73
     1
 74
     0
 75
     0
 76
     1
 77
     0
 78
     0
  0
ENDTAB
  0
TABLE
  2
LTYPE
 70
    13
  0
LTYPE
  2
CONTINUOUS
 70
     0
  3
Solid line
 72
    65
 73
     0
 40
0.0
  0
LTYPE
  2
CENTER2
 70
     0
  3
___ _ ___ _ ___ _ ___ _ ___ _ ___ _ ___ _ ___ _
 72
    65
 73
     4
 40
1.125
 49
0.75
 49
-0.125
 49
0.125
 49
-0.125
  0
LTYPE
  2
HIDDEN2
 70
     0
  3
_ _ _ _ _ _ _ _ _ _ _ _ _ _ _ _ _ _ _ _ _ _ _ _
 72
    65
 73
     2
 40
0.1875
 49
0.125
 49
-0.0625
  0
LTYPE
  2
PHANTOM2
 70
     0
  3
___ _ _ ___ _ _ ___ _ _ ___ _ _ ___ _ _ ___ _ _
 72
    65
 73
     6
 40
1.25
 49
0.625
 49
-0.125
 49
0.125
 49
-0.125
 49
0.125
 49
-0.125
  0
LTYPE
  2
CENTER
 70
     0
  3
____ _ ____ _ ____ _ ____ _ ____ _ ____ _ ____ 
 72
    65
 73
     4
 40
2.0
 49
1.25
 49
-0.25
 49
0.25
 49
-0.25
  0
LTYPE
  2
AM_ISO02W050
 70
     0
  3
__ __ __ __ __ __ __ __ __ __ __ __ __ __ __
 72
    65
 73
     2
 40
7.5
 49
6.0
 49
-1.5
  0
LTYPE
  2
AMCONSTR
 70
     0
  3
_______________________
 72
    65
 73
     2
 40
9999.0
 49
9999.0
 49
0.0
  0
LTYPE
  2
ACISOWELD
 70
     0
  3
_ _ _ _ _
 72
    65
 73
     2
 40
2.0
 49
2.0
 49
-1.0
  0
LTYPE
  2
ACISOTGB
 70
     0
  3
__ . . __ . .
 72
    65
 73
     6
 40
9.0
 49
4.0
 49
-1.0
 49
1.0
 49
-1.0
 49
1.0
 49
-1.0
  0
LTYPE
  2
ACISOTGL
 70
     0
  3
_ _ _ _ _
 72
    65
 73
     2
 40
3.0
 49
2.0
 49
-1.0
  0
LTYPE
  2
ACJISTGB
 70
     0
  3
__ . . __ . .
 72
    65
 73
     6
 40
9.0
 49
4.0
 49
-1.0
 49
1.0
 49
-1.0
 49
1.0
 49
-1.0
  0
LTYPE
  2
ACJISTGL
 70
     0
  3
_ _ _ _ _
 72
    65
 73
     2
 40
3.0
 49
2.0
 49
-1.0
  0
ENDTAB
  0
TABLE
  2
LAYER
 70
     8
  0
LAYER
  2
0
 70
     0
 62
     7
  6
CONTINUOUS
  0
LAYER
  2
DEFPOINTS
 70
     0
 62
     7
  6
CONTINUOUS
  0
LAYER
  2
245
 70
     0
 62
     2
  6
CENTER2
  0
LAYER
  2
240
 70
     0
 62
     4
  6
CONTINUOUS
  0
LAYER
  2
241
 70
     0
 62
   211
  6
CONTINUOUS
  0
LAYER
  2
243
 70
     0
 62
   211
  6
HIDDEN2
  0
LAYER
  2
247
 70
     0
 62
    60
  6
CONTINUOUS
  0
LAYER
  2
250
 70
     0
 62
     3
  6
CONTINUOUS
  0
ENDTAB
  0
TABLE
  2
STYLE
 70
     6
  0
STYLE
  2
STANDARD
 70
     0
 40
0.0
 41
1.0
 50
0.0
 71
     0
 42
3.0
  3
romans.shx
  4
extfont.shx
  0
STYLE
  2
ACISOTS
 70
     0
 40
1.0
 41
1.0
 50
0.0
 71
     0
 42
3.0
  3
amgdt.shx
  4
extfont.shx
  0
STYLE
  2
ACISOGDT
 70
     0
 40
0.0
 41
1.0
 50
0.0
 71
     0
 42
3.0
  3
amgdt.shx
  4
extfont.shx
  0
STYLE
  2
ACJISTS
 70
     0
 40
1.0
 41
1.0
 50
0.0
 71
     0
 42
3.0
  3
amgdt.shx
  4
extfont.shx
  0
STYLE
  2
ACJISGDT
 70
     0
 40
0.0
 41
1.0
 50
0.0
 71
     0
 42
3.0
  3
amgdt.shx
  4
extfont.shx
  0
STYLE
  2
YOKO
 70
     0
 40
0.0
 41
1.0
 50
0.0
 71
     0
 42
3.0
  3
romans.shx
  4
extfont.shx
  0
ENDTAB
  0
TABLE
  2
VIEW
 70
     0
  0
ENDTAB
  0
TABLE
  2
UCS
 70
     0
  0
ENDTAB
  0
TABLE
  2
APPID
 70
    39
  0
APPID
  2
ACAD
 70
     0
  0
APPID
  2
GLOBAL
 70
     0
  0
APPID
  2
DETAIL
 70
     0
  0
APPID
  2
GRPNAME
 70
     0
  0
APPID
  2
GPARA
 70
     0
  0
APPID
  2
MCAD_NO_VIS
 70
     0
  0
APPID
  2
ACAD_TEMP_GRAPHIC
 70
     0
  0
APPID
  2
ACATTRIBSERVICES
 70
     0
  0
APPID
  2
GENIUS_GENSCREG_15
 70
     0
  0
APPID
  2
GENIUS_GENODEF_13
 70
     0
  0
APPID
  2
GENIUS_GENOBJ-N-SDF_13
 70
     0
  0
APPID
  2
GENIUS_GENREC_14
 70
     0
  0
APPID
  2
GENIUS_GENOBJ-N-REC_13
 70
     0
  0
APPID
  2
GENIUS_GENDIMSH_14
 70
     0
  0
APPID
  2
GENIUS_GENOBJ-N-DIM_13
 70
     0
  0
APPID
  2
GENIUS_GENDIM_13
 70
     0
  0
APPID
  2
GENIUS_GENDTOL_13
 70
     0
  0
APPID
  2
GENIUS_GENOLIS_13
 70
     0
  0
APPID
  2
GENIUS_GENOENT_13
 70
     0
  0
APPID
  2
GENIUS_GENOBJ-F-FEM_13
 70
     0
  0
APPID
  2
GENIUS_GENOREF_13
 70
     0
  0
APPID
  2
GENIUS_GEFFEM_13
 70
     0
  0
APPID
  2
GENIUS_GEFFEMP_13
 70
     0
  0
APPID
  2
AD_DRAW
 70
     0
  0
APPID
  2
DESIGNERASSEMBLIES
 70
     0
  0
APPID
  2
ACADM_DIM_EDIT
 70
     0
  0
APPID
  2
AMDT_DM_ADJ
 70
     0
  0
APPID
  2
ACAD_NAV_VCDISPLAY
 70
     0
  0
APPID
  2
HATCH_TYPE
 70
     0
  0
APPID
  2
HATCH_DISPLAY
 70
     0
  0
APPID
  2
HATCH_DISTANCE
 70
     0
  0
APPID
  2
ACAD_DSTYLE_DIMJAG
 70
     0
  0
APPID
  2
ACAD_DSTYLE_DIMBREAK
 70
     0
  0
APPID
  2
ACAECLAYERSTANDARD
 70
     0
  0
APPID
  2
GENIUS_GENOBJ-N-FIL_13
 70
     0
  0
APPID
  2
ACAD_DSTYLE_DIMINSPECT
 70
     0
  0
APPID
  2
ACADANNOMONITORALERTICONDI
 70
     0
  0
APPID
  2
ACAD_EXEMPT_FROM_CAD_STANDARDS
 70
     0
  0
APPID
  2
ACAD_MLEADERVER
 70
     0
  0
ENDTAB
  0
TABLE
  2
DIMSTYLE
 70
    23
  0
DIMSTYLE
  2
BIGT
 70
     0
  3

  4

  5
OPEN
  6

  7

 40
1.0
 41
2.2299999999999991
 42
0.5
 43
7.0
 44
1.0
 45
0.0
 46
0.0
 47
0.0
 48
0.01
140
2.7999999999999989
141
0.0
142
0.0
143
25.3999999999999986
144
1.0
145
0.0
146
1.0
147
1.0
 71
     0
 72
     0
 73
     0
 74
     0
 75
     0
 76
     0
 77
     3
 78
     9
170
     0
171
     2
172
     1
173
     0
174
     1
175
     0
176
   256
177
   256
178
    40
  0
DIMSTYLE
  2
AM_ISO
 70
     0
  3

  4
"
  5

  6

  7

 40
1.0
 41
2.5
 42
1.0
 43
10.0
 44
1.0
 45
0.0
 46
0.0
 47
0.1
 48
0.1
140
3.5
141
0.0
142
0.0
143
0.0393701
144
1.0
145
0.0
146
0.71
147
1.5
 71
     0
 72
     0
 73
     0
 74
     0
 75
     0
 76
     0
 77
     1
 78
     8
170
     0
171
     2
172
     1
173
     0
174
     0
175
     0
176
   256
177
   256
178
     2
  0
DIMSTYLE
  2
AM_ISO$3
 70
     0
  3

  4
"
  5

  6

  7

 40
1.0
 41
2.5
 42
1.0
 43
10.0
 44
1.0
 45
0.0
 46
0.0
 47
0.1
 48
0.1
140
3.5
141
0.0
142
0.0
143
0.0393701
144
1.0
145
0.0
146
0.71
147
1.5
 71
     0
 72
     0
 73
     0
 74
     1
 75
     0
 76
     0
 77
     1
 78
     8
170
     0
171
     2
172
     0
173
     0
174
     0
175
     0
176
   256
177
   256
178
     2
  0
DIMSTYLE
  2
AM_ISO$4
 70
     0
  3

  4
"
  5

  6

  7

 40
1.0
 41
2.5
 42
1.0
 43
10.0
 44
1.0
 45
0.0
 46
0.0
 47
0.1
 48
0.1
140
3.5
141
0.0
142
0.0
143
0.0393701
144
1.0
145
0.0
146
0.71
147
1.5
 71
     0
 72
     0
 73
     0
 74
     1
 75
     0
 76
     0
 77
     1
 78
     8
170
     0
171
     2
172
     0
173
     0
174
     0
175
     0
176
   256
177
   256
178
     2
  0
DIMSTYLE
  2
AM_ISO$6
 70
     0
  3

  4
"
  5

  6

  7

 40
1.0
 41
2.5
 42
1.0
 43
10.0
 44
1.0
 45
0.0
 46
0.0
 47
0.1
 48
0.1
140
3.5
141
0.0
142
0.0
143
0.0393701
144
1.0
145
0.0
146
0.71
147
1.5
 71
     0
 72
     0
 73
     0
 74
     0
 75
     0
 76
     0
 77
     0
 78
     8
170
     0
171
     2
172
     1
173
     0
174
     0
175
     0
176
   256
177
   256
178
     2
  0
DIMSTYLE
  2
AM_ISO$7
 70
     0
  3

  4
"
  5

  6

  7

 40
1.0
 41
2.5
 42
1.0
 43
10.0
 44
1.0
 45
0.0
 46
0.0
 47
0.1
 48
0.1
140
5.0
141
0.0
142
0.0
143
0.0393701
144
1.0
145
0.0
146
0.71
147
1.5
 71
     0
 72
     0
 73
     0
 74
     0
 75
     0
 76
     0
 77
     1
 78
     8
170
     0
171
     2
172
     1
173
     0
174
     0
175
     0
176
   256
177
   256
178
     2
  0
DIMSTYLE
  2
AM_ISO$SF
 70
     0
  3

  4
"
  5

  6

  7

 40
1.0
 41
2.5
 42
1.0
 43
10.0
 44
1.0
 45
0.0
 46
0.0
 47
0.1
 48
0.1
140
3.5
141
0.0
142
0.0
143
0.0393701
144
1.0
145
0.0
146
0.71
147
1.5
 71
     0
 72
     0
 73
     0
 74
     0
 75
     1
 76
     1
 77
     1
 78
     8
170
     0
171
     2
172
     1
173
     0
174
     0
175
     0
176
   256
177
   256
178
     2
  0
DIMSTYLE
  2
AM_ISO$SH
 70
     0
  3

  4
"
  5

  6
GENAXEH
  7

 40
1.0
 41
2.5
 42
1.0
 43
10.0
 44
1.0
 45
0.0
 46
0.0
 47
0.1
 48
0.1
140
3.5
141
0.0
142
0.0
143
0.0393701
144
2.0
145
0.0
146
0.71
147
1.5
 71
     0
 72
     0
 73
     0
 74
     0
 75
     1
 76
     1
 77
     1
 78
     8
170
     0
171
     2
172
     1
173
     1
174
     0
175
     0
176
   256
177
   256
178
     2
  0
DIMSTYLE
  2
BIGT$2
 70
     0
  3

  4

  5
OPEN
  6

  7

 40
1.0
 41
2.2299999999999991
 42
0.5
 43
7.0
 44
1.0
 45
0.0
 46
0.0
 47
0.0
 48
0.01
140
2.7999999999999989
141
0.0
142
0.0
143
25.3999999999999986
144
1.0
145
0.0
146
1.0
147
1.0
 71
     0
 72
     0
 73
     0
 74
     0
 75
     0
 76
     0
 77
     3
 78
     9
170
     0
171
     2
172
     1
173
     0
174
     0
175
     0
176
   256
177
   256
178
    40
  0
DIMSTYLE
  2
BIGT$3
 70
     0
  3

  4

  5
OPEN
  6

  7

 40
1.0
 41
2.2299999999999991
 42
0.5
 43
2.5
 44
1.0
 45
0.0
 46
0.0
 47
0.0
 48
0.01
140
2.7999999999999989
141
0.0
142
0.0
143
25.3999999999999986
144
1.0
145
0.0
146
1.0
147
1.0
 71
     0
 72
     0
 73
     0
 74
     0
 75
     0
 76
     0
 77
     3
 78
     9
170
     0
171
     2
172
     1
173
     0
174
     0
175
     0
176
   256
177
   256
178
    40
  0
DIMSTYLE
  2
BIGT$7
 70
     0
  3

  4

  5
OPEN
  6

  7

 40
0.0
 41
2.2299999999999991
 42
0.5
 43
7.0
 44
1.0
 45
0.0
 46
0.0
 47
0.0
 48
0.01
140
2.7999999999999989
141
0.0
142
0.0
143
25.3999999999999986
144
1.0
145
0.0
146
1.0
147
1.0
 71
     0
 72
     0
 73
     0
 74
     0
 75
     0
 76
     0
 77
     3
 78
     9
170
     0
171
     2
172
     0
173
     0
174
     0
175
     0
176
   256
177
   256
178
    40
  0
DIMSTYLE
  2
BIGT$6
 70
     0
  3

  4

  5
OPEN
  6

  7

 40
1.0
 41
2.2299999999999991
 42
0.5
 43
2.5
 44
1.0
 45
0.0
 46
0.0
 47
0.0
 48
0.01
140
2.7999999999999989
141
0.0
142
0.0
143
25.3999999999999986
144
1.0
145
0.0
146
1.0
147
1.0
 71
     0
 72
     0
 73
     0
 74
     0
 75
     0
 76
     0
 77
     3
 78
     9
170
     0
171
     2
172
     1
173
     0
174
     0
175
     0
176
   256
177
   256
178
    40
  0
DIMSTYLE
  2
BIGT$0
 70
     0
  3

  4

  5
OPEN
  6

  7

 40
1.0
 41
2.2299999999999991
 42
0.5
 43
7.0
 44
1.0
 45
0.0
 46
0.0
 47
0.0
 48
0.01
140
2.7999999999999989
141
0.0
142
0.0
143
25.3999999999999986
144
1.0
145
0.0
146
1.0
147
1.0
 71
     0
 72
     0
 73
     0
 74
     0
 75
     0
 76
     0
 77
     3
 78
     9
170
     0
171
     2
172
     1
173
     0
174
     0
175
     0
176
   256
177
   256
178
    40
  0
DIMSTYLE
  2
BIGT$4
 70
     0
  3

  4

  5
OPEN
  6

  7

 40
1.0
 41
2.2299999999999991
 42
0.5
 43
2.5
 44
1.0
 45
0.0
 46
0.0
 47
0.0
 48
0.01
140
2.7999999999999989
141
0.0
142
0.0
143
25.3999999999999986
144
1.0
145
0.0
146
1.0
147
1.0
 71
     0
 72
     0
 73
     0
 74
     0
 75
     0
 76
     0
 77
     3
 78
     9
170
     0
171
     2
172
     1
173
     0
174
     0
175
     0
176
   256
177
   256
178
    40
  0
DIMSTYLE
  2
BIGT$SH
 70
     0
  3

  4

  5
OPEN
  6

  7

 40
1.0
 41
2.2299999999999991
 42
0.5
 43
7.0
 44
1.0
 45
0.0
 46
0.0
 47
0.0
 48
0.0
140
2.7999999999999989
141
0.0
142
0.0
143
25.3999999999999986
144
1.0
145
0.0
146
1.0
147
1.0
 71
     0
 72
     0
 73
     0
 74
     0
 75
     0
 76
     0
 77
     3
 78
     9
170
     0
171
     2
172
     1
173
     0
174
     0
175
     0
176
   256
177
   256
178
    40
  0
DIMSTYLE
  2
BIGT$SF
 70
     0
  3

  4

  5
OPEN
  6

  7

 40
1.0
 41
2.2299999999999991
 42
0.5
 43
7.0
 44
1.0
 45
0.0
 46
0.0
 47
0.0
 48
0.0
140
2.7999999999999989
141
0.0
142
0.0
143
25.3999999999999986
144
1.0
145
0.0
146
1.0
147
1.0
 71
     0
 72
     0
 73
     0
 74
     0
 75
     0
 76
     0
 77
     3
 78
     9
170
     0
171
     2
172
     1
173
     0
174
     0
175
     0
176
   256
177
   256
178
    40
  0
DIMSTYLE
  2
TECHNICAL_OSAKA
 70
     0
  3

  4
"
  5
OPEN30
  6

  7

 40
1.0
 41
2.5
 42
1.0
 43
10.0
 44
1.0
 45
0.0
 46
0.0
 47
0.1
 48
0.1
140
2.7999999999999989
141
0.0
142
0.0
143
0.0393701
144
1.0
145
0.0
146
0.71
147
1.5
 71
     0
 72
     0
 73
     0
 74
     0
 75
     0
 76
     0
 77
     3
 78
     8
170
     0
171
     2
172
     1
173
     0
174
     0
175
     0
176
   256
177
   256
178
    40
  0
DIMSTYLE
  2
TECHNICAL_OSAKA$3
 70
     0
  3

  4
"
  5
OPEN30
  6

  7

 40
1.0
 41
2.5
 42
1.0
 43
10.0
 44
1.0
 45
0.0
 46
0.0
 47
0.1
 48
0.1
140
2.7999999999999989
141
0.0
142
0.0
143
0.0393701
144
1.0
145
0.0
146
0.71
147
1.5
 71
     0
 72
     0
 73
     0
 74
     1
 75
     0
 76
     0
 77
     3
 78
     8
170
     0
171
     2
172
     0
173
     0
174
     0
175
     0
176
   256
177
   256
178
    40
  0
DIMSTYLE
  2
TECHNICAL_OSAKA$4
 70
     0
  3

  4
"
  5
OPEN30
  6

  7

 40
1.0
 41
2.5
 42
1.0
 43
10.0
 44
1.0
 45
0.0
 46
0.0
 47
0.1
 48
0.1
140
2.7999999999999989
141
0.0
142
0.0
143
0.0393701
144
1.0
145
0.0
146
0.71
147
1.5
 71
     0
 72
     0
 73
     0
 74
     1
 75
     0
 76
     0
 77
     3
 78
     8
170
     0
171
     2
172
     0
173
     0
174
     0
175
     0
176
   256
177
   256
178
    40
  0
DIMSTYLE
  2
TECHNICAL_OSAKA$6
 70
     0
  3

  4
"
  5
OPEN30
  6

  7

 40
1.0
 41
2.5
 42
1.0
 43
10.0
 44
1.0
 45
0.0
 46
0.0
 47
0.1
 48
0.1
140
2.7999999999999989
141
0.0
142
0.0
143
0.0393701
144
1.0
145
0.0
146
0.71
147
1.5
 71
     0
 72
     0
 73
     0
 74
     0
 75
     0
 76
     0
 77
     0
 78
     8
170
     0
171
     2
172
     1
173
     0
174
     0
175
     0
176
   256
177
   256
178
    40
  0
DIMSTYLE
  2
TECHNICAL_OSAKA$7
 70
     0
  3

  4
"
  5
OPEN30
  6

  7

 40
1.0
 41
2.5
 42
1.0
 43
10.0
 44
1.0
 45
0.0
 46
0.0
 47
0.1
 48
0.1
140
2.7999999999999989
141
0.0
142
0.0
143
0.0393701
144
1.0
145
0.0
146
0.71
147
1.5
 71
     0
 72
     0
 73
     0
 74
     0
 75
     0
 76
     0
 77
     3
 78
     8
170
     0
171
     2
172
     1
173
     0
174
     0
175
     0
176
   256
177
   256
178
    40
  0
DIMSTYLE
  2
TECHNICAL_OSAKA$SF
 70
     0
  3

  4
"
  5
OPEN30
  6
OPEN30
  7
OPEN30
 40
1.0
 41
2.5
 42
1.0
 43
10.0
 44
1.0
 45
0.0
 46
0.0
 47
0.1
 48
0.1
140
3.5
141
0.0
142
0.0
143
0.0393701
144
1.0
145
0.0
146
0.71
147
1.5
 71
     0
 72
     0
 73
     0
 74
     0
 75
     1
 76
     1
 77
     3
 78
     8
170
     0
171
     2
172
     1
173
     0
174
     0
175
     0
176
   256
177
   256
178
    40
  0
DIMSTYLE
  2
TECHNICAL_OSAKA$SH
 70
     0
  3

  4
"
  5
OPEN30
  6
GENAXEH
  7
OPEN30
 40
1.0
 41
2.5
 42
1.0
 43
10.0
 44
1.0
 45
0.0
 46
0.0
 47
0.1
 48
0.1
140
3.5
141
0.0
142
0.0
143
0.0393701
144
2.0
145
0.0
146
0.71
147
1.5
 71
     0
 72
     0
 73
     0
 74
     0
 75
     1
 76
     1
 77
     3
 78
     8
170
     0
171
     2
172
     1
173
     1
174
     0
175
     0
176
   256
177
   256
178
    40
  0
ENDTAB
  0
ENDSEC
  0
SECTION
  2
BLOCKS
  0
BLOCK
  8
0
  2
$MODEL_SPACE
 70
     0
 10
0.0
 20
0.0
 30
0.0
  3
$MODEL_SPACE
  1

  0
ENDBLK
  5
1C
  8
0
  0
BLOCK
 67
     1
  8
0
  2
$PAPER_SPACE
 70
     0
 10
0.0
 20
0.0
 30
0.0
  3
$PAPER_SPACE
  1

  0
ENDBLK
  5
19
 67
     1
  8
0
  0
BLOCK
  8
0
  2
_OPEN
 70
     0
 10
0.0
 20
0.0
 30
0.0
  3
_OPEN
  1

  0
LINE
  5
595
  8
0
  6
BYBLOCK
 62
     0
 10
-1.0
 20
0.1666666666666666
 30
0.0
 11
0.0
 21
0.0
 31
0.0
  0
LINE
  5
596
  8
0
  6
BYBLOCK
 62
     0
 10
-1.0
 20
-0.1666666666666666
 30
0.0
 11
0.0
 21
0.0
 31
0.0
  0
LINE
  5
597
  8
0
  6
BYBLOCK
 62
     0
 10
0.0
 20
0.0
 30
0.0
 11
-1.0
 21
0.0
 31
0.0
  0
ENDBLK
  5
599
  8
0
  0
BLOCK
  8
0
  2
GENAXEH
 70
     0
 10
0.0
 20
0.0
 30
0.0
  3
GENAXEH
  1

  0
LINE
  5
6E8
  8
0
 10
-1.0
 20
0.0
 30
0.0
 11
1.0
 21
0.0
 31
0.0
  0
ENDBLK
  5
6EA
  8
0
  0
BLOCK
  8
0
  2
_OPEN30
 70
     0
 10
0.0
 20
0.0
 30
0.0
  3
_OPEN30
  1

  0
LINE
  5
E8F
  8
0
  6
BYBLOCK
 62
     0
 10
-1.0
 20
0.26794919
 30
0.0
 11
0.0
 21
0.0
 31
0.0
  0
LINE
  5
E90
  8
0
  6
BYBLOCK
 62
     0
 10
0.0
 20
0.0
 30
0.0
 11
-1.0
 21
-0.26794919
 31
0.0
  0
LINE
  5
E91
  8
0
  6
BYBLOCK
 62
     0
 10
0.0
 20
0.0
 30
0.0
 11
-1.0
 21
0.0
 31
0.0
  0
ENDBLK
  5
E93
  8
0
  0
BLOCK
  8
0
  2
_ACMOPEN15
 70
     0
 10
0.0
 20
0.0
 30
0.0
  3
_ACMOPEN15
  1

  0
LINE
  5
1359
  8
245
 62
     0
 10
-1.0
 20
0.0
 30
0.0
 11
0.0
 21
0.0
 31
0.0
  0
LINE
  5
135A
  8
245
 62
     0
 10
-1.0
 20
-0.131652497
 30
0.0
 11
0.0
 21
0.0
 31
0.0
  0
LINE
  5
135B
  8
245
 62
     0
 10
0.0
 20
0.0
 30
0.0
 11
-1.0
 21
0.131652497
 31
0.0
  0
ENDBLK
  5
1358
  8
0
  0
ENDSEC
  0
SECTION
  2
ENTITIES
  0
TEXT
  5
149B
  8
241
  6
CONTINUOUS
 10
-133.0
 20
42.0
 30
0.0
 40
5.0
  1
SL25.4-NBS6-120
  7
YOKO
 11
-133.0
 21
42.0
 31
0.0
 73
     1
  0
LINE
  5
14A5
  8
240
  6
CONTINUOUS
 10
-14.0000000000001794
 20
-12.6999999999999993
 30
0.0
 11
-123.2999999999999972
 21
-12.6999999999999993
 31
0.0
  0
LINE
  5
14A6
  8
240
  6
CONTINUOUS
 10
-14.0000000000001794
 20
12.6999999999999993
 30
0.0
 11
-123.2999999999998977
 21
12.6999999999999993
 31
0.0
  0
LINE
  5
14A7
  8
245
  6
CENTER2
 10
2.086953510294391
 20
0.0
 30
0.0
 11
-136.7835626859649949
 21
0.0
 31
0.0
  0
LINE
  5
14B0
  8
240
  6
CONTINUOUS
 10
-125.0
 20
11.0
 30
0.0
 11
-134.4999999999998863
 21
11.0
 31
0.0
  0
LINE
  5
14B1
  8
240
  6
CONTINUOUS
 10
-125.0
 20
-11.0
 30
0.0
 11
-134.4999999999998863
 21
-11.0
 31
0.0
  0
LINE
  5
14B2
  8
240
  6
CONTINUOUS
 10
-135.0
 20
-10.5
 30
0.0
 11
-135.0
 21
10.5
 31
0.0
  0
LINE
  5
14B3
  8
240
  6
CONTINUOUS
 10
-135.0
 20
-10.5
 30
0.0
 11
-134.4999999999998863
 21
-11.0
 31
0.0
  0
LINE
  5
14B4
  8
240
  6
CONTINUOUS
 10
-134.4999999999998863
 20
11.0
 30
0.0
 11
-135.0
 21
10.5
 31
0.0
  0
LINE
  5
14B5
  8
240
  6
CONTINUOUS
 10
-123.2999999999999972
 20
-12.6999999999999993
 30
0.0
 11
-125.0
 21
-11.0
 31
0.0
  0
LINE
  5
14B6
  8
240
  6
CONTINUOUS
 10
-123.2999999999998977
 20
12.6999999999999993
 30
0.0
 11
-125.0
 21
11.0
 31
0.0
  0
LINE
  5
1665
  8
240
  6
CONTINUOUS
 10
-14.0000000000001794
 20
-12.6999999999999993
 30
0.0
 11
-14.0000000000001794
 21
-6.0236519999999931
 31
0.0
  0
LINE
  5
1666
  8
240
  6
CONTINUOUS
 10
-9.4999999999999858
 20
-6.0236520000000056
 30
0.0
 11
-14.0000000000001794
 21
-6.0236519999999931
 31
0.0
  0
LINE
  5
1667
  8
240
  6
CONTINUOUS
 10
-14.0000000000001794
 20
12.6999999999999993
 30
0.0
 11
-14.0000000000001794
 21
5.9763479999999989
 31
0.0
  0
LINE
  5
1668
  8
240
  6
CONTINUOUS
 10
-14.0000000000001794
 20
5.9763479999999989
 30
0.0
 11
-9.5
 21
5.9763479999999998
 31
0.0
  0
LINE
  5
1669
  8
241
  6
CONTINUOUS
 10
-14.0000000000001794
 20
-6.0236519999999931
 30
0.0
 11
-14.0000000000001794
 21
5.9763479999999971
 31
0.0
  0
LINE
  5
166A
  8
243
  6
HIDDEN2
 10
-1.300000000000451
 20
4.0763480000000509
 30
0.0
 11
-1.3000000000003951
 21
4.7840830269191024
 31
0.0
  0
LINE
  5
166B
  8
243
  6
HIDDEN2
 10
-1.3000000000003951
 20
4.7840830269191024
 30
0.0
 11
0.0000000000000426
 21
4.0335276769694941
 31
0.0
  0
LINE
  5
166C
  8
243
  6
HIDDEN2
 10
-2.600000000000378
 20
4.0763480000000509
 30
0.0
 11
-2.600000000000477
 21
4.7285981646375861
 31
0.0
  0
LINE
  5
166D
  8
243
  6
HIDDEN2
 10
-2.600000000000378
 20
4.0763480000000509
 30
0.0
 11
-1.300000000000451
 21
4.0763480000000509
 31
0.0
  0
LINE
  5
166E
  8
243
  6
HIDDEN2
 10
-2.600000000000477
 20
4.7285981646375861
 30
0.0
 11
-15.0000000000001794
 21
3.425305647343341
 31
0.0
  0
LINE
  5
166F
  8
243
  6
HIDDEN2
 10
-15.0000000000001794
 20
2.9763480000000291
 30
0.0
 11
0.0
 21
2.9763480000000291
 31
0.0
  0
LINE
  5
1670
  8
240
  6
CONTINUOUS
 10
0.0
 20
-10.02365199999997
 30
0.0
 11
-9.5
 21
-10.0236519999999807
 31
0.0
  0
LINE
  5
1671
  8
240
  6
CONTINUOUS
 10
0.0
 20
9.9763480000000282
 30
0.0
 11
0.0
 21
-10.02365199999997
 31
0.0
  0
LINE
  5
1672
  8
240
  6
CONTINUOUS
 10
0.0
 20
9.9763480000000282
 30
0.0
 11
-9.5
 21
9.9763480000000424
 31
0.0
  0
LINE
  5
1673
  8
240
  6
CONTINUOUS
 10
-9.5
 20
-10.0236519999999807
 30
0.0
 11
-9.4999999999999858
 21
-6.0236520000000056
 31
0.0
  0
LINE
  5
1674
  8
241
  6
CONTINUOUS
 10
-9.5
 20
-6.023652000000002
 30
0.0
 11
-9.5
 21
-0.02365199999997
 31
0.0
  0
LINE
  5
1675
  8
240
  6
CONTINUOUS
 10
-9.5
 20
9.9763480000000424
 30
0.0
 11
-9.5
 21
5.9763479999999998
 31
0.0
  0
LINE
  5
1676
  8
241
  6
CONTINUOUS
 10
-9.5
 20
5.9763479999999998
 30
0.0
 11
-9.5
 21
-0.02365199999997
 31
0.0
  0
LINE
  5
1677
  8
243
  6
HIDDEN2
 10
-15.0000000000001794
 20
-3.472609647343281
 30
0.0
 11
-15.0000000000001794
 21
3.425305647343341
 31
0.0
  0
LINE
  5
1678
  8
243
  6
HIDDEN2
 10
-1.300000000000451
 20
-4.123651999999991
 30
0.0
 11
-1.3000000000003951
 21
-4.8313870269190424
 31
0.0
  0
LINE
  5
1679
  8
243
  6
HIDDEN2
 10
-1.3000000000003951
 20
-4.8313870269190424
 30
0.0
 11
0.0000000000000426
 21
-4.0808316769694351
 31
0.0
  0
LINE
  5
167A
  8
243
  6
HIDDEN2
 10
-2.600000000000378
 20
-4.123651999999991
 30
0.0
 11
-2.600000000000477
 21
-4.775902164637527
 31
0.0
  0
LINE
  5
167B
  8
243
  6
HIDDEN2
 10
-2.600000000000378
 20
-4.123651999999991
 30
0.0
 11
-1.300000000000451
 21
-4.123651999999991
 31
0.0
  0
LINE
  5
167C
  8
243
  6
HIDDEN2
 10
-2.600000000000477
 20
-4.775902164637527
 30
0.0
 11
-15.0000000000001794
 21
-3.472609647343281
 31
0.0
  0
LINE
  5
167D
  8
243
  6
HIDDEN2
 10
-15.0000000000001794
 20
-3.02365199999997
 30
0.0
 11
0.0
 21
-3.02365199999997
 31
0.0
  0
LINE
  5
167E
  8
250
  6
CONTINUOUS
 10
0.5
 20
2.9763480000000291
 30
0.0
 11
10.0
 21
2.976348000000026
 31
0.0
  0
LINE
  5
167F
  8
250
  6
CONTINUOUS
 10
9.0
 20
-5.023651999999962
 30
0.0
 11
9.0
 21
-7.0236519999999611
 31
0.0
  0
LINE
  5
1680
  8
250
  6
CONTINUOUS
 10
8.6666666666666856
 20
4.9763480000000246
 30
0.0
 11
9.0
 21
2.976348000000026
 31
0.0
  0
LINE
  5
1681
  8
250
  6
CONTINUOUS
 10
9.3333333333333144
 20
4.9763480000000238
 30
0.0
 11
9.0
 21
2.976348000000026
 31
0.0
  0
TEXT
  5
1682
  8
250
  6
CONTINUOUS
 10
7.5333333333333172
 20
-9.6792972485314461
 30
0.0
 40
2.799999999999998
  1
max.%%C.236
 50
90.0
1001
ACAD
1000
MTEXTBEGIN
1070
    73
1070
     1
1070
    44
1040
1.0
1070
    74
1070
     0
1000
MTEXTEND
  0
LINE
  5
1683
  8
250
  6
CONTINUOUS
 10
0.5
 20
-10.02365199999997
 30
0.0
 11
17.0
 21
-10.0236519999999807
 31
0.0
  0
LINE
  5
1684
  8
250
  6
CONTINUOUS
 10
0.5
 20
9.9763480000000282
 30
0.0
 11
17.0
 21
9.9763480000000282
 31
0.0
  0
LINE
  5
1685
  8
250
  6
CONTINUOUS
 10
16.0
 20
-7.793651999999982
 30
0.0
 11
16.0
 21
7.746348000000026
 31
0.0
  0
LINE
  5
1686
  8
250
  6
CONTINUOUS
 10
16.3716666666665986
 20
-7.7936519999999794
 30
0.0
 11
16.0
 21
-10.0236519999999807
 31
0.0
  0
LINE
  5
1687
  8
250
  6
CONTINUOUS
 10
15.6283333333333001
 20
-7.7936519999999794
 30
0.0
 11
16.0
 21
-10.0236519999999807
 31
0.0
  0
LINE
  5
1688
  8
250
  6
CONTINUOUS
 10
16.0
 20
-10.0236519999999807
 30
0.0
 11
16.0
 21
-7.7936519999999794
 31
0.0
  0
LINE
  5
1689
  8
250
  6
CONTINUOUS
 10
15.6283333333333001
 20
7.7463480000000313
 30
0.0
 11
16.0
 21
9.9763480000000282
 31
0.0
  0
LINE
  5
168A
  8
250
  6
CONTINUOUS
 10
16.3716666666665986
 20
7.7463480000000313
 30
0.0
 11
16.0
 21
9.9763480000000282
 31
0.0
  0
LINE
  5
168B
  8
250
  6
CONTINUOUS
 10
16.0
 20
9.9763480000000282
 30
0.0
 11
16.0
 21
7.7463480000000313
 31
0.0
  0
TEXT
  5
168C
  8
250
  6
CONTINUOUS
 10
15.0
 20
-6.0714353637429541
 30
0.0
 40
3.0
  1
\U+2205
 50
90.0
1001
ACAD
1000
MTEXTBEGIN
1070
    73
1070
     1
1070
    44
1040
1.0
1070
    74
1070
     0
1000
MTEXTEND
  0
TEXT
  5
168D
  8
250
  6
CONTINUOUS
 10
14.9000000000000004
 20
-3.357149649457237
 30
0.0
 40
2.799999999999998
  1
.787
 50
90.0
1001
ACAD
1000
MTEXTBEGIN
1070
    73
1070
     1
1070
    44
1040
1.0
1070
    74
1070
     0
1000
MTEXTEND
  0
LINE
  5
168E
  8
250
  6
CONTINUOUS
 10
0.5
 20
-3.02365199999997
 30
0.0
 11
10.0
 21
-3.023651999999966
 31
0.0
  0
LINE
  5
168F
  8
250
  6
CONTINUOUS
 10
9.0
 20
4.9763480000000211
 30
0.0
 11
9.0
 21
6.9763480000000211
 31
0.0
  0
LINE
  5
1690
  8
250
  6
CONTINUOUS
 10
8.6666666666666856
 20
-5.0236519999999647
 30
0.0
 11
9.0
 21
-3.023651999999966
 31
0.0
  0
LINE
  5
1691
  8
250
  6
CONTINUOUS
 10
9.3333333333333144
 20
-5.0236519999999638
 30
0.0
 11
9.0
 21
-3.023651999999966
 31
0.0
  0
LINE
  5
1692
  8
250
  6
CONTINUOUS
 10
9.0
 20
4.9763480000000282
 30
0.0
 11
9.0
 21
-5.0236519999999683
 31
0.0
  0
LINE
  5
1693
  8
241
  6
CONTINUOUS
 10
-3.5
 20
9.1936774280422373
 30
0.0
 11
-3.5
 21
7.9436774280422311
 31
0.0
  0
LINE
  5
1694
  8
241
  6
CONTINUOUS
 10
-3.5
 20
7.9436774280422311
 30
0.0
 11
-9.4999999999999858
 21
7.9436774280422311
 31
0.0
  0
LINE
  5
1695
  8
241
  6
CONTINUOUS
 10
-3.5
 20
9.1936774280422373
 30
0.0
 11
-9.5
 21
9.1936774280422373
 31
0.0
  0
LINE
  5
1696
  8
241
  6
CONTINUOUS
 10
-3.5
 20
1.2263480000000271
 30
0.0
 11
-9.5
 21
1.2263480000000271
 31
0.0
  0
LINE
  5
1697
  8
241
  6
CONTINUOUS
 10
-3.5
 20
-9.2409814280422289
 30
0.0
 11
-3.5
 21
-7.9909814280422271
 31
0.0
  0
LINE
  5
1698
  8
241
  6
CONTINUOUS
 10
-3.5
 20
-1.273651999999968
 30
0.0
 11
-9.5
 21
-1.273651999999968
 31
0.0
  0
LINE
  5
1699
  8
241
  6
CONTINUOUS
 10
-3.5
 20
-9.2409814280422289
 30
0.0
 11
-9.4999999999999858
 21
-9.2409814280422289
 31
0.0
  0
LINE
  5
169A
  8
241
  6
CONTINUOUS
 10
-3.5
 20
-7.9909814280422271
 30
0.0
 11
-9.4999999999999858
 21
-7.9909814280422271
 31
0.0
  0
LINE
  5
169B
  8
241
  6
CONTINUOUS
 10
-3.5
 20
-1.273651999999968
 30
0.0
 11
-3.5
 21
1.2263480000000271
 31
0.0
  0
LINE
  5
16CE
  8
247
  6
CONTINUOUS
 10
-128.2500000000700027
 20
-6.0
 30
0.0
 11
-121.5576923080299991
 21
-6.0
 31
0.0
  0
ARC
  5
16CF
  8
247
  6
CONTINUOUS
 10
-128.2500000000700027
 20
-4.2500000000700311
 30
0.0
 40
1.7499999999299991
 50
90.0
 51
270.0
  0
ARC
  5
16D0
  8
247
  6
CONTINUOUS
 10
-121.5576923080299991
 20
-4.2500000000700311
 30
0.0
 40
1.7499999999299991
 50
270.0
 51
90.0
  0
LINE
  5
16D1
  8
247
  6
CONTINUOUS
 10
-127.3846153847199929
 20
-2.5000000001400622
 30
0.0
 11
-128.2448515419619923
 21
-5.5000000000200071
 31
0.0
  0
LINE
  5
16D2
  8
247
  6
CONTINUOUS
 10
-126.4849838183358059
 20
-3.9230769231598961
 30
0.0
 11
-127.7926761259758024
 21
-3.9230769231598961
 31
0.0
  0
ARC
  5
16D3
  8
247
  6
CONTINUOUS
 10
-126.1451438160897993
 20
-3.049598667702865
 30
0.0
 40
0.5538165441895349
 50
342.9978896752951982
 51
82.9241662185135482
  0
ARC
  5
16D4
  8
247
  6
CONTINUOUS
 10
-126.5668783230288028
 20
-2.936033044465828
 30
0.0
 40
0.9904354236226808
 50
274.7429368522006143
 51
343.8492262732664244
1001
GENIUS_GENOBJ-N-FIL_13
1002
{
1000
OWNER
1000
GEN
1002
}
1001
GENIUS_GENODEF_13
1002
{
1000
HIER
1070
     0
1002
}
1002
{
1000
MANEDIT
1070
     0
1002
}
1002
{
1000
NOSEL
1070
     0
1002
}
1002
{
1000
BEHIND
1070
     0
1002
}
1002
{
1000
OTHER
1070
     0
1002
}
1002
{
1000
REACTOR
1002
}
  0
LINE
  5
16D5
  8
247
  6
CONTINUOUS
 10
-126.9371592343219959
 20
-5.5000000000200071
 30
0.0
 11
-128.2448515419619923
 21
-5.5000000000200071
 31
0.0
  0
LINE
  5
16D6
  8
247
  6
CONTINUOUS
 10
-127.3846153847199929
 20
-2.5000000001400622
 30
0.0
 11
-126.0769230770799965
 21
-2.5000000001400622
 31
0.0
  0
ARC
  5
16D7
  8
247
  6
CONTINUOUS
 10
-126.5609196365468989
 20
-4.482024232665478
 30
0.0
 40
0.5640818586791229
 50
335.9909416525214851
 51
82.263443459069066
  0
ARC
  5
16D8
  8
247
  6
CONTINUOUS
 10
-127.038262685346993
 20
-4.487429039186507
 30
0.0
 40
1.0176059446230981
 50
275.7019851642580761
 51
347.2773384368223901
1001
GENIUS_GENOBJ-N-FIL_13
1002
{
1000
OWNER
1000
GEN
1002
}
1001
GENIUS_GENODEF_13
1002
{
1000
HIER
1070
     0
1002
}
1002
{
1000
MANEDIT
1070
     0
1002
}
1002
{
1000
NOSEL
1070
     0
1002
}
1002
{
1000
BEHIND
1070
     0
1002
}
1002
{
1000
OTHER
1070
     0
1002
}
1002
{
1000
REACTOR
1002
}
  0
LINE
  5
16D9
  8
247
  6
CONTINUOUS
 10
-125.2833130805420012
 20
-5.5000000000200071
 30
0.0
 11
-124.4230769233000018
 21
-2.5000000001400622
 31
0.0
  0
LINE
  5
16DA
  8
247
  6
CONTINUOUS
 10
-122.00000000032
 20
-2.5000000001400622
 30
0.0
 11
-122.5657366194566009
 21
-2.5000000001400622
 31
0.0
  0
LINE
  5
16DB
  8
247
  6
CONTINUOUS
 10
-123.4615384618000036
 20
-5.5000000000200071
 30
0.0
 11
-122.8461538464400036
 21
-5.5000000000200071
 31
0.0
  0
ARC
  5
16DC
  8
247
  6
CONTINUOUS
 10
-121.7087912091227935
 20
-4.5832851359733668
 30
0.0
 40
2.2526500823422122
 50
112.3594881415293969
 51
164.9932485428458904
  0
ARC
  5
16DD
  8
247
  6
CONTINUOUS
 10
-122.3740694792132047
 20
-3.308312655194638
 30
0.0
 40
0.8906723995727782
 50
4.994589319075331
 51
65.1663289573004931
1001
GENIUS_GENOBJ-N-FIL_13
1002
{
1000
OWNER
1000
GEN
1002
}
1001
GENIUS_GENODEF_13
1002
{
1000
HIER
1070
     0
1002
}
1002
{
1000
MANEDIT
1070
     0
1002
}
1002
{
1000
NOSEL
1070
     0
1002
}
1002
{
1000
BEHIND
1070
     0
1002
}
1002
{
1000
OTHER
1070
     0
1002
}
1002
{
1000
REACTOR
1002
}
  0
ARC
  5
16DE
  8
247
  6
CONTINUOUS
 10
-123.2264588862124981
 20
-4.160145888667782
 30
0.0
 40
1.392781735586712
 50
285.8460965557807185
 51
352.3251370041625137
  0
ARC
  5
16DF
  8
247
  6
CONTINUOUS
 10
-122.6422127258402952
 20
-4.4592434315272831
 30
0.0
 40
1.324563662670287
 50
159.713601670490192
 51
231.7887456564114927
1001
GENIUS_GENOBJ-N-FIL_13
1002
{
1000
OWNER
1000
GEN
1002
}
1001
GENIUS_GENODEF_13
1002
{
1000
HIER
1070
     0
1002
}
1002
{
1000
MANEDIT
1070
     0
1002
}
1002
{
1000
NOSEL
1070
     0
1002
}
1002
{
1000
BEHIND
1070
     0
1002
}
1002
{
1000
OTHER
1070
     0
1002
}
1002
{
1000
REACTOR
1002
}
  0
LINE
  5
16E0
  8
247
  6
CONTINUOUS
 10
-122.5384615387600036
 20
-4.346153846219976
 30
0.0
 11
-121.8461538464799929
 21
-4.346153846219976
 31
0.0
  0
LINE
  5
16E1
  8
247
  6
CONTINUOUS
 10
-128.2500000000700027
 20
-2.5000000001400622
 30
0.0
 11
-127.5769230770199982
 21
-2.5000000001400622
 31
0.0
  0
LINE
  5
17E2
  8
250
  6
CONTINUOUS
 10
-14.0000000000001794
 20
13.1999999999999993
 30
0.0
 11
-14.0000000000001794
 21
29.0
 31
0.0
  0
LINE
  5
17E3
  8
250
  6
CONTINUOUS
 10
0.0000000000000001
 20
10.3053830300742106
 30
0.0
 11
0.0000000000000012
 21
29.0
 31
0.0
  0
LINE
  5
17E4
  8
250
  6
CONTINUOUS
 10
-11.7700000000001808
 20
28.0
 30
0.0
 11
-2.2299999999999982
 21
28.0
 31
0.0
  0
LINE
  5
17E8
  8
250
  6
CONTINUOUS
 10
-11.7700000000001808
 20
27.6283333333333303
 30
0.0
 11
-14.0000000000001794
 21
28.0
 31
0.0
  0
LINE
  5
17E9
  8
250
  6
CONTINUOUS
 10
-11.7700000000001808
 20
28.371666666666659
 30
0.0
 11
-14.0000000000001794
 21
28.0
 31
0.0
  0
LINE
  5
17EA
  8
250
  6
CONTINUOUS
 10
-14.0000000000001794
 20
28.0
 30
0.0
 11
-11.7700000000001808
 21
28.0
 31
0.0
  0
LINE
  5
17EB
  8
250
  6
CONTINUOUS
 10
-135.0
 20
11.0
 30
0.0
 11
-135.0
 21
29.0
 31
0.0
  0
LINE
  5
17EC
  8
250
  6
CONTINUOUS
 10
-14.0000000000001794
 20
13.1999999999999993
 30
0.0
 11
-14.0000000000001794
 21
29.0
 31
0.0
  0
LINE
  5
17ED
  8
250
  6
CONTINUOUS
 10
-132.7700000000000102
 20
28.0
 30
0.0
 11
-16.2300000000001816
 21
28.0
 31
0.0
  0
TEXT
  5
17F1
  8
250
  6
CONTINUOUS
 10
-79.5000000000000853
 20
29.0
 30
0.0
 40
3.0
  1
4.76
  0
LINE
  5
17F2
  8
250
  6
CONTINUOUS
 10
-16.2300000000001816
 20
28.371666666666659
 30
0.0
 11
-14.0000000000001794
 21
28.0
 31
0.0
  0
LINE
  5
17F3
  8
250
  6
CONTINUOUS
 10
-16.2300000000001816
 20
27.6283333333333303
 30
0.0
 11
-14.0000000000001794
 21
28.0
 31
0.0
  0
LINE
  5
17F4
  8
250
  6
CONTINUOUS
 10
-14.0000000000001794
 20
28.0
 30
0.0
 11
-16.2300000000001816
 21
28.0
 31
0.0
  0
LINE
  5
17F5
  8
250
  6
CONTINUOUS
 10
-132.7700000000000102
 20
27.6283333333333303
 30
0.0
 11
-135.0
 21
28.0
 31
0.0
  0
LINE
  5
17F6
  8
250
  6
CONTINUOUS
 10
-132.7700000000000102
 20
28.371666666666659
 30
0.0
 11
-135.0
 21
28.0
 31
0.0
  0
LINE
  5
17F7
  8
250
  6
CONTINUOUS
 10
-135.0
 20
28.0
 30
0.0
 11
-132.7700000000000102
 21
28.0
 31
0.0
  0
TEXT
  5
17F8
  8
250
  6
CONTINUOUS
 10
-10.6428571428572294
 20
29.0
 30
0.0
 40
3.0
  1
.55
  0
LINE
  5
17F9
  8
250
  6
CONTINUOUS
 10
-2.2299999999999982
 20
28.371666666666659
 30
0.0
 11
0.0000000000000012
 21
28.0
 31
0.0
  0
LINE
  5
17FA
  8
250
  6
CONTINUOUS
 10
-2.2299999999999982
 20
27.6283333333333303
 30
0.0
 11
0.0000000000000012
 21
28.0
 31
0.0
  0
LINE
  5
17FB
  8
250
  6
CONTINUOUS
 10
0.0000000000000012
 20
28.0
 30
0.0
 11
-2.2299999999999982
 21
28.0
 31
0.0
  0
LINE
  5
17FC
  8
250
  6
CONTINUOUS
 10
-123.7999999999999972
 20
-12.6999999999999993
 30
0.0
 11
-148.0000000000009095
 21
-12.7000000000000099
 31
0.0
  0
LINE
  5
17FD
  8
250
  6
CONTINUOUS
 10
-123.7999999999998977
 20
12.6999999999999993
 30
0.0
 11
-148.0000000000009095
 21
12.6999999999999993
 31
0.0
  0
LINE
  5
17FE
  8
250
  6
CONTINUOUS
 10
-147.0000000000009095
 20
-10.4700000000000095
 30
0.0
 11
-147.0000000000009095
 21
10.4700000000000006
 31
0.0
  0
LINE
  5
1802
  8
250
  6
CONTINUOUS
 10
-147.3716666666676076
 20
10.4700000000000006
 30
0.0
 11
-147.0000000000009095
 21
12.6999999999999993
 31
0.0
  0
LINE
  5
1803
  8
250
  6
CONTINUOUS
 10
-146.6283333333342114
 20
10.4700000000000006
 30
0.0
 11
-147.0000000000009095
 21
12.6999999999999993
 31
0.0
  0
LINE
  5
1804
  8
250
  6
CONTINUOUS
 10
-147.0000000000009095
 20
12.6999999999999993
 30
0.0
 11
-147.0000000000009095
 21
10.4700000000000006
 31
0.0
  0
TEXT
  5
1805
  8
250
  6
CONTINUOUS
 10
-148.0000000000009095
 20
-7.7857142857142483
 30
0.0
 40
3.0
  1
\U+22051.000
 50
90.0
  0
LINE
  5
1806
  8
250
  6
CONTINUOUS
 10
-146.6283333333342114
 20
-10.4700000000000095
 30
0.0
 11
-147.0000000000009095
 21
-12.7000000000000099
 31
0.0
  0
LINE
  5
1807
  8
250
  6
CONTINUOUS
 10
-147.3716666666676076
 20
-10.4700000000000095
 30
0.0
 11
-147.0000000000009095
 21
-12.7000000000000099
 31
0.0
  0
LINE
  5
1808
  8
250
  6
CONTINUOUS
 10
-147.0000000000009095
 20
-12.7000000000000099
 30
0.0
 11
-147.0000000000009095
 21
-10.4700000000000095
 31
0.0
  0
VIEWPORT
  5
22
 67
     1
  8
0
 10
261.517699115044195
 20
148.5
 30
0.0
 40
523.0353982300885036
 41
297.0
 68
     1
 69
     1
1001
ACAD
1000
MVIEW
1002
{
1070
    16
1010
0.0
1020
0.0
1030
0.0
1010
0.0
1020
0.0
1030
1.0
1040
0.0
1040
297.0
1040
261.517699115044195
1040
148.5
1040
50.0
1040
0.0
1040
0.0
1070
     0
1070
   100
1070
     1
1070
     1
1070
     0
1070
     0
1070
     0
1070
     0
1040
0.0
1040
0.0
1040
0.0
1040
1.0
1040
1.0
1040
10.0
1040
10.0
1070
     0
1002
{
1002
}
1002
}
1001
GENIUS_GENODEF_13
1002
{
1000
HIER
1070
     0
1002
}
1002
{
1000
MANEDIT
1070
     0
1002
}
1002
{
1000
NOSEL
1070
     0
1002
}
1002
{
1000
BEHIND
1070
     0
1002
}
1002
{
1000
OTHER
1070
     0
1002
}
1002
{
1000
REACTOR
1002
}
1001
GENIUS_GENOBJ-N-SDF_13
1002
{
1000
OWNER
1000
GEN
1002
}
1001
GENIUS_GENSCREG_15
1000
PF
1040
1.0
1000
DF
1040
1.0
1000
MIN
1011
0.0
1021
0.0
1031
0.0
1021
0.0
1031
0.0
1000
MAX
1011
523.0353982300885036
1021
0.0
1031
0.0
1021
297.0
1031
0.0
1000
FLAGS
1070
     4
  0
ENDSEC
  0
EOF
