  0
SECTION
  2
HEADER
  9
$ACADVER
  1
AC1009
  9
$INSBASE
 10
0.0
 20
0.0
 30
0.0
  9
$EXTMIN
 10
-116.0000000000014069
 20
-17.5000005000001408
 30
0.0
  9
$EXTMAX
 10
17.0
 20
47.0000000000000071
 30
0.0
  9
$LIMMIN
 10
0.0
 20
0.0
  9
$LIMMAX
 10
297.0
 20
210.0
  9
$ORTHOMODE
 70
     0
  9
$REGENMODE
 70
     1
  9
$FILLMODE
 70
     1
  9
$QTEXTMODE
 70
     0
  9
$MIRRTEXT
 70
     1
  9
$DRAGMODE
 70
     2
  9
$LTSCALE
 40
10.0
  9
$OSMODE
 70
   807
  9
$ATTMODE
 70
     1
  9
$TEXTSIZE
 40
3.0
  9
$TRACEWID
 40
1.0
  9
$TEXTSTYLE
  7
YOKO
  9
$CLAYER
  8
240
  9
$CELTYPE
  6
BYLAYER
  9
$CECOLOR
 62
   256
  9
$DIMSCALE
 40
1.0
  9
$DIMASZ
 40
2.2299999999999991
  9
$DIMEXO
 40
0.5
  9
$DIMDLI
 40
7.0
  9
$DIMRND
 40
0.0
  9
$DIMDLE
 40
0.0
  9
$DIMEXE
 40
1.0
  9
$DIMTP
 40
0.0
  9
$DIMTM
 40
0.01
  9
$DIMTXT
 40
2.7999999999999989
  9
$DIMCEN
 40
0.0
  9
$DIMTSZ
 40
0.0
  9
$DIMTOL
 70
     0
  9
$DIMLIM
 70
     0
  9
$DIMTIH
 70
     0
  9
$DIMTOH
 70
     0
  9
$DIMSE1
 70
     0
  9
$DIMSE2
 70
     0
  9
$DIMTAD
 70
     3
  9
$DIMZIN
 70
     9
  9
$DIMBLK
  1
OPEN
  9
$DIMASO
 70
     1
  9
$DIMSHO
 70
     1
  9
$DIMPOST
  1

  9
$DIMAPOST
  1

  9
$DIMALT
 70
     0
  9
$DIMALTD
 70
     2
  9
$DIMALTF
 40
25.3999999999999986
  9
$DIMLFAC
 40
1.0
  9
$DIMTOFL
 70
     1
  9
$DIMTVP
 40
0.0
  9
$DIMTIX
 70
     1
  9
$DIMSOXD
 70
     0
  9
$DIMSAH
 70
     0
  9
$DIMBLK1
  1

  9
$DIMBLK2
  1

  9
$DIMSTYLE
  2
BIGT
  9
$DIMCLRD
 70
   256
  9
$DIMCLRE
 70
   256
  9
$DIMCLRT
 70
    40
  9
$DIMTFAC
 40
1.0
  9
$DIMGAP
 40
1.0
  9
$LUNITS
 70
     2
  9
$LUPREC
 70
     3
  9
$SKETCHINC
 40
1.0
  9
$FILLETRAD
 40
0.0
  9
$AUNITS
 70
     0
  9
$AUPREC
 70
     3
  9
$MENU
  1
.
  9
$ELEVATION
 40
0.0
  9
$PELEVATION
 40
0.0
  9
$THICKNESS
 40
0.0
  9
$LIMCHECK
 70
     0
  9
$BLIPMODE
 70
     0
  9
$CHAMFERA
 40
0.25
  9
$CHAMFERB
 40
0.25
  9
$SKPOLY
 70
     0
  9
$TDCREATE
 40
2458194.5918055549263954
  9
$TDUPDATE
 40
2458194.6913194451481104
  9
$TDINDWG
 40
0.015150463
  9
$TDUSRTIMER
 40
0.015150463
  9
$USRTIMER
 70
     1
  9
$ANGBASE
 50
0.0
  9
$ANGDIR
 70
     0
  9
$PDMODE
 70
     1
  9
$PDSIZE
 40
0.0
  9
$PLINEWID
 40
0.0
  9
$COORDS
 70
     1
  9
$SPLFRAME
 70
     0
  9
$SPLINETYPE
 70
     6
  9
$SPLINESEGS
 70
     4
  9
$ATTDIA
 70
     1
  9
$ATTREQ
 70
     1
  9
$HANDLING
 70
     1
  9
$HANDSEED
  5
1CBB
  9
$SURFTAB1
 70
     6
  9
$SURFTAB2
 70
     6
  9
$SURFTYPE
 70
     6
  9
$SURFU
 70
     6
  9
$SURFV
 70
     6
  9
$UCSNAME
  2

  9
$UCSORG
 10
0.0
 20
0.0
 30
0.0
  9
$UCSXDIR
 10
1.0
 20
0.0
 30
0.0
  9
$UCSYDIR
 10
0.0
 20
1.0
 30
0.0
  9
$PUCSNAME
  2

  9
$PUCSORG
 10
0.0
 20
0.0
 30
0.0
  9
$PUCSXDIR
 10
1.0
 20
0.0
 30
0.0
  9
$PUCSYDIR
 10
0.0
 20
1.0
 30
0.0
  9
$USERI1
 70
     1
  9
$USERI2
 70
     0
  9
$USERI3
 70
     0
  9
$USERI4
 70
     0
  9
$USERI5
 70
     0
  9
$USERR1
 40
0.0
  9
$USERR2
 40
0.0
  9
$USERR3
 40
0.0
  9
$USERR4
 40
0.0
  9
$USERR5
 40
0.0
  9
$WORLDVIEW
 70
     1
  9
$SHADEDGE
 70
     3
  9
$SHADEDIF
 70
    70
  9
$TILEMODE
 70
     1
  9
$MAXACTVP
 70
    16
  9
$PLIMCHECK
 70
     0
  9
$PEXTMIN
 10
1.0000000000000000E+20
 20
1.0000000000000000E+20
 30
1.0000000000000000E+20
  9
$PEXTMAX
 10
-1.0000000000000000E+20
 20
-1.0000000000000000E+20
 30
-1.0000000000000000E+20
  9
$PLIMMIN
 10
0.0
 20
0.0
  9
$PLIMMAX
 10
420.0
 20
297.0
  9
$UNITMODE
 70
     0
  9
$VISRETAIN
 70
     1
  9
$PLINEGEN
 70
     0
  9
$PSLTSCALE
 70
     1
  0
ENDSEC
  0
SECTION
  2
TABLES
  0
TABLE
  2
VPORT
 70
     1
  0
VPORT
  2
*ACTIVE
 70
     0
 10
0.0
 20
0.0
 11
1.0
 21
1.0
 12
-45.3797082037888302
 22
9.4571436261813062
 13
0.0
 23
0.0
 14
7.0
 24
7.0
 15
7.0
 25
7.0
 16
0.0
 26
0.0
 36
1.0
 17
0.0
 27
0.0
 37
0.0
 40
93.5841568327140436
 41
1.8592342342342341
 42
50.0
 43
0.0
 44
0.0
 50
0.0
 51
0.0
 71
     0
 72
  2000
 73
     1
 74
     0
 75
     0
 76
     1
 77
     0
 78
     0
  0
ENDTAB
  0
TABLE
  2
LTYPE
 70
    13
  0
LTYPE
  2
CONTINUOUS
 70
     0
  3
Solid line
 72
    65
 73
     0
 40
0.0
  0
LTYPE
  2
CENTER2
 70
     0
  3
___ _ ___ _ ___ _ ___ _ ___ _ ___ _ ___ _ ___ _
 72
    65
 73
     4
 40
1.125
 49
0.75
 49
-0.125
 49
0.125
 49
-0.125
  0
LTYPE
  2
HIDDEN2
 70
     0
  3
_ _ _ _ _ _ _ _ _ _ _ _ _ _ _ _ _ _ _ _ _ _ _ _
 72
    65
 73
     2
 40
0.1875
 49
0.125
 49
-0.0625
  0
LTYPE
  2
PHANTOM2
 70
     0
  3
___ _ _ ___ _ _ ___ _ _ ___ _ _ ___ _ _ ___ _ _
 72
    65
 73
     6
 40
1.25
 49
0.625
 49
-0.125
 49
0.125
 49
-0.125
 49
0.125
 49
-0.125
  0
LTYPE
  2
CENTER
 70
     0
  3
____ _ ____ _ ____ _ ____ _ ____ _ ____ _ ____ 
 72
    65
 73
     4
 40
2.0
 49
1.25
 49
-0.25
 49
0.25
 49
-0.25
  0
LTYPE
  2
AM_ISO02W050
 70
     0
  3
__ __ __ __ __ __ __ __ __ __ __ __ __ __ __
 72
    65
 73
     2
 40
7.5
 49
6.0
 49
-1.5
  0
LTYPE
  2
AMCONSTR
 70
     0
  3
_______________________
 72
    65
 73
     2
 40
9999.0
 49
9999.0
 49
0.0
  0
LTYPE
  2
ACISOWELD
 70
     0
  3
_ _ _ _ _
 72
    65
 73
     2
 40
2.0
 49
2.0
 49
-1.0
  0
LTYPE
  2
ACISOTGB
 70
     0
  3
__ . . __ . .
 72
    65
 73
     6
 40
9.0
 49
4.0
 49
-1.0
 49
1.0
 49
-1.0
 49
1.0
 49
-1.0
  0
LTYPE
  2
ACISOTGL
 70
     0
  3
_ _ _ _ _
 72
    65
 73
     2
 40
3.0
 49
2.0
 49
-1.0
  0
LTYPE
  2
ACJISTGB
 70
     0
  3
__ . . __ . .
 72
    65
 73
     6
 40
9.0
 49
4.0
 49
-1.0
 49
1.0
 49
-1.0
 49
1.0
 49
-1.0
  0
LTYPE
  2
ACJISTGL
 70
     0
  3
_ _ _ _ _
 72
    65
 73
     2
 40
3.0
 49
2.0
 49
-1.0
  0
ENDTAB
  0
TABLE
  2
LAYER
 70
     8
  0
LAYER
  2
0
 70
     0
 62
     7
  6
CONTINUOUS
  0
LAYER
  2
DEFPOINTS
 70
     0
 62
     7
  6
CONTINUOUS
  0
LAYER
  2
245
 70
     0
 62
     2
  6
CENTER2
  0
LAYER
  2
240
 70
     0
 62
     4
  6
CONTINUOUS
  0
LAYER
  2
241
 70
     0
 62
   211
  6
CONTINUOUS
  0
LAYER
  2
243
 70
     0
 62
   211
  6
HIDDEN2
  0
LAYER
  2
247
 70
     0
 62
    60
  6
CONTINUOUS
  0
LAYER
  2
250
 70
     0
 62
     3
  6
CONTINUOUS
  0
ENDTAB
  0
TABLE
  2
STYLE
 70
     6
  0
STYLE
  2
STANDARD
 70
     0
 40
0.0
 41
1.0
 50
0.0
 71
     0
 42
3.0
  3
romans.shx
  4
extfont.shx
  0
STYLE
  2
ACISOTS
 70
     0
 40
1.0
 41
1.0
 50
0.0
 71
     0
 42
3.0
  3
amgdt.shx
  4
extfont.shx
  0
STYLE
  2
ACISOGDT
 70
     0
 40
0.0
 41
1.0
 50
0.0
 71
     0
 42
3.0
  3
amgdt.shx
  4
extfont.shx
  0
STYLE
  2
ACJISTS
 70
     0
 40
1.0
 41
1.0
 50
0.0
 71
     0
 42
3.0
  3
amgdt.shx
  4
extfont.shx
  0
STYLE
  2
ACJISGDT
 70
     0
 40
0.0
 41
1.0
 50
0.0
 71
     0
 42
3.0
  3
amgdt.shx
  4
extfont.shx
  0
STYLE
  2
YOKO
 70
     0
 40
0.0
 41
1.0
 50
0.0
 71
     0
 42
3.0
  3
romans.shx
  4
extfont.shx
  0
ENDTAB
  0
TABLE
  2
VIEW
 70
     0
  0
ENDTAB
  0
TABLE
  2
UCS
 70
     0
  0
ENDTAB
  0
TABLE
  2
APPID
 70
    39
  0
APPID
  2
ACAD
 70
     0
  0
APPID
  2
GLOBAL
 70
     0
  0
APPID
  2
DETAIL
 70
     0
  0
APPID
  2
GRPNAME
 70
     0
  0
APPID
  2
GPARA
 70
     0
  0
APPID
  2
MCAD_NO_VIS
 70
     0
  0
APPID
  2
ACAD_TEMP_GRAPHIC
 70
     0
  0
APPID
  2
ACATTRIBSERVICES
 70
     0
  0
APPID
  2
GENIUS_GENSCREG_15
 70
     0
  0
APPID
  2
GENIUS_GENODEF_13
 70
     0
  0
APPID
  2
GENIUS_GENOBJ-N-SDF_13
 70
     0
  0
APPID
  2
GENIUS_GENREC_14
 70
     0
  0
APPID
  2
GENIUS_GENOBJ-N-REC_13
 70
     0
  0
APPID
  2
GENIUS_GENDIMSH_14
 70
     0
  0
APPID
  2
GENIUS_GENOBJ-N-DIM_13
 70
     0
  0
APPID
  2
GENIUS_GENDIM_13
 70
     0
  0
APPID
  2
GENIUS_GENDTOL_13
 70
     0
  0
APPID
  2
GENIUS_GENOLIS_13
 70
     0
  0
APPID
  2
GENIUS_GENOENT_13
 70
     0
  0
APPID
  2
GENIUS_GENOBJ-F-FEM_13
 70
     0
  0
APPID
  2
GENIUS_GENOREF_13
 70
     0
  0
APPID
  2
GENIUS_GEFFEM_13
 70
     0
  0
APPID
  2
GENIUS_GEFFEMP_13
 70
     0
  0
APPID
  2
AD_DRAW
 70
     0
  0
APPID
  2
DESIGNERASSEMBLIES
 70
     0
  0
APPID
  2
ACADM_DIM_EDIT
 70
     0
  0
APPID
  2
AMDT_DM_ADJ
 70
     0
  0
APPID
  2
ACAD_NAV_VCDISPLAY
 70
     0
  0
APPID
  2
HATCH_TYPE
 70
     0
  0
APPID
  2
HATCH_DISPLAY
 70
     0
  0
APPID
  2
HATCH_DISTANCE
 70
     0
  0
APPID
  2
ACAD_DSTYLE_DIMJAG
 70
     0
  0
APPID
  2
ACAD_DSTYLE_DIMBREAK
 70
     0
  0
APPID
  2
ACAECLAYERSTANDARD
 70
     0
  0
APPID
  2
GENIUS_GENOBJ-N-FIL_13
 70
     0
  0
APPID
  2
ACAD_DSTYLE_DIMINSPECT
 70
     0
  0
APPID
  2
ACADANNOMONITORALERTICONDI
 70
     0
  0
APPID
  2
ACAD_EXEMPT_FROM_CAD_STANDARDS
 70
     0
  0
APPID
  2
ACAD_MLEADERVER
 70
     0
  0
ENDTAB
  0
TABLE
  2
DIMSTYLE
 70
    23
  0
DIMSTYLE
  2
BIGT
 70
     0
  3

  4

  5
OPEN
  6

  7

 40
1.0
 41
2.2299999999999991
 42
0.5
 43
7.0
 44
1.0
 45
0.0
 46
0.0
 47
0.0
 48
0.01
140
2.7999999999999989
141
0.0
142
0.0
143
25.3999999999999986
144
1.0
145
0.0
146
1.0
147
1.0
 71
     0
 72
     0
 73
     0
 74
     0
 75
     0
 76
     0
 77
     3
 78
     9
170
     0
171
     2
172
     1
173
     0
174
     1
175
     0
176
   256
177
   256
178
    40
  0
DIMSTYLE
  2
AM_ISO
 70
     0
  3

  4
"
  5

  6

  7

 40
1.0
 41
2.5
 42
1.0
 43
10.0
 44
1.0
 45
0.0
 46
0.0
 47
0.1
 48
0.1
140
3.5
141
0.0
142
0.0
143
0.0393701
144
1.0
145
0.0
146
0.71
147
1.5
 71
     0
 72
     0
 73
     0
 74
     0
 75
     0
 76
     0
 77
     1
 78
     8
170
     0
171
     2
172
     1
173
     0
174
     0
175
     0
176
   256
177
   256
178
     2
  0
DIMSTYLE
  2
AM_ISO$3
 70
     0
  3

  4
"
  5

  6

  7

 40
1.0
 41
2.5
 42
1.0
 43
10.0
 44
1.0
 45
0.0
 46
0.0
 47
0.1
 48
0.1
140
3.5
141
0.0
142
0.0
143
0.0393701
144
1.0
145
0.0
146
0.71
147
1.5
 71
     0
 72
     0
 73
     0
 74
     1
 75
     0
 76
     0
 77
     1
 78
     8
170
     0
171
     2
172
     0
173
     0
174
     0
175
     0
176
   256
177
   256
178
     2
  0
DIMSTYLE
  2
AM_ISO$4
 70
     0
  3

  4
"
  5

  6

  7

 40
1.0
 41
2.5
 42
1.0
 43
10.0
 44
1.0
 45
0.0
 46
0.0
 47
0.1
 48
0.1
140
3.5
141
0.0
142
0.0
143
0.0393701
144
1.0
145
0.0
146
0.71
147
1.5
 71
     0
 72
     0
 73
     0
 74
     1
 75
     0
 76
     0
 77
     1
 78
     8
170
     0
171
     2
172
     0
173
     0
174
     0
175
     0
176
   256
177
   256
178
     2
  0
DIMSTYLE
  2
AM_ISO$6
 70
     0
  3

  4
"
  5

  6

  7

 40
1.0
 41
2.5
 42
1.0
 43
10.0
 44
1.0
 45
0.0
 46
0.0
 47
0.1
 48
0.1
140
3.5
141
0.0
142
0.0
143
0.0393701
144
1.0
145
0.0
146
0.71
147
1.5
 71
     0
 72
     0
 73
     0
 74
     0
 75
     0
 76
     0
 77
     0
 78
     8
170
     0
171
     2
172
     1
173
     0
174
     0
175
     0
176
   256
177
   256
178
     2
  0
DIMSTYLE
  2
AM_ISO$7
 70
     0
  3

  4
"
  5

  6

  7

 40
1.0
 41
2.5
 42
1.0
 43
10.0
 44
1.0
 45
0.0
 46
0.0
 47
0.1
 48
0.1
140
5.0
141
0.0
142
0.0
143
0.0393701
144
1.0
145
0.0
146
0.71
147
1.5
 71
     0
 72
     0
 73
     0
 74
     0
 75
     0
 76
     0
 77
     1
 78
     8
170
     0
171
     2
172
     1
173
     0
174
     0
175
     0
176
   256
177
   256
178
     2
  0
DIMSTYLE
  2
AM_ISO$SF
 70
     0
  3

  4
"
  5

  6

  7

 40
1.0
 41
2.5
 42
1.0
 43
10.0
 44
1.0
 45
0.0
 46
0.0
 47
0.1
 48
0.1
140
3.5
141
0.0
142
0.0
143
0.0393701
144
1.0
145
0.0
146
0.71
147
1.5
 71
     0
 72
     0
 73
     0
 74
     0
 75
     1
 76
     1
 77
     1
 78
     8
170
     0
171
     2
172
     1
173
     0
174
     0
175
     0
176
   256
177
   256
178
     2
  0
DIMSTYLE
  2
AM_ISO$SH
 70
     0
  3

  4
"
  5

  6
GENAXEH
  7

 40
1.0
 41
2.5
 42
1.0
 43
10.0
 44
1.0
 45
0.0
 46
0.0
 47
0.1
 48
0.1
140
3.5
141
0.0
142
0.0
143
0.0393701
144
2.0
145
0.0
146
0.71
147
1.5
 71
     0
 72
     0
 73
     0
 74
     0
 75
     1
 76
     1
 77
     1
 78
     8
170
     0
171
     2
172
     1
173
     1
174
     0
175
     0
176
   256
177
   256
178
     2
  0
DIMSTYLE
  2
BIGT$2
 70
     0
  3

  4

  5
OPEN
  6

  7

 40
1.0
 41
2.2299999999999991
 42
0.5
 43
7.0
 44
1.0
 45
0.0
 46
0.0
 47
0.0
 48
0.01
140
2.7999999999999989
141
0.0
142
0.0
143
25.3999999999999986
144
1.0
145
0.0
146
1.0
147
1.0
 71
     0
 72
     0
 73
     0
 74
     0
 75
     0
 76
     0
 77
     3
 78
     9
170
     0
171
     2
172
     1
173
     0
174
     0
175
     0
176
   256
177
   256
178
    40
  0
DIMSTYLE
  2
BIGT$3
 70
     0
  3

  4

  5
OPEN
  6

  7

 40
1.0
 41
2.2299999999999991
 42
0.5
 43
2.5
 44
1.0
 45
0.0
 46
0.0
 47
0.0
 48
0.01
140
2.7999999999999989
141
0.0
142
0.0
143
25.3999999999999986
144
1.0
145
0.0
146
1.0
147
1.0
 71
     0
 72
     0
 73
     0
 74
     0
 75
     0
 76
     0
 77
     3
 78
     9
170
     0
171
     2
172
     1
173
     0
174
     0
175
     0
176
   256
177
   256
178
    40
  0
DIMSTYLE
  2
BIGT$7
 70
     0
  3

  4

  5
OPEN
  6

  7

 40
0.0
 41
2.2299999999999991
 42
0.5
 43
7.0
 44
1.0
 45
0.0
 46
0.0
 47
0.0
 48
0.01
140
2.7999999999999989
141
0.0
142
0.0
143
25.3999999999999986
144
1.0
145
0.0
146
1.0
147
1.0
 71
     0
 72
     0
 73
     0
 74
     0
 75
     0
 76
     0
 77
     3
 78
     9
170
     0
171
     2
172
     0
173
     0
174
     0
175
     0
176
   256
177
   256
178
    40
  0
DIMSTYLE
  2
BIGT$6
 70
     0
  3

  4

  5
OPEN
  6

  7

 40
1.0
 41
2.2299999999999991
 42
0.5
 43
2.5
 44
1.0
 45
0.0
 46
0.0
 47
0.0
 48
0.01
140
2.7999999999999989
141
0.0
142
0.0
143
25.3999999999999986
144
1.0
145
0.0
146
1.0
147
1.0
 71
     0
 72
     0
 73
     0
 74
     0
 75
     0
 76
     0
 77
     3
 78
     9
170
     0
171
     2
172
     1
173
     0
174
     0
175
     0
176
   256
177
   256
178
    40
  0
DIMSTYLE
  2
BIGT$0
 70
     0
  3

  4

  5
OPEN
  6

  7

 40
1.0
 41
2.2299999999999991
 42
0.5
 43
7.0
 44
1.0
 45
0.0
 46
0.0
 47
0.0
 48
0.01
140
2.7999999999999989
141
0.0
142
0.0
143
25.3999999999999986
144
1.0
145
0.0
146
1.0
147
1.0
 71
     0
 72
     0
 73
     0
 74
     0
 75
     0
 76
     0
 77
     3
 78
     9
170
     0
171
     2
172
     1
173
     0
174
     0
175
     0
176
   256
177
   256
178
    40
  0
DIMSTYLE
  2
BIGT$4
 70
     0
  3

  4

  5
OPEN
  6

  7

 40
1.0
 41
2.2299999999999991
 42
0.5
 43
2.5
 44
1.0
 45
0.0
 46
0.0
 47
0.0
 48
0.01
140
2.7999999999999989
141
0.0
142
0.0
143
25.3999999999999986
144
1.0
145
0.0
146
1.0
147
1.0
 71
     0
 72
     0
 73
     0
 74
     0
 75
     0
 76
     0
 77
     3
 78
     9
170
     0
171
     2
172
     1
173
     0
174
     0
175
     0
176
   256
177
   256
178
    40
  0
DIMSTYLE
  2
BIGT$SH
 70
     0
  3

  4

  5
OPEN
  6

  7

 40
1.0
 41
2.2299999999999991
 42
0.5
 43
7.0
 44
1.0
 45
0.0
 46
0.0
 47
0.0
 48
0.0
140
2.7999999999999989
141
0.0
142
0.0
143
25.3999999999999986
144
1.0
145
0.0
146
1.0
147
1.0
 71
     0
 72
     0
 73
     0
 74
     0
 75
     0
 76
     0
 77
     3
 78
     9
170
     0
171
     2
172
     1
173
     0
174
     0
175
     0
176
   256
177
   256
178
    40
  0
DIMSTYLE
  2
BIGT$SF
 70
     0
  3

  4

  5
OPEN
  6

  7

 40
1.0
 41
2.2299999999999991
 42
0.5
 43
7.0
 44
1.0
 45
0.0
 46
0.0
 47
0.0
 48
0.0
140
2.7999999999999989
141
0.0
142
0.0
143
25.3999999999999986
144
1.0
145
0.0
146
1.0
147
1.0
 71
     0
 72
     0
 73
     0
 74
     0
 75
     0
 76
     0
 77
     3
 78
     9
170
     0
171
     2
172
     1
173
     0
174
     0
175
     0
176
   256
177
   256
178
    40
  0
DIMSTYLE
  2
TECHNICAL_OSAKA
 70
     0
  3

  4
"
  5
OPEN30
  6

  7

 40
1.0
 41
2.5
 42
1.0
 43
10.0
 44
1.0
 45
0.0
 46
0.0
 47
0.1
 48
0.1
140
2.7999999999999989
141
0.0
142
0.0
143
0.0393701
144
1.0
145
0.0
146
0.71
147
1.5
 71
     0
 72
     0
 73
     0
 74
     0
 75
     0
 76
     0
 77
     3
 78
     8
170
     0
171
     2
172
     1
173
     0
174
     0
175
     0
176
   256
177
   256
178
    40
  0
DIMSTYLE
  2
TECHNICAL_OSAKA$3
 70
     0
  3

  4
"
  5
OPEN30
  6

  7

 40
1.0
 41
2.5
 42
1.0
 43
10.0
 44
1.0
 45
0.0
 46
0.0
 47
0.1
 48
0.1
140
2.7999999999999989
141
0.0
142
0.0
143
0.0393701
144
1.0
145
0.0
146
0.71
147
1.5
 71
     0
 72
     0
 73
     0
 74
     1
 75
     0
 76
     0
 77
     3
 78
     8
170
     0
171
     2
172
     0
173
     0
174
     0
175
     0
176
   256
177
   256
178
    40
  0
DIMSTYLE
  2
TECHNICAL_OSAKA$4
 70
     0
  3

  4
"
  5
OPEN30
  6

  7

 40
1.0
 41
2.5
 42
1.0
 43
10.0
 44
1.0
 45
0.0
 46
0.0
 47
0.1
 48
0.1
140
2.7999999999999989
141
0.0
142
0.0
143
0.0393701
144
1.0
145
0.0
146
0.71
147
1.5
 71
     0
 72
     0
 73
     0
 74
     1
 75
     0
 76
     0
 77
     3
 78
     8
170
     0
171
     2
172
     0
173
     0
174
     0
175
     0
176
   256
177
   256
178
    40
  0
DIMSTYLE
  2
TECHNICAL_OSAKA$6
 70
     0
  3

  4
"
  5
OPEN30
  6

  7

 40
1.0
 41
2.5
 42
1.0
 43
10.0
 44
1.0
 45
0.0
 46
0.0
 47
0.1
 48
0.1
140
2.7999999999999989
141
0.0
142
0.0
143
0.0393701
144
1.0
145
0.0
146
0.71
147
1.5
 71
     0
 72
     0
 73
     0
 74
     0
 75
     0
 76
     0
 77
     0
 78
     8
170
     0
171
     2
172
     1
173
     0
174
     0
175
     0
176
   256
177
   256
178
    40
  0
DIMSTYLE
  2
TECHNICAL_OSAKA$7
 70
     0
  3

  4
"
  5
OPEN30
  6

  7

 40
1.0
 41
2.5
 42
1.0
 43
10.0
 44
1.0
 45
0.0
 46
0.0
 47
0.1
 48
0.1
140
2.7999999999999989
141
0.0
142
0.0
143
0.0393701
144
1.0
145
0.0
146
0.71
147
1.5
 71
     0
 72
     0
 73
     0
 74
     0
 75
     0
 76
     0
 77
     3
 78
     8
170
     0
171
     2
172
     1
173
     0
174
     0
175
     0
176
   256
177
   256
178
    40
  0
DIMSTYLE
  2
TECHNICAL_OSAKA$SF
 70
     0
  3

  4
"
  5
OPEN30
  6
OPEN30
  7
OPEN30
 40
1.0
 41
2.5
 42
1.0
 43
10.0
 44
1.0
 45
0.0
 46
0.0
 47
0.1
 48
0.1
140
3.5
141
0.0
142
0.0
143
0.0393701
144
1.0
145
0.0
146
0.71
147
1.5
 71
     0
 72
     0
 73
     0
 74
     0
 75
     1
 76
     1
 77
     3
 78
     8
170
     0
171
     2
172
     1
173
     0
174
     0
175
     0
176
   256
177
   256
178
    40
  0
DIMSTYLE
  2
TECHNICAL_OSAKA$SH
 70
     0
  3

  4
"
  5
OPEN30
  6
GENAXEH
  7
OPEN30
 40
1.0
 41
2.5
 42
1.0
 43
10.0
 44
1.0
 45
0.0
 46
0.0
 47
0.1
 48
0.1
140
3.5
141
0.0
142
0.0
143
0.0393701
144
2.0
145
0.0
146
0.71
147
1.5
 71
     0
 72
     0
 73
     0
 74
     0
 75
     1
 76
     1
 77
     3
 78
     8
170
     0
171
     2
172
     1
173
     1
174
     0
175
     0
176
   256
177
   256
178
    40
  0
ENDTAB
  0
ENDSEC
  0
SECTION
  2
BLOCKS
  0
BLOCK
  8
0
  2
$MODEL_SPACE
 70
     0
 10
0.0
 20
0.0
 30
0.0
  3
$MODEL_SPACE
  1

  0
ENDBLK
  5
1C
  8
0
  0
BLOCK
 67
     1
  8
0
  2
$PAPER_SPACE
 70
     0
 10
0.0
 20
0.0
 30
0.0
  3
$PAPER_SPACE
  1

  0
ENDBLK
  5
19
 67
     1
  8
0
  0
BLOCK
  8
0
  2
_OPEN
 70
     0
 10
0.0
 20
0.0
 30
0.0
  3
_OPEN
  1

  0
LINE
  5
595
  8
0
  6
BYBLOCK
 62
     0
 10
-1.0
 20
0.1666666666666666
 30
0.0
 11
0.0
 21
0.0
 31
0.0
  0
LINE
  5
596
  8
0
  6
BYBLOCK
 62
     0
 10
-1.0
 20
-0.1666666666666666
 30
0.0
 11
0.0
 21
0.0
 31
0.0
  0
LINE
  5
597
  8
0
  6
BYBLOCK
 62
     0
 10
0.0
 20
0.0
 30
0.0
 11
-1.0
 21
0.0
 31
0.0
  0
ENDBLK
  5
599
  8
0
  0
BLOCK
  8
0
  2
GENAXEH
 70
     0
 10
0.0
 20
0.0
 30
0.0
  3
GENAXEH
  1

  0
LINE
  5
6E8
  8
0
 10
-1.0
 20
0.0
 30
0.0
 11
1.0
 21
0.0
 31
0.0
  0
ENDBLK
  5
6EA
  8
0
  0
BLOCK
  8
0
  2
_OPEN30
 70
     0
 10
0.0
 20
0.0
 30
0.0
  3
_OPEN30
  1

  0
LINE
  5
E8F
  8
0
  6
BYBLOCK
 62
     0
 10
-1.0
 20
0.26794919
 30
0.0
 11
0.0
 21
0.0
 31
0.0
  0
LINE
  5
E90
  8
0
  6
BYBLOCK
 62
     0
 10
0.0
 20
0.0
 30
0.0
 11
-1.0
 21
-0.26794919
 31
0.0
  0
LINE
  5
E91
  8
0
  6
BYBLOCK
 62
     0
 10
0.0
 20
0.0
 30
0.0
 11
-1.0
 21
0.0
 31
0.0
  0
ENDBLK
  5
E93
  8
0
  0
BLOCK
  8
0
  2
_ACMOPEN15
 70
     0
 10
0.0
 20
0.0
 30
0.0
  3
_ACMOPEN15
  1

  0
LINE
  5
1359
  8
245
 62
     0
 10
-1.0
 20
0.0
 30
0.0
 11
0.0
 21
0.0
 31
0.0
  0
LINE
  5
135A
  8
245
 62
     0
 10
-1.0
 20
-0.131652497
 30
0.0
 11
0.0
 21
0.0
 31
0.0
  0
LINE
  5
135B
  8
245
 62
     0
 10
0.0
 20
0.0
 30
0.0
 11
-1.0
 21
0.131652497
 31
0.0
  0
ENDBLK
  5
1358
  8
0
  0
ENDSEC
  0
SECTION
  2
ENTITIES
  0
TEXT
  5
149C
  8
241
  6
CONTINUOUS
 10
-105.0
 20
42.0
 30
0.0
 40
5.0
  1
SL25.4-NBS13-80
  7
YOKO
 11
-105.0
 21
42.0
 31
0.0
 73
     1
  0
LINE
  5
1503
  8
245
  6
CENTER2
 10
2.656739425502336
 20
0.0
 30
0.0
 11
-103.7245399921092002
 21
0.0
 31
0.0
  0
LINE
  5
1504
  8
240
  6
CONTINUOUS
 10
-89.8000000000000966
 20
12.6999999999999904
 30
0.0
 11
-21.4999999999999893
 21
12.6999999999999993
 31
0.0
  0
LINE
  5
1505
  8
240
  6
CONTINUOUS
 10
-89.8000000000001393
 20
-12.69999999999993
 30
0.0
 11
-21.4999999999999893
 21
-12.6999999999999407
 31
0.0
  0
LINE
  5
1507
  8
240
  6
CONTINUOUS
 10
-89.8000000000000966
 20
12.6999999999999904
 30
0.0
 11
-91.4999999999999858
 21
11.0
 31
0.0
  0
LINE
  5
1508
  8
240
  6
CONTINUOUS
 10
-89.8000000000001393
 20
-12.69999999999993
 30
0.0
 11
-91.5000000000000142
 21
-11.0
 31
0.0
  0
LINE
  5
1509
  8
240
  6
CONTINUOUS
 10
-101.5
 20
-10.5
 30
0.0
 11
-101.0
 21
-11.0
 31
0.0
  0
LINE
  5
150A
  8
240
  6
CONTINUOUS
 10
-91.5000000000000142
 20
-11.0
 30
0.0
 11
-101.0
 21
-11.0
 31
0.0
  0
LINE
  5
150B
  8
240
  6
CONTINUOUS
 10
-101.5
 20
-10.5
 30
0.0
 11
-101.5
 21
10.5
 31
0.0
  0
LINE
  5
150C
  8
240
  6
CONTINUOUS
 10
-91.4999999999999858
 20
11.0
 30
0.0
 11
-101.0
 21
11.0
 31
0.0
  0
LINE
  5
150D
  8
240
  6
CONTINUOUS
 10
-101.0
 20
11.0
 30
0.0
 11
-101.5
 21
10.5
 31
0.0
  0
LINE
  5
16CF
  8
240
  6
CONTINUOUS
 10
-21.4999999999999893
 20
12.9999999999999893
 30
0.0
 11
-21.4999999999999893
 21
12.6999999999999993
 31
0.0
  0
LINE
  5
16D0
  8
241
  6
CONTINUOUS
 10
-21.4999999999999893
 20
12.6999999999999993
 30
0.0
 11
-21.4999999999999893
 21
-12.6999999999999407
 31
0.0
  0
LINE
  5
16D1
  8
240
  6
CONTINUOUS
 10
-21.4999999999999893
 20
-12.6999999999999407
 30
0.0
 11
-21.4999999999999893
 21
-12.9999999999999396
 31
0.0
  0
LINE
  5
16D3
  8
240
  6
CONTINUOUS
 10
-21.4999999999999893
 20
-12.9999999999999396
 30
0.0
 11
-16.0
 21
-12.9999999999999396
 31
0.0
  0
LINE
  5
16D4
  8
240
  6
CONTINUOUS
 10
-16.0
 20
13.0
 30
0.0
 11
-21.4999999999999893
 21
12.9999999999999893
 31
0.0
  0
LINE
  5
16D9
  8
243
  6
HIDDEN2
 10
-3.5000000000001128
 20
10.3654695538379595
 30
0.0
 11
-3.5
 21
8.7499995000000705
 31
0.0
  0
LINE
  5
16DA
  8
243
  6
HIDDEN2
 10
-3.5
 20
8.7499995000000705
 30
0.0
 11
-5.5999999999999943
 21
8.7499995000000705
 31
0.0
  0
LINE
  5
16DB
  8
243
  6
HIDDEN2
 10
-5.600000000000108
 20
8.7499995000000705
 30
0.0
 11
-5.6000000000006764
 21
10.2522496646376293
 31
0.0
  0
LINE
  5
16DC
  8
243
  6
HIDDEN2
 10
-5.6000000000006764
 20
10.2522496646376293
 30
0.0
 11
-31.000000000000199
 21
7.5826020888894918
 31
0.0
  0
LINE
  5
16DD
  8
243
  6
HIDDEN2
 10
0.0
 20
8.3447436116742626
 30
0.0
 11
-3.5000000000001128
 21
10.3654695538379595
 31
0.0
  0
LINE
  5
16DE
  8
243
  6
HIDDEN2
 10
-31.000000000000199
 20
6.499999500000003
 30
0.0
 11
0.0
 21
6.499999500000003
 31
0.0
  0
LINE
  5
16DF
  8
240
  6
CONTINUOUS
 10
-16.0000000000001386
 20
-17.5000005000001408
 30
0.0
 11
0.0
 21
-17.5000004999998815
 31
0.0
1001
GRPNAME
1000
PASTMD0C
  0
LINE
  5
16E0
  8
240
  6
CONTINUOUS
 10
0.0
 20
17.4999994999998805
 30
0.0
 11
0.0
 21
-17.5000004999998815
 31
0.0
1001
GRPNAME
1000
PASTMD0C
  0
LINE
  5
16E1
  8
240
  6
CONTINUOUS
 10
-16.0000000000001386
 20
-17.5000005000001408
 30
0.0
 11
-16.0000000000001386
 21
-13.0000004999999703
 31
0.0
1001
GRPNAME
1000
PASTMD0C
  0
LINE
  5
16E2
  8
241
  6
CONTINUOUS
 10
-16.0000000000001386
 20
-13.0000004999999703
 30
0.0
 11
-16.0000000000001386
 21
12.9999994999999604
 31
0.0
1001
GRPNAME
1000
PASTMD0C
  0
LINE
  5
16E3
  8
240
  6
CONTINUOUS
 10
-16.0000000000001386
 20
17.4999995000001505
 30
0.0
 11
0.0
 21
17.4999994999998805
 31
0.0
1001
GRPNAME
1000
PASTMD0C
  0
LINE
  5
16E4
  8
240
  6
CONTINUOUS
 10
-16.0000000000001386
 20
17.4999995000001505
 30
0.0
 11
-16.0000000000001386
 21
12.9999994999999799
 31
0.0
1001
GRPNAME
1000
PASTMD0C
  0
LINE
  5
16E5
  8
243
  6
HIDDEN2
 10
-31.000000000000199
 20
-7.582603088889484
 30
0.0
 11
-31.0000000000001386
 21
7.5826020888894901
 31
0.0
  0
LINE
  5
16E6
  8
243
  6
HIDDEN2
 10
-3.5000000000001128
 20
-10.3654705538379606
 30
0.0
 11
-3.5
 21
-8.7500005000000645
 31
0.0
  0
LINE
  5
16E7
  8
243
  6
HIDDEN2
 10
-3.5
 20
-8.7500005000000645
 30
0.0
 11
-5.5999999999999943
 21
-8.7500005000000645
 31
0.0
  0
LINE
  5
16E8
  8
243
  6
HIDDEN2
 10
-5.600000000000108
 20
-8.7500005000000645
 30
0.0
 11
-5.6000000000006764
 21
-10.2522506646376304
 31
0.0
  0
LINE
  5
16E9
  8
243
  6
HIDDEN2
 10
-5.6000000000006764
 20
-10.2522506646376304
 30
0.0
 11
-31.000000000000199
 21
-7.582603088889484
 31
0.0
  0
LINE
  5
16EA
  8
243
  6
HIDDEN2
 10
0.0
 20
-8.3447446116742565
 30
0.0
 11
-3.5000000000001128
 21
-10.3654705538379606
 31
0.0
  0
LINE
  5
16EB
  8
243
  6
HIDDEN2
 10
-31.000000000000199
 20
-6.5000004999999961
 30
0.0
 11
0.0
 21
-6.5000004999999961
 31
0.0
  0
LINE
  5
16EC
  8
241
  6
CONTINUOUS
 10
-6.5
 20
1.9999994999999871
 30
0.0
 11
-16.0000000000001386
 21
1.9999994999999871
 31
0.0
  0
LINE
  5
16ED
  8
241
  6
CONTINUOUS
 10
-6.5
 20
-2.0000004999999659
 30
0.0
 11
-16.0000000000001386
 21
-2.0000004999999659
 31
0.0
  0
LINE
  5
16EE
  8
241
  6
CONTINUOUS
 10
-6.5
 20
1.9999994999999871
 30
0.0
 11
-6.5
 21
-2.0000004999999659
 31
0.0
  0
LINE
  5
16EF
  8
241
  6
CONTINUOUS
 10
-6.5
 20
-14.0561454249135593
 30
0.0
 11
-16.0000000000001386
 21
-14.0561454249135593
 31
0.0
  0
LINE
  5
16F0
  8
241
  6
CONTINUOUS
 10
-6.5
 20
-16.0561454249135416
 30
0.0
 11
-16.0000000000001386
 21
-16.0561454249135416
 31
0.0
  0
LINE
  5
16F1
  8
241
  6
CONTINUOUS
 10
-6.5
 20
-16.0561454249135416
 30
0.0
 11
-6.5
 21
-14.0561454249135593
 31
0.0
  0
LINE
  5
16F2
  8
241
  6
CONTINUOUS
 10
-6.5
 20
16.0561444249135796
 30
0.0
 11
-16.0000000000001386
 21
16.0561444249135796
 31
0.0
  0
LINE
  5
16F3
  8
241
  6
CONTINUOUS
 10
-6.5
 20
14.0561444249135903
 30
0.0
 11
-16.0000000000001386
 21
14.0561444249135903
 31
0.0
  0
LINE
  5
16F4
  8
241
  6
CONTINUOUS
 10
-6.5
 20
16.0561444249135796
 30
0.0
 11
-6.5
 21
14.0561444249135903
 31
0.0
  0
LINE
  5
16F5
  8
250
  6
CONTINUOUS
 10
0.5
 20
6.4999995000000022
 30
0.0
 11
10.0535520999999903
 21
6.4999994999999968
 31
0.0
  0
LINE
  5
16F6
  8
250
  6
CONTINUOUS
 10
9.0535520999999903
 20
-4.500000499999997
 30
0.0
 11
9.0535520999999903
 21
4.4999994999999968
 31
0.0
  0
LINE
  5
16F7
  8
250
  6
CONTINUOUS
 10
0.5
 20
-17.5000004999999916
 30
0.0
 11
17.0
 21
-17.5000004999999916
 31
0.0
  0
LINE
  5
16F8
  8
250
  6
CONTINUOUS
 10
0.5
 20
17.4999995000000084
 30
0.0
 11
17.0
 21
17.4999995000000084
 31
0.0
  0
LINE
  5
16F9
  8
250
  6
CONTINUOUS
 10
16.0
 20
-15.5000004999999899
 30
0.0
 11
16.0
 21
15.4999994999999995
 31
0.0
  0
TEXT
  5
16FA
  8
250
  6
CONTINUOUS
 10
8.0535520999999886
 20
-10.5475613353424595
 30
0.0
 40
2.799999999999998
  1
max.%%C.512
 50
90.0
  0
LINE
  5
16FB
  8
250
  6
CONTINUOUS
 10
8.7202187666666742
 20
4.4999994999999968
 30
0.0
 11
9.0535520999999903
 21
6.4999994999999968
 31
0.0
  0
LINE
  5
16FC
  8
250
  6
CONTINUOUS
 10
9.3868854333333331
 20
4.4999994999999968
 30
0.0
 11
9.0535520999999903
 21
6.4999994999999968
 31
0.0
  0
LINE
  5
16FD
  8
250
  6
CONTINUOUS
 10
9.0535520999999903
 20
6.4999994999999968
 30
0.0
 11
9.0535520999999903
 21
4.4999994999999968
 31
0.0
  0
LINE
  5
16FE
  8
250
  6
CONTINUOUS
 10
9.3868854333333331
 20
-4.500000499999997
 30
0.0
 11
9.0535520999999903
 21
-6.500000499999997
 31
0.0
  0
LINE
  5
16FF
  8
250
  6
CONTINUOUS
 10
8.7202187666666742
 20
-4.500000499999997
 30
0.0
 11
9.0535520999999903
 21
-6.500000499999997
 31
0.0
  0
LINE
  5
1700
  8
250
  6
CONTINUOUS
 10
9.0535520999999903
 20
-6.500000499999997
 30
0.0
 11
9.0535520999999903
 21
-4.500000499999997
 31
0.0
  0
TEXT
  5
1701
  8
250
  6
CONTINUOUS
 10
15.0
 20
-7.4613151531970816
 30
0.0
 40
2.799999999999998
  1
\U+22051.378
 50
90.0
  0
LINE
  5
1702
  8
250
  6
CONTINUOUS
 10
15.6666666666666003
 20
15.4999994999999995
 30
0.0
 11
16.0
 21
17.4999995000000084
 31
0.0
  0
LINE
  5
1703
  8
250
  6
CONTINUOUS
 10
16.3333333333332789
 20
15.4999994999999995
 30
0.0
 11
16.0
 21
17.4999995000000084
 31
0.0
  0
LINE
  5
1704
  8
250
  6
CONTINUOUS
 10
16.0
 20
17.4999995000000084
 30
0.0
 11
16.0
 21
15.4999994999999995
 31
0.0
  0
LINE
  5
1705
  8
250
  6
CONTINUOUS
 10
16.3333333333332789
 20
-15.5000004999999899
 30
0.0
 11
16.0
 21
-17.5000004999999916
 31
0.0
  0
LINE
  5
1706
  8
250
  6
CONTINUOUS
 10
15.6666666666666003
 20
-15.5000004999999899
 30
0.0
 11
16.0
 21
-17.5000004999999916
 31
0.0
  0
LINE
  5
1707
  8
250
  6
CONTINUOUS
 10
16.0
 20
-17.5000004999999916
 30
0.0
 11
16.0
 21
-15.5000004999999899
 31
0.0
  0
LINE
  5
1708
  8
250
  6
CONTINUOUS
 10
0.5
 20
-6.5000004999999961
 30
0.0
 11
10.0535520999999903
 21
-6.5000004999999961
 31
0.0
  0
LINE
  5
174A
  8
247
  6
CONTINUOUS
 10
-94.7500000000700027
 20
-6.0000004999999996
 30
0.0
 11
-88.0576923080299849
 21
-6.0000004999999996
 31
0.0
  0
ARC
  5
174B
  8
247
  6
CONTINUOUS
 10
-94.7500000000700027
 20
-4.2500005000700307
 30
0.0
 40
1.7499999999299991
 50
90.0
 51
270.0
  0
ARC
  5
174C
  8
247
  6
CONTINUOUS
 10
-88.0576923080299849
 20
-4.2500005000700307
 30
0.0
 40
1.7499999999299991
 50
270.0
 51
90.0
  0
LINE
  5
174D
  8
247
  6
CONTINUOUS
 10
-93.8846153847199929
 20
-2.5000005001400618
 30
0.0
 11
-94.7448515419620207
 21
-5.5000005000200067
 31
0.0
  0
LINE
  5
174E
  8
247
  6
CONTINUOUS
 10
-92.9849838183358202
 20
-3.9230774231598962
 30
0.0
 11
-94.2926761259758166
 21
-3.9230774231598962
 31
0.0
  0
ARC
  5
174F
  8
247
  6
CONTINUOUS
 10
-92.6451438160897851
 20
-3.0495991677028651
 30
0.0
 40
0.5538165441895349
 50
342.9978896752950845
 51
82.9241662185135766
  0
ARC
  5
1750
  8
247
  6
CONTINUOUS
 10
-93.0668783230287886
 20
-2.936033544465829
 30
0.0
 40
0.9904354236226808
 50
274.7429368522006143
 51
343.8492262732659128
1001
GENIUS_GENOBJ-N-FIL_13
1002
{
1000
OWNER
1000
GEN
1002
}
1001
GENIUS_GENODEF_13
1002
{
1000
HIER
1070
     0
1002
}
1002
{
1000
MANEDIT
1070
     0
1002
}
1002
{
1000
NOSEL
1070
     0
1002
}
1002
{
1000
BEHIND
1070
     0
1002
}
1002
{
1000
OTHER
1070
     0
1002
}
1002
{
1000
REACTOR
1002
}
  0
LINE
  5
1751
  8
247
  6
CONTINUOUS
 10
-93.4371592343219959
 20
-5.5000005000200067
 30
0.0
 11
-94.7448515419620207
 21
-5.5000005000200067
 31
0.0
  0
LINE
  5
1752
  8
247
  6
CONTINUOUS
 10
-93.8846153847199929
 20
-2.5000005001400618
 30
0.0
 11
-92.5769230770799822
 21
-2.5000005001400618
 31
0.0
  0
ARC
  5
1753
  8
247
  6
CONTINUOUS
 10
-93.06091963654697
 20
-4.4820247326654794
 30
0.0
 40
0.5640818586791229
 50
335.9909416525213146
 51
82.263443459069066
  0
ARC
  5
1754
  8
247
  6
CONTINUOUS
 10
-93.538262685347064
 20
-4.4874295391865067
 30
0.0
 40
1.0176059446230981
 50
275.7019851642580761
 51
347.2773384368226175
1001
GENIUS_GENOBJ-N-FIL_13
1002
{
1000
OWNER
1000
GEN
1002
}
1001
GENIUS_GENODEF_13
1002
{
1000
HIER
1070
     0
1002
}
1002
{
1000
MANEDIT
1070
     0
1002
}
1002
{
1000
NOSEL
1070
     0
1002
}
1002
{
1000
BEHIND
1070
     0
1002
}
1002
{
1000
OTHER
1070
     0
1002
}
1002
{
1000
REACTOR
1002
}
  0
LINE
  5
1755
  8
247
  6
CONTINUOUS
 10
-91.7833130805420012
 20
-5.5000005000200067
 30
0.0
 11
-90.923076923300016
 21
-2.5000005001400618
 31
0.0
  0
LINE
  5
1756
  8
247
  6
CONTINUOUS
 10
-88.50000000032
 20
-2.5000005001400618
 30
0.0
 11
-89.0657366194566009
 21
-2.5000005001400618
 31
0.0
  0
LINE
  5
1757
  8
247
  6
CONTINUOUS
 10
-89.9615384617999752
 20
-5.5000005000200067
 30
0.0
 11
-89.3461538464400178
 21
-5.5000005000200067
 31
0.0
  0
ARC
  5
1758
  8
247
  6
CONTINUOUS
 10
-88.2087912091228645
 20
-4.5832856359733682
 30
0.0
 40
2.2526500823422122
 50
112.3594881415292974
 51
164.9932485428458051
  0
ARC
  5
1759
  8
247
  6
CONTINUOUS
 10
-88.8740694792132331
 20
-3.308313155194639
 30
0.0
 40
0.8906723995727782
 50
4.994589319075172
 51
65.1663289573004931
1001
GENIUS_GENOBJ-N-FIL_13
1002
{
1000
OWNER
1000
GEN
1002
}
1001
GENIUS_GENODEF_13
1002
{
1000
HIER
1070
     0
1002
}
1002
{
1000
MANEDIT
1070
     0
1002
}
1002
{
1000
NOSEL
1070
     0
1002
}
1002
{
1000
BEHIND
1070
     0
1002
}
1002
{
1000
OTHER
1070
     0
1002
}
1002
{
1000
REACTOR
1002
}
  0
ARC
  5
175A
  8
247
  6
CONTINUOUS
 10
-89.7264588862125834
 20
-4.1601463886677834
 30
0.0
 40
1.392781735586712
 50
285.8460965557807185
 51
352.3251370041626274
  0
ARC
  5
175B
  8
247
  6
CONTINUOUS
 10
-89.1422127258403378
 20
-4.4592439315272827
 30
0.0
 40
1.324563662670287
 50
159.7136016704909025
 51
231.7887456564110948
1001
GENIUS_GENOBJ-N-FIL_13
1002
{
1000
OWNER
1000
GEN
1002
}
1001
GENIUS_GENODEF_13
1002
{
1000
HIER
1070
     0
1002
}
1002
{
1000
MANEDIT
1070
     0
1002
}
1002
{
1000
NOSEL
1070
     0
1002
}
1002
{
1000
BEHIND
1070
     0
1002
}
1002
{
1000
OTHER
1070
     0
1002
}
1002
{
1000
REACTOR
1002
}
  0
LINE
  5
175C
  8
247
  6
CONTINUOUS
 10
-89.0384615387600036
 20
-4.3461543462199757
 30
0.0
 11
-88.3461538464800071
 21
-4.3461543462199757
 31
0.0
  0
LINE
  5
175D
  8
247
  6
CONTINUOUS
 10
-94.7500000000700311
 20
-2.5000005001400618
 30
0.0
 11
-94.0769230770200551
 21
-2.5000005001400618
 31
0.0
  0
LINE
  5
1ABA
  8
250
  6
CONTINUOUS
 10
-21.4999999999999893
 20
13.4999999999999805
 30
0.0
 11
-21.4999999999999893
 21
29.0
 31
0.0
  0
LINE
  5
1ABB
  8
250
  6
CONTINUOUS
 10
0.0
 20
17.9999994999998911
 30
0.0
 11
0.0000000000000007
 21
29.0
 31
0.0
  0
LINE
  5
1ABC
  8
250
  6
CONTINUOUS
 10
-19.2699999999999889
 20
28.0
 30
0.0
 11
-2.2299999999999991
 21
28.0
 31
0.0
  0
LINE
  5
1AC0
  8
250
  6
CONTINUOUS
 10
-19.2699999999999889
 20
27.6283333333333303
 30
0.0
 11
-21.4999999999999893
 21
28.0
 31
0.0
  0
LINE
  5
1AC1
  8
250
  6
CONTINUOUS
 10
-19.2699999999999889
 20
28.371666666666659
 30
0.0
 11
-21.4999999999999893
 21
28.0
 31
0.0
  0
LINE
  5
1AC2
  8
250
  6
CONTINUOUS
 10
-21.4999999999999893
 20
28.0
 30
0.0
 11
-19.2699999999999889
 21
28.0
 31
0.0
  0
LINE
  5
1AC3
  8
250
  6
CONTINUOUS
 10
-2.2299999999999991
 20
28.371666666666659
 30
0.0
 11
0.0000000000000006
 21
28.0
 31
0.0
  0
LINE
  5
1AC4
  8
250
  6
CONTINUOUS
 10
-2.2299999999999991
 20
27.6283333333333303
 30
0.0
 11
0.0000000000000006
 21
28.0
 31
0.0
  0
LINE
  5
1AC5
  8
250
  6
CONTINUOUS
 10
0.0000000000000006
 20
28.0
 30
0.0
 11
-2.2299999999999991
 21
28.0
 31
0.0
  0
TEXT
  5
1AC6
  8
250
  6
CONTINUOUS
 10
-14.3928571428571406
 20
29.0
 30
0.0
 40
3.0
  1
.85
  0
LINE
  5
1AC7
  8
250
  6
CONTINUOUS
 10
-101.5
 20
11.0
 30
0.0
 11
-101.5
 21
29.0
 31
0.0
  0
LINE
  5
1AC8
  8
250
  6
CONTINUOUS
 10
-21.4999999999999893
 20
13.4999999999999805
 30
0.0
 11
-21.4999999999999893
 21
29.0
 31
0.0
  0
LINE
  5
1AC9
  8
250
  6
CONTINUOUS
 10
-99.269999999999996
 20
28.0
 30
0.0
 11
-23.7299999999999898
 21
28.0
 31
0.0
  0
LINE
  5
1ACD
  8
250
  6
CONTINUOUS
 10
-99.269999999999996
 20
27.6283333333333303
 30
0.0
 11
-101.5
 21
28.0
 31
0.0
  0
LINE
  5
1ACE
  8
250
  6
CONTINUOUS
 10
-99.269999999999996
 20
28.371666666666659
 30
0.0
 11
-101.5
 21
28.0
 31
0.0
  0
LINE
  5
1ACF
  8
250
  6
CONTINUOUS
 10
-101.5
 20
28.0
 30
0.0
 11
-99.269999999999996
 21
28.0
 31
0.0
  0
LINE
  5
1AD0
  8
250
  6
CONTINUOUS
 10
-23.7299999999999898
 20
28.371666666666659
 30
0.0
 11
-21.4999999999999893
 21
28.0
 31
0.0
  0
LINE
  5
1AD1
  8
250
  6
CONTINUOUS
 10
-23.7299999999999898
 20
27.6283333333333303
 30
0.0
 11
-21.4999999999999893
 21
28.0
 31
0.0
  0
LINE
  5
1AD2
  8
250
  6
CONTINUOUS
 10
-21.4999999999999893
 20
28.0
 30
0.0
 11
-23.7299999999999898
 21
28.0
 31
0.0
  0
TEXT
  5
1AD3
  8
250
  6
CONTINUOUS
 10
-66.5
 20
29.0
 30
0.0
 40
3.0
  1
3.15
  0
LINE
  5
1AD4
  8
250
  6
CONTINUOUS
 10
-90.3000000000001677
 20
-12.6999999999999407
 30
0.0
 11
-113.0000000000014069
 21
-12.6999999999999407
 31
0.0
  0
LINE
  5
1AD5
  8
250
  6
CONTINUOUS
 10
-90.3000000000001251
 20
12.6999999999999993
 30
0.0
 11
-113.0000000000014069
 21
12.6999999999999904
 31
0.0
  0
LINE
  5
1AD6
  8
250
  6
CONTINUOUS
 10
-112.0000000000014069
 20
-10.4699999999999402
 30
0.0
 11
-112.0000000000014069
 21
10.46999999999999
 31
0.0
  0
LINE
  5
1ADA
  8
250
  6
CONTINUOUS
 10
-111.6283333333346945
 20
-10.4699999999999402
 30
0.0
 11
-112.0000000000014069
 21
-12.6999999999999407
 31
0.0
  0
LINE
  5
1ADB
  8
250
  6
CONTINUOUS
 10
-112.371666666668105
 20
-10.4699999999999402
 30
0.0
 11
-112.0000000000014069
 21
-12.6999999999999407
 31
0.0
  0
LINE
  5
1ADC
  8
250
  6
CONTINUOUS
 10
-112.0000000000014069
 20
-12.6999999999999407
 30
0.0
 11
-112.0000000000014069
 21
-10.4699999999999402
 31
0.0
  0
LINE
  5
1ADD
  8
250
  6
CONTINUOUS
 10
-112.371666666668105
 20
10.46999999999999
 30
0.0
 11
-112.0000000000014069
 21
12.6999999999999904
 31
0.0
  0
LINE
  5
1ADE
  8
250
  6
CONTINUOUS
 10
-111.6283333333346945
 20
10.46999999999999
 30
0.0
 11
-112.0000000000014069
 21
12.6999999999999904
 31
0.0
  0
LINE
  5
1ADF
  8
250
  6
CONTINUOUS
 10
-112.0000000000014069
 20
12.6999999999999904
 30
0.0
 11
-112.0000000000014069
 21
10.46999999999999
 31
0.0
  0
TEXT
  5
1AE0
  8
250
  6
CONTINUOUS
 10
-113.0000000000014069
 20
-7.785714285714227
 30
0.0
 40
3.0
  1
\U+22051.000
 50
90.0
  0
VIEWPORT
  5
22
 67
     1
  8
0
 10
261.517699115044195
 20
148.5
 30
0.0
 40
523.0353982300885036
 41
297.0
 68
     1
 69
     1
1001
ACAD
1000
MVIEW
1002
{
1070
    16
1010
0.0
1020
0.0
1030
0.0
1010
0.0
1020
0.0
1030
1.0
1040
0.0
1040
297.0
1040
261.517699115044195
1040
148.5
1040
50.0
1040
0.0
1040
0.0
1070
     0
1070
   100
1070
     1
1070
     1
1070
     0
1070
     0
1070
     0
1070
     0
1040
0.0
1040
0.0
1040
0.0
1040
1.0
1040
1.0
1040
10.0
1040
10.0
1070
     0
1002
{
1002
}
1002
}
1001
GENIUS_GENODEF_13
1002
{
1000
HIER
1070
     0
1002
}
1002
{
1000
MANEDIT
1070
     0
1002
}
1002
{
1000
NOSEL
1070
     0
1002
}
1002
{
1000
BEHIND
1070
     0
1002
}
1002
{
1000
OTHER
1070
     0
1002
}
1002
{
1000
REACTOR
1002
}
1001
GENIUS_GENOBJ-N-SDF_13
1002
{
1000
OWNER
1000
GEN
1002
}
1001
GENIUS_GENSCREG_15
1000
PF
1040
1.0
1000
DF
1040
1.0
1000
MIN
1011
0.0
1021
0.0
1031
0.0
1021
0.0
1031
0.0
1000
MAX
1011
523.0353982300885036
1021
0.0
1031
0.0
1021
297.0
1031
0.0
1000
FLAGS
1070
     4
  0
ENDSEC
  0
EOF
