  0
SECTION
  2
HEADER
  9
$ACADVER
  1
AC1009
  9
$INSBASE
 10
0.0
 20
0.0
 30
0.0
  9
$EXTMIN
 10
-158.0000000000013074
 20
-17.5000005000001408
 30
0.0
  9
$EXTMAX
 10
17.0
 20
47.0000000000000071
 30
0.0
  9
$LIMMIN
 10
0.0
 20
0.0
  9
$LIMMAX
 10
297.0
 20
210.0
  9
$ORTHOMODE
 70
     0
  9
$REGENMODE
 70
     1
  9
$FILLMODE
 70
     1
  9
$QTEXTMODE
 70
     0
  9
$MIRRTEXT
 70
     1
  9
$DRAGMODE
 70
     2
  9
$LTSCALE
 40
10.0
  9
$OSMODE
 70
   807
  9
$ATTMODE
 70
     1
  9
$TEXTSIZE
 40
3.0
  9
$TRACEWID
 40
1.0
  9
$TEXTSTYLE
  7
YOKO
  9
$CLAYER
  8
240
  9
$CELTYPE
  6
BYLAYER
  9
$CECOLOR
 62
   256
  9
$DIMSCALE
 40
1.0
  9
$DIMASZ
 40
2.2299999999999991
  9
$DIMEXO
 40
0.5
  9
$DIMDLI
 40
7.0
  9
$DIMRND
 40
0.0
  9
$DIMDLE
 40
0.0
  9
$DIMEXE
 40
1.0
  9
$DIMTP
 40
0.0
  9
$DIMTM
 40
0.01
  9
$DIMTXT
 40
2.7999999999999989
  9
$DIMCEN
 40
0.0
  9
$DIMTSZ
 40
0.0
  9
$DIMTOL
 70
     0
  9
$DIMLIM
 70
     0
  9
$DIMTIH
 70
     0
  9
$DIMTOH
 70
     0
  9
$DIMSE1
 70
     0
  9
$DIMSE2
 70
     0
  9
$DIMTAD
 70
     3
  9
$DIMZIN
 70
     9
  9
$DIMBLK
  1
OPEN
  9
$DIMASO
 70
     1
  9
$DIMSHO
 70
     1
  9
$DIMPOST
  1

  9
$DIMAPOST
  1

  9
$DIMALT
 70
     0
  9
$DIMALTD
 70
     2
  9
$DIMALTF
 40
25.3999999999999986
  9
$DIMLFAC
 40
1.0
  9
$DIMTOFL
 70
     1
  9
$DIMTVP
 40
0.0
  9
$DIMTIX
 70
     1
  9
$DIMSOXD
 70
     0
  9
$DIMSAH
 70
     0
  9
$DIMBLK1
  1

  9
$DIMBLK2
  1

  9
$DIMSTYLE
  2
BIGT
  9
$DIMCLRD
 70
   256
  9
$DIMCLRE
 70
   256
  9
$DIMCLRT
 70
    40
  9
$DIMTFAC
 40
1.0
  9
$DIMGAP
 40
1.0
  9
$LUNITS
 70
     2
  9
$LUPREC
 70
     3
  9
$SKETCHINC
 40
1.0
  9
$FILLETRAD
 40
0.0
  9
$AUNITS
 70
     0
  9
$AUPREC
 70
     3
  9
$MENU
  1
.
  9
$ELEVATION
 40
0.0
  9
$PELEVATION
 40
0.0
  9
$THICKNESS
 40
0.0
  9
$LIMCHECK
 70
     0
  9
$BLIPMODE
 70
     0
  9
$CHAMFERA
 40
0.25
  9
$CHAMFERB
 40
0.25
  9
$SKPOLY
 70
     0
  9
$TDCREATE
 40
2458194.5772337960079312
  9
$TDUPDATE
 40
2458194.6976967598311603
  9
$TDINDWG
 40
0.0269328704
  9
$TDUSRTIMER
 40
0.0269328704
  9
$USRTIMER
 70
     1
  9
$ANGBASE
 50
0.0
  9
$ANGDIR
 70
     0
  9
$PDMODE
 70
     1
  9
$PDSIZE
 40
0.0
  9
$PLINEWID
 40
0.0
  9
$COORDS
 70
     1
  9
$SPLFRAME
 70
     0
  9
$SPLINETYPE
 70
     6
  9
$SPLINESEGS
 70
     4
  9
$ATTDIA
 70
     1
  9
$ATTREQ
 70
     1
  9
$HANDLING
 70
     1
  9
$HANDSEED
  5
1B70
  9
$SURFTAB1
 70
     6
  9
$SURFTAB2
 70
     6
  9
$SURFTYPE
 70
     6
  9
$SURFU
 70
     6
  9
$SURFV
 70
     6
  9
$UCSNAME
  2

  9
$UCSORG
 10
0.0
 20
0.0
 30
0.0
  9
$UCSXDIR
 10
1.0
 20
0.0
 30
0.0
  9
$UCSYDIR
 10
0.0
 20
1.0
 30
0.0
  9
$PUCSNAME
  2

  9
$PUCSORG
 10
0.0
 20
0.0
 30
0.0
  9
$PUCSXDIR
 10
1.0
 20
0.0
 30
0.0
  9
$PUCSYDIR
 10
0.0
 20
1.0
 30
0.0
  9
$USERI1
 70
     1
  9
$USERI2
 70
     0
  9
$USERI3
 70
     0
  9
$USERI4
 70
     0
  9
$USERI5
 70
     0
  9
$USERR1
 40
0.0
  9
$USERR2
 40
0.0
  9
$USERR3
 40
0.0
  9
$USERR4
 40
0.0
  9
$USERR5
 40
0.0
  9
$WORLDVIEW
 70
     1
  9
$SHADEDGE
 70
     3
  9
$SHADEDIF
 70
    70
  9
$TILEMODE
 70
     1
  9
$MAXACTVP
 70
    16
  9
$PLIMCHECK
 70
     0
  9
$PEXTMIN
 10
1.0000000000000000E+20
 20
1.0000000000000000E+20
 30
1.0000000000000000E+20
  9
$PEXTMAX
 10
-1.0000000000000000E+20
 20
-1.0000000000000000E+20
 30
-1.0000000000000000E+20
  9
$PLIMMIN
 10
0.0
 20
0.0
  9
$PLIMMAX
 10
420.0
 20
297.0
  9
$UNITMODE
 70
     0
  9
$VISRETAIN
 70
     1
  9
$PLINEGEN
 70
     0
  9
$PSLTSCALE
 70
     1
  0
ENDSEC
  0
SECTION
  2
TABLES
  0
TABLE
  2
VPORT
 70
     1
  0
VPORT
  2
*ACTIVE
 70
     0
 10
0.0
 20
0.0
 11
1.0
 21
1.0
 12
-33.4128593844943396
 22
1.3973370798669
 13
0.0
 23
0.0
 14
7.0
 24
7.0
 15
7.0
 25
7.0
 16
0.0
 26
0.0
 36
1.0
 17
0.0
 27
0.0
 37
0.0
 40
160.9108722076773859
 41
1.8592342342342341
 42
50.0
 43
0.0
 44
0.0
 50
0.0
 51
0.0
 71
     0
 72
  2000
 73
     1
 74
     0
 75
     0
 76
     1
 77
     0
 78
     0
  0
ENDTAB
  0
TABLE
  2
LTYPE
 70
    16
  0
LTYPE
  2
CONTINUOUS
 70
     0
  3
Solid line
 72
    65
 73
     0
 40
0.0
  0
LTYPE
  2
CENTER2
 70
     0
  3
___ _ ___ _ ___ _ ___ _ ___ _ ___ _ ___ _ ___ _
 72
    65
 73
     4
 40
1.125
 49
0.75
 49
-0.125
 49
0.125
 49
-0.125
  0
LTYPE
  2
HIDDEN2
 70
     0
  3
_ _ _ _ _ _ _ _ _ _ _ _ _ _ _ _ _ _ _ _ _ _ _ _
 72
    65
 73
     2
 40
0.1875
 49
0.125
 49
-0.0625
  0
LTYPE
  2
PHANTOM2
 70
     0
  3
___ _ _ ___ _ _ ___ _ _ ___ _ _ ___ _ _ ___ _ _
 72
    65
 73
     6
 40
1.25
 49
0.625
 49
-0.125
 49
0.125
 49
-0.125
 49
0.125
 49
-0.125
  0
LTYPE
  2
CENTER
 70
     0
  3
____ _ ____ _ ____ _ ____ _ ____ _ ____ _ ____ 
 72
    65
 73
     4
 40
2.0
 49
1.25
 49
-0.25
 49
0.25
 49
-0.25
  0
LTYPE
  2
AM_ISO02W050
 70
     0
  3
__ __ __ __ __ __ __ __ __ __ __ __ __ __ __
 72
    65
 73
     2
 40
7.5
 49
6.0
 49
-1.5
  0
LTYPE
  2
AMCONSTR
 70
     0
  3
_______________________
 72
    65
 73
     2
 40
9999.0
 49
9999.0
 49
0.0
  0
LTYPE
  2
ACISOWELD
 70
     0
  3
_ _ _ _ _
 72
    65
 73
     2
 40
2.0
 49
2.0
 49
-1.0
  0
LTYPE
  2
ACISOTGB
 70
     0
  3
__ . . __ . .
 72
    65
 73
     6
 40
9.0
 49
4.0
 49
-1.0
 49
1.0
 49
-1.0
 49
1.0
 49
-1.0
  0
LTYPE
  2
ACISOTGL
 70
     0
  3
_ _ _ _ _
 72
    65
 73
     2
 40
3.0
 49
2.0
 49
-1.0
  0
LTYPE
  2
ACJISTGB
 70
     0
  3
__ . . __ . .
 72
    65
 73
     6
 40
9.0
 49
4.0
 49
-1.0
 49
1.0
 49
-1.0
 49
1.0
 49
-1.0
  0
LTYPE
  2
ACJISTGL
 70
     0
  3
_ _ _ _ _
 72
    65
 73
     2
 40
3.0
 49
2.0
 49
-1.0
  0
LTYPE
  2
HIDDEN
 70
     0
  3
Hidden __ __ __ __ __ __ __ __ __ __ __ __ __ _
 72
    65
 73
     2
 40
9.5249999999999986
 49
6.3499999999999988
 49
-3.1749999999999989
  0
LTYPE
  2
AMZIGZAG2
 70
     0
  3
/\/-/\/-/\/-/\/-/\/-/\/
 72
    65
 73
     2
 40
0.4401
 49
0.0001
 49
-0.4400000000000001
  0
LTYPE
  2
ACANSTGB
 70
     0
  3
__ . . __ . .
 72
    65
 73
     6
 40
0.35433070866
 49
0.15748031496
 49
-0.03937007874
 49
0.03937007874
 49
-0.03937007874
 49
0.03937007874
 49
-0.03937007874
  0
LTYPE
  2
ACANSTGL
 70
     0
  3
_ _ _ _ _
 72
    65
 73
     2
 40
0.11811023622
 49
0.07874015748
 49
-0.03937007874
  0
ENDTAB
  0
TABLE
  2
LAYER
 70
     8
  0
LAYER
  2
0
 70
     0
 62
     7
  6
CONTINUOUS
  0
LAYER
  2
DEFPOINTS
 70
     0
 62
     7
  6
CONTINUOUS
  0
LAYER
  2
245
 70
     0
 62
     2
  6
CENTER2
  0
LAYER
  2
240
 70
     0
 62
     4
  6
CONTINUOUS
  0
LAYER
  2
241
 70
     0
 62
   211
  6
CONTINUOUS
  0
LAYER
  2
243
 70
     0
 62
   211
  6
HIDDEN2
  0
LAYER
  2
247
 70
     0
 62
    60
  6
CONTINUOUS
  0
LAYER
  2
250
 70
     0
 62
     3
  6
CONTINUOUS
  0
ENDTAB
  0
TABLE
  2
STYLE
 70
     8
  0
STYLE
  2
STANDARD
 70
     0
 40
0.0
 41
1.0
 50
0.0
 71
     0
 42
3.0
  3
romans.shx
  4
extfont.shx
  0
STYLE
  2
ACISOTS
 70
     0
 40
1.0
 41
1.0
 50
0.0
 71
     0
 42
3.0
  3
amgdt.shx
  4
extfont.shx
  0
STYLE
  2
ACISOGDT
 70
     0
 40
0.0
 41
1.0
 50
0.0
 71
     0
 42
3.0
  3
amgdt.shx
  4
extfont.shx
  0
STYLE
  2
ACJISTS
 70
     0
 40
1.0
 41
1.0
 50
0.0
 71
     0
 42
3.0
  3
amgdt.shx
  4
extfont.shx
  0
STYLE
  2
ACJISGDT
 70
     0
 40
0.0
 41
1.0
 50
0.0
 71
     0
 42
3.0
  3
amgdt.shx
  4
extfont.shx
  0
STYLE
  2
YOKO
 70
     0
 40
0.0
 41
1.0
 50
0.0
 71
     0
 42
3.0
  3
romans.shx
  4
extfont.shx
  0
STYLE
  2

 70
     1
 40
0.0
 41
1.0
 50
0.0
 71
     0
 42
3.0
  3
genltshp.shx
  4

  0
STYLE
  2
ACANSGDT
 70
     0
 40
0.0
 41
1.0
 50
0.0
 71
     0
 42
3.0
  3
amgdt.shx
  4

  0
ENDTAB
  0
TABLE
  2
VIEW
 70
     0
  0
ENDTAB
  0
TABLE
  2
UCS
 70
     0
  0
ENDTAB
  0
TABLE
  2
APPID
 70
    44
  0
APPID
  2
ACAD
 70
     0
  0
APPID
  2
GLOBAL
 70
     0
  0
APPID
  2
DETAIL
 70
     0
  0
APPID
  2
GRPNAME
 70
     0
  0
APPID
  2
GPARA
 70
     0
  0
APPID
  2
MCAD_NO_VIS
 70
     0
  0
APPID
  2
ACAD_TEMP_GRAPHIC
 70
     0
  0
APPID
  2
ACATTRIBSERVICES
 70
     0
  0
APPID
  2
GENIUS_GENSCREG_15
 70
     0
  0
APPID
  2
GENIUS_GENODEF_13
 70
     0
  0
APPID
  2
GENIUS_GENOBJ-N-SDF_13
 70
     0
  0
APPID
  2
GENIUS_GENREC_14
 70
     0
  0
APPID
  2
GENIUS_GENOBJ-N-REC_13
 70
     0
  0
APPID
  2
GENIUS_GENDIMSH_14
 70
     0
  0
APPID
  2
GENIUS_GENOBJ-N-DIM_13
 70
     0
  0
APPID
  2
GENIUS_GENDIM_13
 70
     0
  0
APPID
  2
GENIUS_GENDTOL_13
 70
     0
  0
APPID
  2
GENIUS_GENOLIS_13
 70
     0
  0
APPID
  2
GENIUS_GENOENT_13
 70
     0
  0
APPID
  2
GENIUS_GENOBJ-F-FEM_13
 70
     0
  0
APPID
  2
GENIUS_GENOREF_13
 70
     0
  0
APPID
  2
GENIUS_GEFFEM_13
 70
     0
  0
APPID
  2
GENIUS_GEFFEMP_13
 70
     0
  0
APPID
  2
AD_DRAW
 70
     0
  0
APPID
  2
DESIGNERASSEMBLIES
 70
     0
  0
APPID
  2
ACADM_DIM_EDIT
 70
     0
  0
APPID
  2
AMDT_DM_ADJ
 70
     0
  0
APPID
  2
ACAD_NAV_VCDISPLAY
 70
     0
  0
APPID
  2
HATCH_TYPE
 70
     0
  0
APPID
  2
HATCH_DISPLAY
 70
     0
  0
APPID
  2
HATCH_DISTANCE
 70
     0
  0
APPID
  2
ACAD_DSTYLE_DIMJAG
 70
     0
  0
APPID
  2
ACAD_DSTYLE_DIMBREAK
 70
     0
  0
APPID
  2
ACAECLAYERSTANDARD
 70
     0
  0
APPID
  2
ACAD_PSEXT
 70
     0
  0
APPID
  2
GENIUS_GENOBJ-N-FIL_13
 70
     0
  0
APPID
  2
ACAD_DSTYLE_DIMINSPECT
 70
     0
  0
APPID
  2
ACADANNOMONITORALERTICONDI
 70
     0
  0
APPID
  2
ACAD_EXEMPT_FROM_CAD_STANDARDS
 70
     0
  0
APPID
  2
ACAD_MLEADERVER
 70
     0
  0
APPID
  2
ACAD_DSTYLE_DIMARC_LENGTH_
 70
     0
  0
APPID
  2
ACAD_DSTYLE_DIM_LINETYPE
 70
     0
  0
APPID
  2
ACAD_DSTYLE_DIM_EXT1_LINETYPE
 70
     0
  0
APPID
  2
ACAD_DSTYLE_DIM_EXT2_LINETYPE
 70
     0
  0
ENDTAB
  0
TABLE
  2
DIMSTYLE
 70
    29
  0
DIMSTYLE
  2
BIGT
 70
     0
  3

  4

  5
OPEN
  6

  7

 40
1.0
 41
2.2299999999999991
 42
0.5
 43
7.0
 44
1.0
 45
0.0
 46
0.0
 47
0.0
 48
0.01
140
2.7999999999999989
141
0.0
142
0.0
143
25.3999999999999986
144
1.0
145
0.0
146
1.0
147
1.0
 71
     0
 72
     0
 73
     0
 74
     0
 75
     0
 76
     0
 77
     3
 78
     9
170
     0
171
     2
172
     1
173
     0
174
     1
175
     0
176
   256
177
   256
178
    40
  0
DIMSTYLE
  2
AM_ISO
 70
     0
  3

  4
"
  5

  6

  7

 40
1.0
 41
2.5
 42
1.0
 43
10.0
 44
1.0
 45
0.0
 46
0.0
 47
0.1
 48
0.1
140
3.5
141
0.0
142
0.0
143
0.0393701
144
1.0
145
0.0
146
0.71
147
1.5
 71
     0
 72
     0
 73
     0
 74
     0
 75
     0
 76
     0
 77
     1
 78
     8
170
     0
171
     2
172
     1
173
     0
174
     0
175
     0
176
   256
177
   256
178
     2
  0
DIMSTYLE
  2
AM_ISO$3
 70
     0
  3

  4
"
  5

  6

  7

 40
1.0
 41
2.5
 42
1.0
 43
10.0
 44
1.0
 45
0.0
 46
0.0
 47
0.1
 48
0.1
140
3.5
141
0.0
142
0.0
143
0.0393701
144
1.0
145
0.0
146
0.71
147
1.5
 71
     0
 72
     0
 73
     0
 74
     1
 75
     0
 76
     0
 77
     1
 78
     8
170
     0
171
     2
172
     0
173
     0
174
     0
175
     0
176
   256
177
   256
178
     2
  0
DIMSTYLE
  2
AM_ISO$4
 70
     0
  3

  4
"
  5

  6

  7

 40
1.0
 41
2.5
 42
1.0
 43
10.0
 44
1.0
 45
0.0
 46
0.0
 47
0.1
 48
0.1
140
3.5
141
0.0
142
0.0
143
0.0393701
144
1.0
145
0.0
146
0.71
147
1.5
 71
     0
 72
     0
 73
     0
 74
     1
 75
     0
 76
     0
 77
     1
 78
     8
170
     0
171
     2
172
     0
173
     0
174
     0
175
     0
176
   256
177
   256
178
     2
  0
DIMSTYLE
  2
AM_ISO$6
 70
     0
  3

  4
"
  5

  6

  7

 40
1.0
 41
2.5
 42
1.0
 43
10.0
 44
1.0
 45
0.0
 46
0.0
 47
0.1
 48
0.1
140
3.5
141
0.0
142
0.0
143
0.0393701
144
1.0
145
0.0
146
0.71
147
1.5
 71
     0
 72
     0
 73
     0
 74
     0
 75
     0
 76
     0
 77
     0
 78
     8
170
     0
171
     2
172
     1
173
     0
174
     0
175
     0
176
   256
177
   256
178
     2
  0
DIMSTYLE
  2
AM_ISO$7
 70
     0
  3

  4
"
  5

  6

  7

 40
1.0
 41
2.5
 42
1.0
 43
10.0
 44
1.0
 45
0.0
 46
0.0
 47
0.1
 48
0.1
140
5.0
141
0.0
142
0.0
143
0.0393701
144
1.0
145
0.0
146
0.71
147
1.5
 71
     0
 72
     0
 73
     0
 74
     0
 75
     0
 76
     0
 77
     1
 78
     8
170
     0
171
     2
172
     1
173
     0
174
     0
175
     0
176
   256
177
   256
178
     2
  0
DIMSTYLE
  2
AM_ISO$SF
 70
     0
  3

  4
"
  5

  6

  7

 40
1.0
 41
2.5
 42
1.0
 43
10.0
 44
1.0
 45
0.0
 46
0.0
 47
0.1
 48
0.1
140
3.5
141
0.0
142
0.0
143
0.0393701
144
1.0
145
0.0
146
0.71
147
1.5
 71
     0
 72
     0
 73
     0
 74
     0
 75
     1
 76
     1
 77
     1
 78
     8
170
     0
171
     2
172
     1
173
     0
174
     0
175
     0
176
   256
177
   256
178
     2
  0
DIMSTYLE
  2
AM_ISO$SH
 70
     0
  3

  4
"
  5

  6
GENAXEH
  7

 40
1.0
 41
2.5
 42
1.0
 43
10.0
 44
1.0
 45
0.0
 46
0.0
 47
0.1
 48
0.1
140
3.5
141
0.0
142
0.0
143
0.0393701
144
2.0
145
0.0
146
0.71
147
1.5
 71
     0
 72
     0
 73
     0
 74
     0
 75
     1
 76
     1
 77
     1
 78
     8
170
     0
171
     2
172
     1
173
     1
174
     0
175
     0
176
   256
177
   256
178
     2
  0
DIMSTYLE
  2
BIGT$2
 70
     0
  3

  4

  5
OPEN
  6

  7

 40
1.0
 41
2.2299999999999991
 42
0.5
 43
7.0
 44
1.0
 45
0.0
 46
0.0
 47
0.0
 48
0.01
140
2.7999999999999989
141
0.0
142
0.0
143
25.3999999999999986
144
1.0
145
0.0
146
1.0
147
1.0
 71
     0
 72
     0
 73
     0
 74
     0
 75
     0
 76
     0
 77
     3
 78
     9
170
     0
171
     2
172
     1
173
     0
174
     0
175
     0
176
   256
177
   256
178
    40
  0
DIMSTYLE
  2
BIGT$3
 70
     0
  3

  4

  5
OPEN
  6

  7

 40
1.0
 41
2.2299999999999991
 42
0.5
 43
2.5
 44
1.0
 45
0.0
 46
0.0
 47
0.0
 48
0.01
140
2.7999999999999989
141
0.0
142
0.0
143
25.3999999999999986
144
1.0
145
0.0
146
1.0
147
1.0
 71
     0
 72
     0
 73
     0
 74
     0
 75
     0
 76
     0
 77
     3
 78
     9
170
     0
171
     2
172
     1
173
     0
174
     0
175
     0
176
   256
177
   256
178
    40
  0
DIMSTYLE
  2
BIGT$7
 70
     0
  3

  4

  5
OPEN
  6

  7

 40
0.0
 41
2.2299999999999991
 42
0.5
 43
7.0
 44
1.0
 45
0.0
 46
0.0
 47
0.0
 48
0.01
140
2.7999999999999989
141
0.0
142
0.0
143
25.3999999999999986
144
1.0
145
0.0
146
1.0
147
1.0
 71
     0
 72
     0
 73
     0
 74
     0
 75
     0
 76
     0
 77
     3
 78
     9
170
     0
171
     2
172
     0
173
     0
174
     0
175
     0
176
   256
177
   256
178
    40
  0
DIMSTYLE
  2
BIGT$6
 70
     0
  3

  4

  5
OPEN
  6

  7

 40
1.0
 41
2.2299999999999991
 42
0.5
 43
2.5
 44
1.0
 45
0.0
 46
0.0
 47
0.0
 48
0.01
140
2.7999999999999989
141
0.0
142
0.0
143
25.3999999999999986
144
1.0
145
0.0
146
1.0
147
1.0
 71
     0
 72
     0
 73
     0
 74
     0
 75
     0
 76
     0
 77
     3
 78
     9
170
     0
171
     2
172
     1
173
     0
174
     0
175
     0
176
   256
177
   256
178
    40
  0
DIMSTYLE
  2
BIGT$0
 70
     0
  3

  4

  5
OPEN
  6

  7

 40
1.0
 41
2.2299999999999991
 42
0.5
 43
7.0
 44
1.0
 45
0.0
 46
0.0
 47
0.0
 48
0.01
140
2.7999999999999989
141
0.0
142
0.0
143
25.3999999999999986
144
1.0
145
0.0
146
1.0
147
1.0
 71
     0
 72
     0
 73
     0
 74
     0
 75
     0
 76
     0
 77
     3
 78
     9
170
     0
171
     2
172
     1
173
     0
174
     0
175
     0
176
   256
177
   256
178
    40
  0
DIMSTYLE
  2
BIGT$4
 70
     0
  3

  4

  5
OPEN
  6

  7

 40
1.0
 41
2.2299999999999991
 42
0.5
 43
2.5
 44
1.0
 45
0.0
 46
0.0
 47
0.0
 48
0.01
140
2.7999999999999989
141
0.0
142
0.0
143
25.3999999999999986
144
1.0
145
0.0
146
1.0
147
1.0
 71
     0
 72
     0
 73
     0
 74
     0
 75
     0
 76
     0
 77
     3
 78
     9
170
     0
171
     2
172
     1
173
     0
174
     0
175
     0
176
   256
177
   256
178
    40
  0
DIMSTYLE
  2
BIGT$SH
 70
     0
  3

  4

  5
OPEN
  6

  7

 40
1.0
 41
2.2299999999999991
 42
0.5
 43
7.0
 44
1.0
 45
0.0
 46
0.0
 47
0.0
 48
0.0
140
2.7999999999999989
141
0.0
142
0.0
143
25.3999999999999986
144
1.0
145
0.0
146
1.0
147
1.0
 71
     0
 72
     0
 73
     0
 74
     0
 75
     0
 76
     0
 77
     3
 78
     9
170
     0
171
     2
172
     1
173
     0
174
     0
175
     0
176
   256
177
   256
178
    40
  0
DIMSTYLE
  2
BIGT$SF
 70
     0
  3

  4

  5
OPEN
  6

  7

 40
1.0
 41
2.2299999999999991
 42
0.5
 43
7.0
 44
1.0
 45
0.0
 46
0.0
 47
0.0
 48
0.0
140
2.7999999999999989
141
0.0
142
0.0
143
25.3999999999999986
144
1.0
145
0.0
146
1.0
147
1.0
 71
     0
 72
     0
 73
     0
 74
     0
 75
     0
 76
     0
 77
     3
 78
     9
170
     0
171
     2
172
     1
173
     0
174
     0
175
     0
176
   256
177
   256
178
    40
  0
DIMSTYLE
  2
TECHNICAL_OSAKA
 70
     0
  3

  4
"
  5
OPEN30
  6

  7

 40
1.0
 41
2.5
 42
1.0
 43
10.0
 44
1.0
 45
0.0
 46
0.0
 47
0.1
 48
0.1
140
2.7999999999999989
141
0.0
142
0.0
143
0.0393701
144
1.0
145
0.0
146
0.71
147
1.5
 71
     0
 72
     0
 73
     0
 74
     0
 75
     0
 76
     0
 77
     3
 78
     8
170
     0
171
     2
172
     1
173
     0
174
     0
175
     0
176
   256
177
   256
178
    40
  0
DIMSTYLE
  2
TECHNICAL_OSAKA$3
 70
     0
  3

  4
"
  5
OPEN30
  6

  7

 40
1.0
 41
2.5
 42
1.0
 43
10.0
 44
1.0
 45
0.0
 46
0.0
 47
0.1
 48
0.1
140
2.7999999999999989
141
0.0
142
0.0
143
0.0393701
144
1.0
145
0.0
146
0.71
147
1.5
 71
     0
 72
     0
 73
     0
 74
     1
 75
     0
 76
     0
 77
     3
 78
     8
170
     0
171
     2
172
     0
173
     0
174
     0
175
     0
176
   256
177
   256
178
    40
  0
DIMSTYLE
  2
TECHNICAL_OSAKA$4
 70
     0
  3

  4
"
  5
OPEN30
  6

  7

 40
1.0
 41
2.5
 42
1.0
 43
10.0
 44
1.0
 45
0.0
 46
0.0
 47
0.1
 48
0.1
140
2.7999999999999989
141
0.0
142
0.0
143
0.0393701
144
1.0
145
0.0
146
0.71
147
1.5
 71
     0
 72
     0
 73
     0
 74
     1
 75
     0
 76
     0
 77
     3
 78
     8
170
     0
171
     2
172
     0
173
     0
174
     0
175
     0
176
   256
177
   256
178
    40
  0
DIMSTYLE
  2
TECHNICAL_OSAKA$6
 70
     0
  3

  4
"
  5
OPEN30
  6

  7

 40
1.0
 41
2.5
 42
1.0
 43
10.0
 44
1.0
 45
0.0
 46
0.0
 47
0.1
 48
0.1
140
2.7999999999999989
141
0.0
142
0.0
143
0.0393701
144
1.0
145
0.0
146
0.71
147
1.5
 71
     0
 72
     0
 73
     0
 74
     0
 75
     0
 76
     0
 77
     0
 78
     8
170
     0
171
     2
172
     1
173
     0
174
     0
175
     0
176
   256
177
   256
178
    40
  0
DIMSTYLE
  2
TECHNICAL_OSAKA$7
 70
     0
  3

  4
"
  5
OPEN30
  6

  7

 40
1.0
 41
2.5
 42
1.0
 43
10.0
 44
1.0
 45
0.0
 46
0.0
 47
0.1
 48
0.1
140
2.7999999999999989
141
0.0
142
0.0
143
0.0393701
144
1.0
145
0.0
146
0.71
147
1.5
 71
     0
 72
     0
 73
     0
 74
     0
 75
     0
 76
     0
 77
     3
 78
     8
170
     0
171
     2
172
     1
173
     0
174
     0
175
     0
176
   256
177
   256
178
    40
  0
DIMSTYLE
  2
TECHNICAL_OSAKA$SF
 70
     0
  3

  4
"
  5
OPEN30
  6
OPEN30
  7
OPEN30
 40
1.0
 41
2.5
 42
1.0
 43
10.0
 44
1.0
 45
0.0
 46
0.0
 47
0.1
 48
0.1
140
3.5
141
0.0
142
0.0
143
0.0393701
144
1.0
145
0.0
146
0.71
147
1.5
 71
     0
 72
     0
 73
     0
 74
     0
 75
     1
 76
     1
 77
     3
 78
     8
170
     0
171
     2
172
     1
173
     0
174
     0
175
     0
176
   256
177
   256
178
    40
  0
DIMSTYLE
  2
TECHNICAL_OSAKA$SH
 70
     0
  3

  4
"
  5
OPEN30
  6
GENAXEH
  7
OPEN30
 40
1.0
 41
2.5
 42
1.0
 43
10.0
 44
1.0
 45
0.0
 46
0.0
 47
0.1
 48
0.1
140
3.5
141
0.0
142
0.0
143
0.0393701
144
2.0
145
0.0
146
0.71
147
1.5
 71
     0
 72
     0
 73
     0
 74
     0
 75
     1
 76
     1
 77
     3
 78
     8
170
     0
171
     2
172
     1
173
     1
174
     0
175
     0
176
   256
177
   256
178
    40
  0
DIMSTYLE
  2
AM_ANSI
 70
     0
  3

  4
mm
  5

  6

  7

 40
1.0
 41
0.12
 42
0.05
 43
0.5
 44
0.1
 45
0.0
 46
0.0
 47
0.1
 48
0.1
140
0.12
141
0.0
142
0.0
143
25.3999999999999986
144
1.0
145
0.0
146
0.71
147
0.06
 71
     0
 72
     0
 73
     1
 74
     1
 75
     0
 76
     0
 77
     0
 78
     7
170
     0
171
     2
172
     0
173
     0
174
     0
175
     0
176
   256
177
   256
178
     3
  0
DIMSTYLE
  2
AM_ANSI$3
 70
     0
  3

  4
mm
  5

  6

  7

 40
1.0
 41
0.12
 42
0.05
 43
0.5
 44
0.1
 45
0.0
 46
0.0
 47
0.1
 48
0.1
140
0.12
141
0.0
142
0.0
143
25.3999999999999986
144
1.0
145
0.0
146
0.71
147
0.06
 71
     0
 72
     0
 73
     1
 74
     1
 75
     0
 76
     0
 77
     0
 78
     7
170
     0
171
     2
172
     0
173
     0
174
     0
175
     0
176
   256
177
   256
178
     3
  0
DIMSTYLE
  2
AM_ANSI$4
 70
     0
  3

  4
mm
  5

  6

  7

 40
1.0
 41
0.12
 42
0.05
 43
0.5
 44
0.1
 45
0.0
 46
0.0
 47
0.1
 48
0.1
140
0.12
141
0.0
142
0.0
143
25.3999999999999986
144
1.0
145
0.0
146
0.71
147
0.06
 71
     0
 72
     0
 73
     1
 74
     1
 75
     0
 76
     0
 77
     0
 78
     7
170
     0
171
     2
172
     0
173
     0
174
     0
175
     0
176
   256
177
   256
178
     3
  0
DIMSTYLE
  2
AM_ANSI$7
 70
     0
  3

  4
mm
  5

  6

  7

 40
1.0
 41
0.12
 42
0.05
 43
0.5
 44
0.1
 45
0.0
 46
0.0
 47
0.1
 48
0.1
140
0.12
141
0.0
142
0.0
143
25.3999999999999986
144
1.0
145
0.0
146
0.71
147
0.06
 71
     0
 72
     0
 73
     1
 74
     1
 75
     0
 76
     0
 77
     0
 78
     7
170
     0
171
     2
172
     0
173
     0
174
     0
175
     0
176
   256
177
   256
178
     3
  0
DIMSTYLE
  2
AM_ANSI$SF
 70
     0
  3

  4
mm
  5

  6

  7

 40
1.0
 41
0.12
 42
0.05
 43
0.5
 44
0.1
 45
0.0
 46
0.0
 47
0.1
 48
0.1
140
0.12
141
0.0
142
0.0
143
25.3999999999999986
144
1.0
145
0.0
146
0.71
147
0.06
 71
     0
 72
     0
 73
     1
 74
     1
 75
     1
 76
     1
 77
     0
 78
     7
170
     0
171
     2
172
     0
173
     0
174
     0
175
     0
176
   256
177
   256
178
     3
  0
DIMSTYLE
  2
AM_ANSI$SH
 70
     0
  3

  4
mm
  5

  6
GENAXEH
  7

 40
1.0
 41
0.12
 42
0.05
 43
0.5
 44
0.1
 45
0.0
 46
0.0
 47
0.1
 48
0.1
140
0.12
141
0.0
142
0.0
143
25.3999999999999986
144
1.0
145
0.0
146
0.71
147
0.06
 71
     0
 72
     0
 73
     1
 74
     1
 75
     1
 76
     1
 77
     0
 78
     7
170
     0
171
     2
172
     0
173
     1
174
     0
175
     0
176
   256
177
   256
178
     3
  0
ENDTAB
  0
ENDSEC
  0
SECTION
  2
BLOCKS
  0
BLOCK
  8
0
  2
$MODEL_SPACE
 70
     0
 10
0.0
 20
0.0
 30
0.0
  3
$MODEL_SPACE
  1

  0
ENDBLK
  5
1C
  8
0
  0
BLOCK
 67
     1
  8
0
  2
$PAPER_SPACE
 70
     0
 10
0.0
 20
0.0
 30
0.0
  3
$PAPER_SPACE
  1

  0
ENDBLK
  5
19
 67
     1
  8
0
  0
BLOCK
  8
0
  2
_OPEN
 70
     0
 10
0.0
 20
0.0
 30
0.0
  3
_OPEN
  1

  0
LINE
  5
595
  8
0
  6
BYBLOCK
 62
     0
 10
-1.0
 20
0.1666666666666666
 30
0.0
 11
0.0
 21
0.0
 31
0.0
  0
LINE
  5
596
  8
0
  6
BYBLOCK
 62
     0
 10
-1.0
 20
-0.1666666666666666
 30
0.0
 11
0.0
 21
0.0
 31
0.0
  0
LINE
  5
597
  8
0
  6
BYBLOCK
 62
     0
 10
0.0
 20
0.0
 30
0.0
 11
-1.0
 21
0.0
 31
0.0
  0
ENDBLK
  5
599
  8
0
  0
BLOCK
  8
0
  2
GENAXEH
 70
     0
 10
0.0
 20
0.0
 30
0.0
  3
GENAXEH
  1

  0
LINE
  5
6E8
  8
0
 10
-1.0
 20
0.0
 30
0.0
 11
1.0
 21
0.0
 31
0.0
  0
ENDBLK
  5
6EA
  8
0
  0
BLOCK
  8
0
  2
_OPEN30
 70
     0
 10
0.0
 20
0.0
 30
0.0
  3
_OPEN30
  1

  0
LINE
  5
E8F
  8
0
  6
BYBLOCK
 62
     0
 10
-1.0
 20
0.26794919
 30
0.0
 11
0.0
 21
0.0
 31
0.0
  0
LINE
  5
E90
  8
0
  6
BYBLOCK
 62
     0
 10
0.0
 20
0.0
 30
0.0
 11
-1.0
 21
-0.26794919
 31
0.0
  0
LINE
  5
E91
  8
0
  6
BYBLOCK
 62
     0
 10
0.0
 20
0.0
 30
0.0
 11
-1.0
 21
0.0
 31
0.0
  0
ENDBLK
  5
E93
  8
0
  0
BLOCK
  8
0
  2
_ACMOPEN15
 70
     0
 10
0.0
 20
0.0
 30
0.0
  3
_ACMOPEN15
  1

  0
LINE
  5
1359
  8
245
 62
     0
 10
-1.0
 20
0.0
 30
0.0
 11
0.0
 21
0.0
 31
0.0
  0
LINE
  5
135A
  8
245
 62
     0
 10
-1.0
 20
-0.131652497
 30
0.0
 11
0.0
 21
0.0
 31
0.0
  0
LINE
  5
135B
  8
245
 62
     0
 10
0.0
 20
0.0
 30
0.0
 11
-1.0
 21
0.131652497
 31
0.0
  0
ENDBLK
  5
1358
  8
0
  0
ENDSEC
  0
SECTION
  2
ENTITIES
  0
TEXT
  5
149C
  8
241
  6
CONTINUOUS
 10
-140.0
 20
42.0
 30
0.0
 40
5.0
  1
SL25.4-NBS13-120
  7
YOKO
 11
-140.0
 21
42.0
 31
0.0
 73
     1
  0
LINE
  5
14FB
  8
240
  6
CONTINUOUS
 10
-129.8000000000000966
 20
-12.69999999999993
 30
0.0
 11
-21.4999999999999893
 21
-12.6999999999999407
 31
0.0
  0
LINE
  5
1506
  8
245
  6
CENTER2
 10
2.656739425502336
 20
0.0
 30
0.0
 11
-143.724539992109186
 21
0.0
 31
0.0
  0
LINE
  5
1507
  8
240
  6
CONTINUOUS
 10
-129.8000000000000114
 20
12.6999999999999904
 30
0.0
 11
-21.4999999999999893
 21
12.6999999999999993
 31
0.0
  0
LINE
  5
1508
  8
240
  6
CONTINUOUS
 10
-141.5
 20
-10.5
 30
0.0
 11
-141.5
 21
10.5
 31
0.0
  0
LINE
  5
1509
  8
240
  6
CONTINUOUS
 10
-131.4999999999998863
 20
-11.0
 30
0.0
 11
-141.0
 21
-11.0
 31
0.0
  0
LINE
  5
150A
  8
240
  6
CONTINUOUS
 10
-141.5
 20
-10.5
 30
0.0
 11
-141.0
 21
-11.0
 31
0.0
  0
LINE
  5
150B
  8
240
  6
CONTINUOUS
 10
-129.8000000000000966
 20
-12.69999999999993
 30
0.0
 11
-131.4999999999998863
 21
-11.0
 31
0.0
  0
LINE
  5
1513
  8
240
  6
CONTINUOUS
 10
-131.4999999999998863
 20
11.0
 30
0.0
 11
-141.0
 21
11.0
 31
0.0
  0
LINE
  5
1514
  8
240
  6
CONTINUOUS
 10
-141.0
 20
11.0
 30
0.0
 11
-141.5
 21
10.5
 31
0.0
  0
LINE
  5
1515
  8
240
  6
CONTINUOUS
 10
-129.8000000000000114
 20
12.6999999999999904
 30
0.0
 11
-131.4999999999998863
 21
11.0
 31
0.0
  0
LINE
  5
151C
  8
240
  6
CONTINUOUS
 10
-21.4999999999999893
 20
12.9999999999999893
 30
0.0
 11
-21.4999999999999893
 21
12.6999999999999993
 31
0.0
  0
LINE
  5
15A0
  8
240
  6
CONTINUOUS
 10
-21.4999999999999893
 20
-12.9999999999999396
 30
0.0
 11
-16.0
 21
-12.9999999999999396
 31
0.0
  0
LINE
  5
15BB
  8
240
  6
CONTINUOUS
 10
-16.0
 20
13.0
 30
0.0
 11
-21.4999999999999893
 21
12.9999999999999893
 31
0.0
  0
LINE
  5
1685
  8
243
  6
HIDDEN2
 10
-3.5000000000001128
 20
10.3654695538379595
 30
0.0
 11
-3.5
 21
8.7499995000000723
 31
0.0
  0
LINE
  5
1686
  8
243
  6
HIDDEN2
 10
-3.5
 20
8.7499995000000723
 30
0.0
 11
-5.5999999999999943
 21
8.7499995000000723
 31
0.0
  0
LINE
  5
1687
  8
243
  6
HIDDEN2
 10
-5.600000000000108
 20
8.7499995000000723
 30
0.0
 11
-5.6000000000006764
 21
10.2522496646376293
 31
0.0
  0
LINE
  5
1688
  8
243
  6
HIDDEN2
 10
-5.6000000000006764
 20
10.2522496646376293
 30
0.0
 11
-31.000000000000199
 21
7.5826020888894936
 31
0.0
  0
LINE
  5
1689
  8
243
  6
HIDDEN2
 10
0.0
 20
8.3447436116742644
 30
0.0
 11
-3.5000000000001128
 21
10.3654695538379595
 31
0.0
  0
LINE
  5
168B
  8
243
  6
HIDDEN2
 10
-31.000000000000199
 20
6.4999995000000039
 30
0.0
 11
0.0
 21
6.4999995000000039
 31
0.0
  0
LINE
  5
168C
  8
240
  6
CONTINUOUS
 10
-16.0000000000001386
 20
-17.5000005000001408
 30
0.0
 11
0.0
 21
-17.5000004999998815
 31
0.0
1001
GRPNAME
1000
PASTMD0C
  0
LINE
  5
168D
  8
240
  6
CONTINUOUS
 10
0.0
 20
17.4999994999998805
 30
0.0
 11
0.0
 21
-17.5000004999998815
 31
0.0
1001
GRPNAME
1000
PASTMD0C
  0
LINE
  5
168E
  8
240
  6
CONTINUOUS
 10
-16.0000000000001386
 20
-17.5000005000001408
 30
0.0
 11
-16.0000000000001386
 21
-13.0000004999999703
 31
0.0
1001
GRPNAME
1000
PASTMD0C
  0
LINE
  5
168F
  8
241
  6
CONTINUOUS
 10
-16.0000000000001386
 20
-13.0000004999999703
 30
0.0
 11
-16.0000000000001386
 21
12.9999994999999693
 31
0.0
1001
GRPNAME
1000
PASTMD0C
  0
LINE
  5
1690
  8
240
  6
CONTINUOUS
 10
-16.0000000000001386
 20
17.4999995000001505
 30
0.0
 11
0.0
 21
17.4999994999998805
 31
0.0
1001
GRPNAME
1000
PASTMD0C
  0
LINE
  5
1691
  8
240
  6
CONTINUOUS
 10
-16.0000000000001386
 20
17.4999995000001505
 30
0.0
 11
-16.0000000000001386
 21
12.9999994999999799
 31
0.0
1001
GRPNAME
1000
PASTMD0C
  0
LINE
  5
1692
  8
243
  6
HIDDEN2
 10
-31.000000000000199
 20
-7.5826030888894831
 30
0.0
 11
-31.0000000000001386
 21
7.5826020888894918
 31
0.0
  0
LINE
  5
1693
  8
243
  6
HIDDEN2
 10
-3.5000000000001128
 20
-10.3654705538379499
 30
0.0
 11
-3.5
 21
-8.7500005000000627
 31
0.0
  0
LINE
  5
1694
  8
243
  6
HIDDEN2
 10
-3.5
 20
-8.7500005000000627
 30
0.0
 11
-5.5999999999999943
 21
-8.7500005000000627
 31
0.0
  0
LINE
  5
1695
  8
243
  6
HIDDEN2
 10
-5.600000000000108
 20
-8.7500005000000627
 30
0.0
 11
-5.6000000000006764
 21
-10.2522506646376197
 31
0.0
  0
LINE
  5
1696
  8
243
  6
HIDDEN2
 10
-5.6000000000006764
 20
-10.2522506646376197
 30
0.0
 11
-31.000000000000199
 21
-7.5826030888894831
 31
0.0
  0
LINE
  5
1697
  8
243
  6
HIDDEN2
 10
0.0
 20
-8.3447446116742547
 30
0.0
 11
-3.5000000000001128
 21
-10.3654705538379499
 31
0.0
  0
LINE
  5
1698
  8
243
  6
HIDDEN2
 10
-31.000000000000199
 20
-6.5000004999999943
 30
0.0
 11
0.0
 21
-6.5000004999999952
 31
0.0
  0
LINE
  5
1699
  8
241
  6
CONTINUOUS
 10
-6.5
 20
1.999999499999989
 30
0.0
 11
-16.0000000000001386
 21
1.999999499999989
 31
0.0
  0
LINE
  5
169A
  8
241
  6
CONTINUOUS
 10
-6.5
 20
-2.0000004999999641
 30
0.0
 11
-16.0000000000001386
 21
-2.0000004999999641
 31
0.0
  0
LINE
  5
169B
  8
241
  6
CONTINUOUS
 10
-6.5
 20
1.999999499999989
 30
0.0
 11
-6.5
 21
-2.0000004999999641
 31
0.0
  0
LINE
  5
169C
  8
241
  6
CONTINUOUS
 10
-6.5
 20
-14.0561454249135593
 30
0.0
 11
-16.0000000000001386
 21
-14.0561454249135593
 31
0.0
  0
LINE
  5
169D
  8
241
  6
CONTINUOUS
 10
-6.5
 20
-16.0561454249135416
 30
0.0
 11
-16.0000000000001386
 21
-16.0561454249135416
 31
0.0
  0
LINE
  5
169E
  8
241
  6
CONTINUOUS
 10
-6.5
 20
-16.0561454249135416
 30
0.0
 11
-6.5
 21
-14.0561454249135593
 31
0.0
  0
LINE
  5
169F
  8
241
  6
CONTINUOUS
 10
-6.5
 20
16.0561444249135796
 30
0.0
 11
-16.0000000000001386
 21
16.0561444249135796
 31
0.0
  0
LINE
  5
16A0
  8
241
  6
CONTINUOUS
 10
-6.5
 20
14.0561444249135992
 30
0.0
 11
-16.0000000000001386
 21
14.0561444249135992
 31
0.0
  0
LINE
  5
16A1
  8
241
  6
CONTINUOUS
 10
-6.5
 20
16.0561444249135796
 30
0.0
 11
-6.5
 21
14.0561444249135992
 31
0.0
  0
LINE
  5
16A2
  8
240
  6
CONTINUOUS
 10
-21.4999999999999893
 20
-12.69999999999993
 30
0.0
 11
-21.4999999999999893
 21
-12.9999999999999396
 31
0.0
  0
LINE
  5
16A3
  8
241
  6
CONTINUOUS
 10
-21.4999999999999893
 20
12.6999999999999993
 30
0.0
 11
-21.4999999999999893
 21
-12.69999999999993
 31
0.0
  0
LINE
  5
16E8
  8
247
  6
CONTINUOUS
 10
-134.7500000000700027
 20
-6.0000004999999996
 30
0.0
 11
-128.0576923080299991
 21
-6.0000004999999996
 31
0.0
  0
ARC
  5
16E9
  8
247
  6
CONTINUOUS
 10
-134.7500000000700027
 20
-4.2500005000700307
 30
0.0
 40
1.7499999999299991
 50
90.0
 51
270.0
  0
ARC
  5
16EA
  8
247
  6
CONTINUOUS
 10
-128.0576923080299991
 20
-4.2500005000700307
 30
0.0
 40
1.7499999999299991
 50
270.0
 51
90.0
  0
LINE
  5
16EB
  8
247
  6
CONTINUOUS
 10
-133.8846153847200071
 20
-2.5000005001400618
 30
0.0
 11
-134.7448515419619923
 21
-5.5000005000200067
 31
0.0
  0
LINE
  5
16EC
  8
247
  6
CONTINUOUS
 10
-132.9849838183357917
 20
-3.9230774231598962
 30
0.0
 11
-134.2926761259757882
 21
-3.9230774231598962
 31
0.0
  0
ARC
  5
16ED
  8
247
  6
CONTINUOUS
 10
-132.6451438160898135
 20
-3.0495991677028651
 30
0.0
 40
0.5538165441895349
 50
342.9978896752951982
 51
82.9241662185135766
  0
ARC
  5
16EE
  8
247
  6
CONTINUOUS
 10
-133.0668783230287886
 20
-2.936033544465829
 30
0.0
 40
0.9904354236226808
 50
274.7429368522006143
 51
343.8492262732660834
1001
GENIUS_GENOBJ-N-FIL_13
1002
{
1000
OWNER
1000
GEN
1002
}
1001
GENIUS_GENODEF_13
1002
{
1000
HIER
1070
     0
1002
}
1002
{
1000
MANEDIT
1070
     0
1002
}
1002
{
1000
NOSEL
1070
     0
1002
}
1002
{
1000
BEHIND
1070
     0
1002
}
1002
{
1000
OTHER
1070
     0
1002
}
1002
{
1000
REACTOR
1002
}
  0
LINE
  5
16EF
  8
247
  6
CONTINUOUS
 10
-133.4371592343219959
 20
-5.5000005000200067
 30
0.0
 11
-134.7448515419619923
 21
-5.5000005000200067
 31
0.0
  0
LINE
  5
16F0
  8
247
  6
CONTINUOUS
 10
-133.8846153847200071
 20
-2.5000005001400618
 30
0.0
 11
-132.5769230770800107
 21
-2.5000005001400618
 31
0.0
  0
ARC
  5
16F1
  8
247
  6
CONTINUOUS
 10
-133.0609196365469984
 20
-4.4820247326654794
 30
0.0
 40
0.5640818586791229
 50
335.9909416525214283
 51
82.263443459069066
  0
ARC
  5
16F2
  8
247
  6
CONTINUOUS
 10
-133.5382626853470072
 20
-4.4874295391865067
 30
0.0
 40
1.0176059446230981
 50
275.7019851642580761
 51
347.2773384368226175
1001
GENIUS_GENOBJ-N-FIL_13
1002
{
1000
OWNER
1000
GEN
1002
}
1001
GENIUS_GENODEF_13
1002
{
1000
HIER
1070
     0
1002
}
1002
{
1000
MANEDIT
1070
     0
1002
}
1002
{
1000
NOSEL
1070
     0
1002
}
1002
{
1000
BEHIND
1070
     0
1002
}
1002
{
1000
OTHER
1070
     0
1002
}
1002
{
1000
REACTOR
1002
}
  0
LINE
  5
16F3
  8
247
  6
CONTINUOUS
 10
-131.7833130805420012
 20
-5.5000005000200067
 30
0.0
 11
-130.9230769232999876
 21
-2.5000005001400618
 31
0.0
  0
LINE
  5
16F4
  8
247
  6
CONTINUOUS
 10
-128.50000000032
 20
-2.5000005001400618
 30
0.0
 11
-129.0657366194566009
 21
-2.5000005001400618
 31
0.0
  0
LINE
  5
16F5
  8
247
  6
CONTINUOUS
 10
-129.9615384617999894
 20
-5.5000005000200067
 30
0.0
 11
-129.3461538464399894
 21
-5.5000005000200067
 31
0.0
  0
ARC
  5
16F6
  8
247
  6
CONTINUOUS
 10
-128.2087912091228077
 20
-4.5832856359733682
 30
0.0
 40
2.2526500823422122
 50
112.3594881415292974
 51
164.9932485428458051
  0
ARC
  5
16F7
  8
247
  6
CONTINUOUS
 10
-128.8740694792132047
 20
-3.308313155194639
 30
0.0
 40
0.8906723995727782
 50
4.9945893190752146
 51
65.1663289573004931
1001
GENIUS_GENOBJ-N-FIL_13
1002
{
1000
OWNER
1000
GEN
1002
}
1001
GENIUS_GENODEF_13
1002
{
1000
HIER
1070
     0
1002
}
1002
{
1000
MANEDIT
1070
     0
1002
}
1002
{
1000
NOSEL
1070
     0
1002
}
1002
{
1000
BEHIND
1070
     0
1002
}
1002
{
1000
OTHER
1070
     0
1002
}
1002
{
1000
REACTOR
1002
}
  0
ARC
  5
16F8
  8
247
  6
CONTINUOUS
 10
-129.7264588862126118
 20
-4.1601463886677834
 30
0.0
 40
1.392781735586712
 50
285.8460965557807185
 51
352.3251370041626274
  0
ARC
  5
16F9
  8
247
  6
CONTINUOUS
 10
-129.1422127258402952
 20
-4.4592439315272827
 30
0.0
 40
1.324563662670287
 50
159.7136016704905899
 51
231.7887456564110948
1001
GENIUS_GENOBJ-N-FIL_13
1002
{
1000
OWNER
1000
GEN
1002
}
1001
GENIUS_GENODEF_13
1002
{
1000
HIER
1070
     0
1002
}
1002
{
1000
MANEDIT
1070
     0
1002
}
1002
{
1000
NOSEL
1070
     0
1002
}
1002
{
1000
BEHIND
1070
     0
1002
}
1002
{
1000
OTHER
1070
     0
1002
}
1002
{
1000
REACTOR
1002
}
  0
LINE
  5
16FA
  8
247
  6
CONTINUOUS
 10
-129.0384615387600036
 20
-4.3461543462199757
 30
0.0
 11
-128.3461538464800071
 21
-4.3461543462199757
 31
0.0
  0
LINE
  5
16FB
  8
247
  6
CONTINUOUS
 10
-134.7500000000700027
 20
-2.5000005001400618
 30
0.0
 11
-134.0769230770200977
 21
-2.5000005001400618
 31
0.0
  0
LINE
  5
1910
  8
250
  6
CONTINUOUS
 10
0.5
 20
6.499999500000003
 30
0.0
 11
10.0535520999999903
 21
6.4999994999999986
 31
0.0
  0
LINE
  5
1911
  8
250
  6
CONTINUOUS
 10
9.0535520999999903
 20
-4.5000004999999961
 30
0.0
 11
9.0535520999999903
 21
4.4999994999999986
 31
0.0
  0
LINE
  5
1912
  8
250
  6
CONTINUOUS
 10
0.5
 20
-17.5000004999999916
 30
0.0
 11
17.0
 21
-17.5000004999999916
 31
0.0
  0
LINE
  5
1913
  8
250
  6
CONTINUOUS
 10
0.5
 20
17.4999995000000084
 30
0.0
 11
17.0
 21
17.4999995000000084
 31
0.0
  0
LINE
  5
1914
  8
250
  6
CONTINUOUS
 10
16.0
 20
-15.5000004999999899
 30
0.0
 11
16.0
 21
15.4999994999999995
 31
0.0
  0
TEXT
  5
1915
  8
250
  6
CONTINUOUS
 10
8.0535520999999886
 20
-10.5475613353424507
 30
0.0
 40
2.799999999999998
  1
max.%%C.512
 50
90.0
  0
LINE
  5
1916
  8
250
  6
CONTINUOUS
 10
8.7202187666666742
 20
4.4999994999999986
 30
0.0
 11
9.0535520999999903
 21
6.4999994999999986
 31
0.0
  0
LINE
  5
1917
  8
250
  6
CONTINUOUS
 10
9.3868854333333331
 20
4.4999994999999986
 30
0.0
 11
9.0535520999999903
 21
6.4999994999999986
 31
0.0
  0
LINE
  5
1918
  8
250
  6
CONTINUOUS
 10
9.0535520999999903
 20
6.4999994999999986
 30
0.0
 11
9.0535520999999903
 21
4.4999994999999986
 31
0.0
  0
LINE
  5
1919
  8
250
  6
CONTINUOUS
 10
9.3868854333333331
 20
-4.5000004999999961
 30
0.0
 11
9.0535520999999903
 21
-6.5000004999999961
 31
0.0
  0
LINE
  5
191A
  8
250
  6
CONTINUOUS
 10
8.7202187666666742
 20
-4.5000004999999961
 30
0.0
 11
9.0535520999999903
 21
-6.5000004999999961
 31
0.0
  0
LINE
  5
191B
  8
250
  6
CONTINUOUS
 10
9.0535520999999903
 20
-6.5000004999999961
 30
0.0
 11
9.0535520999999903
 21
-4.5000004999999961
 31
0.0
  0
TEXT
  5
191C
  8
250
  6
CONTINUOUS
 10
15.0
 20
-7.4613151531970798
 30
0.0
 40
2.799999999999998
  1
\U+22051.378
 50
90.0
  0
LINE
  5
191D
  8
250
  6
CONTINUOUS
 10
15.6666666666666003
 20
15.4999994999999995
 30
0.0
 11
16.0
 21
17.4999995000000084
 31
0.0
  0
LINE
  5
191E
  8
250
  6
CONTINUOUS
 10
16.3333333333332789
 20
15.4999994999999995
 30
0.0
 11
16.0
 21
17.4999995000000084
 31
0.0
  0
LINE
  5
191F
  8
250
  6
CONTINUOUS
 10
16.0
 20
17.4999995000000084
 30
0.0
 11
16.0
 21
15.4999994999999995
 31
0.0
  0
LINE
  5
1920
  8
250
  6
CONTINUOUS
 10
16.3333333333332789
 20
-15.5000004999999899
 30
0.0
 11
16.0
 21
-17.5000004999999916
 31
0.0
  0
LINE
  5
1921
  8
250
  6
CONTINUOUS
 10
15.6666666666666003
 20
-15.5000004999999899
 30
0.0
 11
16.0
 21
-17.5000004999999916
 31
0.0
  0
LINE
  5
1922
  8
250
  6
CONTINUOUS
 10
16.0
 20
-17.5000004999999916
 30
0.0
 11
16.0
 21
-15.5000004999999899
 31
0.0
  0
LINE
  5
1923
  8
250
  6
CONTINUOUS
 10
0.5
 20
-6.5000004999999943
 30
0.0
 11
10.0535520999999903
 21
-6.5000004999999943
 31
0.0
  0
LINE
  5
193F
  8
250
  6
CONTINUOUS
 10
-21.4999999999999893
 20
13.4999999999999893
 30
0.0
 11
-21.4999999999999893
 21
29.0
 31
0.0
  0
LINE
  5
1940
  8
250
  6
CONTINUOUS
 10
0.0
 20
17.9999994999998911
 30
0.0
 11
0.0000000000000007
 21
29.0
 31
0.0
  0
LINE
  5
1941
  8
250
  6
CONTINUOUS
 10
-19.2699999999999889
 20
28.0
 30
0.0
 11
-2.2299999999999991
 21
28.0
 31
0.0
  0
LINE
  5
1945
  8
250
  6
CONTINUOUS
 10
-19.2699999999999889
 20
27.6283333333333303
 30
0.0
 11
-21.4999999999999893
 21
28.0
 31
0.0
  0
LINE
  5
1946
  8
250
  6
CONTINUOUS
 10
-19.2699999999999889
 20
28.371666666666659
 30
0.0
 11
-21.4999999999999893
 21
28.0
 31
0.0
  0
LINE
  5
1947
  8
250
  6
CONTINUOUS
 10
-21.4999999999999893
 20
28.0
 30
0.0
 11
-19.2699999999999889
 21
28.0
 31
0.0
  0
LINE
  5
1948
  8
250
  6
CONTINUOUS
 10
-2.2299999999999991
 20
28.371666666666659
 30
0.0
 11
0.0000000000000006
 21
28.0
 31
0.0
  0
LINE
  5
1949
  8
250
  6
CONTINUOUS
 10
-2.2299999999999991
 20
27.6283333333333303
 30
0.0
 11
0.0000000000000006
 21
28.0
 31
0.0
  0
LINE
  5
194A
  8
250
  6
CONTINUOUS
 10
0.0000000000000006
 20
28.0
 30
0.0
 11
-2.2299999999999991
 21
28.0
 31
0.0
  0
TEXT
  5
194B
  8
250
  6
CONTINUOUS
 10
-14.3928571428571406
 20
29.0
 30
0.0
 40
3.0
  1
.85
  0
LINE
  5
194C
  8
250
  6
CONTINUOUS
 10
-141.5
 20
11.0
 30
0.0
 11
-141.5
 21
29.0
 31
0.0
  0
LINE
  5
194D
  8
250
  6
CONTINUOUS
 10
-21.4999999999999893
 20
13.4999999999999893
 30
0.0
 11
-21.4999999999999893
 21
29.0
 31
0.0
  0
LINE
  5
194E
  8
250
  6
CONTINUOUS
 10
-139.2700000000000102
 20
28.0
 30
0.0
 11
-23.7299999999999898
 21
28.0
 31
0.0
  0
LINE
  5
1952
  8
250
  6
CONTINUOUS
 10
-139.2700000000000102
 20
27.6283333333333303
 30
0.0
 11
-141.5
 21
28.0
 31
0.0
  0
LINE
  5
1953
  8
250
  6
CONTINUOUS
 10
-139.2700000000000102
 20
28.371666666666659
 30
0.0
 11
-141.5
 21
28.0
 31
0.0
  0
LINE
  5
1954
  8
250
  6
CONTINUOUS
 10
-141.5
 20
28.0
 30
0.0
 11
-139.2700000000000102
 21
28.0
 31
0.0
  0
LINE
  5
1955
  8
250
  6
CONTINUOUS
 10
-23.7299999999999898
 20
28.371666666666659
 30
0.0
 11
-21.4999999999999893
 21
28.0
 31
0.0
  0
LINE
  5
1956
  8
250
  6
CONTINUOUS
 10
-23.7299999999999898
 20
27.6283333333333303
 30
0.0
 11
-21.4999999999999893
 21
28.0
 31
0.0
  0
LINE
  5
1957
  8
250
  6
CONTINUOUS
 10
-21.4999999999999893
 20
28.0
 30
0.0
 11
-23.7299999999999898
 21
28.0
 31
0.0
  0
TEXT
  5
1958
  8
250
  6
CONTINUOUS
 10
-86.5
 20
29.0
 30
0.0
 40
3.0
  1
4.72
  0
LINE
  5
1959
  8
250
  6
CONTINUOUS
 10
-130.3000000000000966
 20
-12.6999999999999407
 30
0.0
 11
-155.0000000000013927
 21
-12.6999999999999407
 31
0.0
  0
LINE
  5
195A
  8
250
  6
CONTINUOUS
 10
-130.3000000000000114
 20
12.6999999999999993
 30
0.0
 11
-155.0000000000013927
 21
12.6999999999999904
 31
0.0
  0
LINE
  5
195B
  8
250
  6
CONTINUOUS
 10
-154.0000000000013927
 20
-10.4699999999999402
 30
0.0
 11
-154.0000000000013927
 21
10.46999999999999
 31
0.0
  0
LINE
  5
195F
  8
250
  6
CONTINUOUS
 10
-154.3716666666680908
 20
10.46999999999999
 30
0.0
 11
-154.0000000000013927
 21
12.6999999999999904
 31
0.0
  0
LINE
  5
1960
  8
250
  6
CONTINUOUS
 10
-153.6283333333346945
 20
10.46999999999999
 30
0.0
 11
-154.0000000000013927
 21
12.6999999999999904
 31
0.0
  0
LINE
  5
1961
  8
250
  6
CONTINUOUS
 10
-154.0000000000013927
 20
12.6999999999999904
 30
0.0
 11
-154.0000000000013927
 21
10.46999999999999
 31
0.0
  0
LINE
  5
1962
  8
250
  6
CONTINUOUS
 10
-153.6283333333346945
 20
-10.4699999999999402
 30
0.0
 11
-154.0000000000013927
 21
-12.6999999999999407
 31
0.0
  0
LINE
  5
1963
  8
250
  6
CONTINUOUS
 10
-154.3716666666680908
 20
-10.4699999999999402
 30
0.0
 11
-154.0000000000013927
 21
-12.6999999999999407
 31
0.0
  0
LINE
  5
1964
  8
250
  6
CONTINUOUS
 10
-154.0000000000013927
 20
-12.6999999999999407
 30
0.0
 11
-154.0000000000013927
 21
-10.4699999999999402
 31
0.0
  0
TEXT
  5
1965
  8
250
  6
CONTINUOUS
 10
-155.0000000000013927
 20
-7.7857142857142163
 30
0.0
 40
3.0
  1
\U+22051.000
 50
90.0
  0
VIEWPORT
  5
22
 67
     1
  8
0
 10
261.517699115044195
 20
148.5
 30
0.0
 40
523.0353982300885036
 41
297.0
 68
     1
 69
     1
1001
ACAD
1000
MVIEW
1002
{
1070
    16
1010
0.0
1020
0.0
1030
0.0
1010
0.0
1020
0.0
1030
1.0
1040
0.0
1040
297.0
1040
261.517699115044195
1040
148.5
1040
50.0
1040
0.0
1040
0.0
1070
     0
1070
   100
1070
     1
1070
     1
1070
     0
1070
     0
1070
     0
1070
     0
1040
0.0
1040
0.0
1040
0.0
1040
1.0
1040
1.0
1040
10.0
1040
10.0
1070
     0
1002
{
1002
}
1002
}
1001
GENIUS_GENODEF_13
1002
{
1000
HIER
1070
     0
1002
}
1002
{
1000
MANEDIT
1070
     0
1002
}
1002
{
1000
NOSEL
1070
     0
1002
}
1002
{
1000
BEHIND
1070
     0
1002
}
1002
{
1000
OTHER
1070
     0
1002
}
1002
{
1000
REACTOR
1002
}
1001
GENIUS_GENOBJ-N-SDF_13
1002
{
1000
OWNER
1000
GEN
1002
}
1001
GENIUS_GENSCREG_15
1000
PF
1040
1.0
1000
DF
1040
1.0
1000
MIN
1011
0.0
1021
0.0
1031
0.0
1021
0.0
1031
0.0
1000
MAX
1011
523.0353982300885036
1021
0.0
1031
0.0
1021
297.0
1031
0.0
1000
FLAGS
1070
     4
  0
ENDSEC
  0
EOF
