  0
SECTION
  2
HEADER
  9
$ACADVER
  1
AC1009
  9
$INSBASE
 10
0.0
 20
0.0
 30
0.0
  9
$EXTMIN
 10
-151.0000000000013927
 20
-15.0
 30
0.0
  9
$EXTMAX
 10
22.0000000000003588
 20
47.0000000000000071
 30
0.0
  9
$LIMMIN
 10
0.0
 20
0.0
  9
$LIMMAX
 10
297.0
 20
210.0
  9
$ORTHOMODE
 70
     0
  9
$REGENMODE
 70
     1
  9
$FILLMODE
 70
     1
  9
$QTEXTMODE
 70
     0
  9
$MIRRTEXT
 70
     1
  9
$DRAGMODE
 70
     2
  9
$LTSCALE
 40
10.0
  9
$OSMODE
 70
   807
  9
$ATTMODE
 70
     1
  9
$TEXTSIZE
 40
3.0
  9
$TRACEWID
 40
1.0
  9
$TEXTSTYLE
  7
YOKO
  9
$CLAYER
  8
240
  9
$CELTYPE
  6
BYLAYER
  9
$CECOLOR
 62
   256
  9
$DIMSCALE
 40
1.0
  9
$DIMASZ
 40
2.2299999999999991
  9
$DIMEXO
 40
0.5
  9
$DIMDLI
 40
7.0
  9
$DIMRND
 40
0.0
  9
$DIMDLE
 40
0.0
  9
$DIMEXE
 40
1.0
  9
$DIMTP
 40
0.0
  9
$DIMTM
 40
0.01
  9
$DIMTXT
 40
2.7999999999999989
  9
$DIMCEN
 40
0.0
  9
$DIMTSZ
 40
0.0
  9
$DIMTOL
 70
     0
  9
$DIMLIM
 70
     0
  9
$DIMTIH
 70
     0
  9
$DIMTOH
 70
     0
  9
$DIMSE1
 70
     0
  9
$DIMSE2
 70
     0
  9
$DIMTAD
 70
     3
  9
$DIMZIN
 70
     9
  9
$DIMBLK
  1
OPEN
  9
$DIMASO
 70
     1
  9
$DIMSHO
 70
     1
  9
$DIMPOST
  1

  9
$DIMAPOST
  1

  9
$DIMALT
 70
     0
  9
$DIMALTD
 70
     2
  9
$DIMALTF
 40
25.3999999999999986
  9
$DIMLFAC
 40
1.0
  9
$DIMTOFL
 70
     1
  9
$DIMTVP
 40
0.0
  9
$DIMTIX
 70
     1
  9
$DIMSOXD
 70
     0
  9
$DIMSAH
 70
     0
  9
$DIMBLK1
  1

  9
$DIMBLK2
  1

  9
$DIMSTYLE
  2
BIGT
  9
$DIMCLRD
 70
   256
  9
$DIMCLRE
 70
   256
  9
$DIMCLRT
 70
    40
  9
$DIMTFAC
 40
1.0
  9
$DIMGAP
 40
1.0
  9
$LUNITS
 70
     2
  9
$LUPREC
 70
     3
  9
$SKETCHINC
 40
1.0
  9
$FILLETRAD
 40
0.0
  9
$AUNITS
 70
     0
  9
$AUPREC
 70
     3
  9
$MENU
  1
.
  9
$ELEVATION
 40
0.0
  9
$PELEVATION
 40
0.0
  9
$THICKNESS
 40
0.0
  9
$LIMCHECK
 70
     0
  9
$BLIPMODE
 70
     0
  9
$CHAMFERA
 40
0.25
  9
$CHAMFERB
 40
0.25
  9
$SKPOLY
 70
     0
  9
$TDCREATE
 40
2458193.7009490737691522
  9
$TDUPDATE
 40
2458194.6879861108027399
  9
$TDINDWG
 40
0.0157060185
  9
$TDUSRTIMER
 40
0.0157060185
  9
$USRTIMER
 70
     1
  9
$ANGBASE
 50
0.0
  9
$ANGDIR
 70
     0
  9
$PDMODE
 70
     1
  9
$PDSIZE
 40
0.0
  9
$PLINEWID
 40
0.0
  9
$COORDS
 70
     1
  9
$SPLFRAME
 70
     0
  9
$SPLINETYPE
 70
     6
  9
$SPLINESEGS
 70
     4
  9
$ATTDIA
 70
     1
  9
$ATTREQ
 70
     1
  9
$HANDLING
 70
     1
  9
$HANDSEED
  5
1C1B
  9
$SURFTAB1
 70
     6
  9
$SURFTAB2
 70
     6
  9
$SURFTYPE
 70
     6
  9
$SURFU
 70
     6
  9
$SURFV
 70
     6
  9
$UCSNAME
  2

  9
$UCSORG
 10
0.0
 20
0.0
 30
0.0
  9
$UCSXDIR
 10
1.0
 20
0.0
 30
0.0
  9
$UCSYDIR
 10
0.0
 20
1.0
 30
0.0
  9
$PUCSNAME
  2

  9
$PUCSORG
 10
0.0
 20
0.0
 30
0.0
  9
$PUCSXDIR
 10
1.0
 20
0.0
 30
0.0
  9
$PUCSYDIR
 10
0.0
 20
1.0
 30
0.0
  9
$USERI1
 70
     1
  9
$USERI2
 70
     0
  9
$USERI3
 70
     0
  9
$USERI4
 70
     0
  9
$USERI5
 70
     0
  9
$USERR1
 40
0.0
  9
$USERR2
 40
0.0
  9
$USERR3
 40
0.0
  9
$USERR4
 40
0.0
  9
$USERR5
 40
0.0
  9
$WORLDVIEW
 70
     1
  9
$SHADEDGE
 70
     3
  9
$SHADEDIF
 70
    70
  9
$TILEMODE
 70
     1
  9
$MAXACTVP
 70
    16
  9
$PLIMCHECK
 70
     0
  9
$PEXTMIN
 10
1.0000000000000000E+20
 20
1.0000000000000000E+20
 30
1.0000000000000000E+20
  9
$PEXTMAX
 10
-1.0000000000000000E+20
 20
-1.0000000000000000E+20
 30
-1.0000000000000000E+20
  9
$PLIMMIN
 10
0.0
 20
0.0
  9
$PLIMMAX
 10
420.0
 20
297.0
  9
$UNITMODE
 70
     0
  9
$VISRETAIN
 70
     1
  9
$PLINEGEN
 70
     0
  9
$PSLTSCALE
 70
     1
  0
ENDSEC
  0
SECTION
  2
TABLES
  0
TABLE
  2
VPORT
 70
     1
  0
VPORT
  2
*ACTIVE
 70
     0
 10
0.0
 20
0.0
 11
1.0
 21
1.0
 12
-50.3600351662730006
 22
5.5930496884776773
 13
0.0
 23
0.0
 14
7.0
 24
7.0
 15
7.0
 25
7.0
 16
0.0
 26
0.0
 36
1.0
 17
0.0
 27
0.0
 37
0.0
 40
142.7987927499453065
 41
1.8592342342342341
 42
50.0
 43
0.0
 44
0.0
 50
0.0
 51
0.0
 71
     0
 72
  2000
 73
     1
 74
     0
 75
     0
 76
     1
 77
     0
 78
     0
  0
ENDTAB
  0
TABLE
  2
LTYPE
 70
    13
  0
LTYPE
  2
CONTINUOUS
 70
     0
  3
Solid line
 72
    65
 73
     0
 40
0.0
  0
LTYPE
  2
CENTER2
 70
     0
  3
___ _ ___ _ ___ _ ___ _ ___ _ ___ _ ___ _ ___ _
 72
    65
 73
     4
 40
1.125
 49
0.75
 49
-0.125
 49
0.125
 49
-0.125
  0
LTYPE
  2
HIDDEN2
 70
     0
  3
_ _ _ _ _ _ _ _ _ _ _ _ _ _ _ _ _ _ _ _ _ _ _ _
 72
    65
 73
     2
 40
0.1875
 49
0.125
 49
-0.0625
  0
LTYPE
  2
PHANTOM2
 70
     0
  3
___ _ _ ___ _ _ ___ _ _ ___ _ _ ___ _ _ ___ _ _
 72
    65
 73
     6
 40
1.25
 49
0.625
 49
-0.125
 49
0.125
 49
-0.125
 49
0.125
 49
-0.125
  0
LTYPE
  2
CENTER
 70
     0
  3
____ _ ____ _ ____ _ ____ _ ____ _ ____ _ ____ 
 72
    65
 73
     4
 40
2.0
 49
1.25
 49
-0.25
 49
0.25
 49
-0.25
  0
LTYPE
  2
AM_ISO02W050
 70
     0
  3
__ __ __ __ __ __ __ __ __ __ __ __ __ __ __
 72
    65
 73
     2
 40
7.5
 49
6.0
 49
-1.5
  0
LTYPE
  2
AMCONSTR
 70
     0
  3
_______________________
 72
    65
 73
     2
 40
9999.0
 49
9999.0
 49
0.0
  0
LTYPE
  2
ACISOWELD
 70
     0
  3
_ _ _ _ _
 72
    65
 73
     2
 40
2.0
 49
2.0
 49
-1.0
  0
LTYPE
  2
ACISOTGB
 70
     0
  3
__ . . __ . .
 72
    65
 73
     6
 40
9.0
 49
4.0
 49
-1.0
 49
1.0
 49
-1.0
 49
1.0
 49
-1.0
  0
LTYPE
  2
ACISOTGL
 70
     0
  3
_ _ _ _ _
 72
    65
 73
     2
 40
3.0
 49
2.0
 49
-1.0
  0
LTYPE
  2
ACJISTGB
 70
     0
  3
__ . . __ . .
 72
    65
 73
     6
 40
9.0
 49
4.0
 49
-1.0
 49
1.0
 49
-1.0
 49
1.0
 49
-1.0
  0
LTYPE
  2
ACJISTGL
 70
     0
  3
_ _ _ _ _
 72
    65
 73
     2
 40
3.0
 49
2.0
 49
-1.0
  0
ENDTAB
  0
TABLE
  2
LAYER
 70
     8
  0
LAYER
  2
0
 70
     0
 62
     7
  6
CONTINUOUS
  0
LAYER
  2
DEFPOINTS
 70
     0
 62
     7
  6
CONTINUOUS
  0
LAYER
  2
245
 70
     0
 62
     2
  6
CENTER2
  0
LAYER
  2
240
 70
     0
 62
     4
  6
CONTINUOUS
  0
LAYER
  2
241
 70
     0
 62
   211
  6
CONTINUOUS
  0
LAYER
  2
243
 70
     0
 62
   211
  6
HIDDEN2
  0
LAYER
  2
250
 70
     0
 62
     3
  6
CONTINUOUS
  0
LAYER
  2
247
 70
     0
 62
    60
  6
CONTINUOUS
  0
ENDTAB
  0
TABLE
  2
STYLE
 70
     6
  0
STYLE
  2
STANDARD
 70
     0
 40
0.0
 41
1.0
 50
0.0
 71
     0
 42
3.0
  3
romans.shx
  4
extfont.shx
  0
STYLE
  2
ACISOTS
 70
     0
 40
1.0
 41
1.0
 50
0.0
 71
     0
 42
3.0
  3
amgdt.shx
  4
extfont.shx
  0
STYLE
  2
ACISOGDT
 70
     0
 40
0.0
 41
1.0
 50
0.0
 71
     0
 42
3.0
  3
amgdt.shx
  4
extfont.shx
  0
STYLE
  2
ACJISTS
 70
     0
 40
1.0
 41
1.0
 50
0.0
 71
     0
 42
3.0
  3
amgdt.shx
  4
extfont.shx
  0
STYLE
  2
ACJISGDT
 70
     0
 40
0.0
 41
1.0
 50
0.0
 71
     0
 42
3.0
  3
amgdt.shx
  4
extfont.shx
  0
STYLE
  2
YOKO
 70
     0
 40
0.0
 41
1.0
 50
0.0
 71
     0
 42
3.0
  3
romans.shx
  4
extfont.shx
  0
ENDTAB
  0
TABLE
  2
VIEW
 70
     0
  0
ENDTAB
  0
TABLE
  2
UCS
 70
     0
  0
ENDTAB
  0
TABLE
  2
APPID
 70
    39
  0
APPID
  2
ACAD
 70
     0
  0
APPID
  2
GLOBAL
 70
     0
  0
APPID
  2
DETAIL
 70
     0
  0
APPID
  2
GRPNAME
 70
     0
  0
APPID
  2
GPARA
 70
     0
  0
APPID
  2
MCAD_NO_VIS
 70
     0
  0
APPID
  2
ACAD_TEMP_GRAPHIC
 70
     0
  0
APPID
  2
ACATTRIBSERVICES
 70
     0
  0
APPID
  2
GENIUS_GENSCREG_15
 70
     0
  0
APPID
  2
GENIUS_GENODEF_13
 70
     0
  0
APPID
  2
GENIUS_GENOBJ-N-SDF_13
 70
     0
  0
APPID
  2
GENIUS_GENREC_14
 70
     0
  0
APPID
  2
GENIUS_GENOBJ-N-REC_13
 70
     0
  0
APPID
  2
GENIUS_GENDIMSH_14
 70
     0
  0
APPID
  2
GENIUS_GENOBJ-N-DIM_13
 70
     0
  0
APPID
  2
GENIUS_GENDIM_13
 70
     0
  0
APPID
  2
GENIUS_GENDTOL_13
 70
     0
  0
APPID
  2
GENIUS_GENOLIS_13
 70
     0
  0
APPID
  2
GENIUS_GENOENT_13
 70
     0
  0
APPID
  2
GENIUS_GENOBJ-F-FEM_13
 70
     0
  0
APPID
  2
GENIUS_GENOREF_13
 70
     0
  0
APPID
  2
GENIUS_GEFFEM_13
 70
     0
  0
APPID
  2
GENIUS_GEFFEMP_13
 70
     0
  0
APPID
  2
AD_DRAW
 70
     0
  0
APPID
  2
DESIGNERASSEMBLIES
 70
     0
  0
APPID
  2
ACADM_DIM_EDIT
 70
     0
  0
APPID
  2
AMDT_DM_ADJ
 70
     0
  0
APPID
  2
ACAD_NAV_VCDISPLAY
 70
     0
  0
APPID
  2
HATCH_TYPE
 70
     0
  0
APPID
  2
HATCH_DISPLAY
 70
     0
  0
APPID
  2
HATCH_DISTANCE
 70
     0
  0
APPID
  2
ACAD_DSTYLE_DIMJAG
 70
     0
  0
APPID
  2
ACAD_DSTYLE_DIMBREAK
 70
     0
  0
APPID
  2
ACAECLAYERSTANDARD
 70
     0
  0
APPID
  2
ACAD_DSTYLE_DIMINSPECT
 70
     0
  0
APPID
  2
ACADANNOMONITORALERTICONDI
 70
     0
  0
APPID
  2
ACAD_EXEMPT_FROM_CAD_STANDARDS
 70
     0
  0
APPID
  2
GENIUS_GENOBJ-N-FIL_13
 70
     0
  0
APPID
  2
ACAD_MLEADERVER
 70
     0
  0
ENDTAB
  0
TABLE
  2
DIMSTYLE
 70
    23
  0
DIMSTYLE
  2
BIGT
 70
     0
  3

  4

  5
OPEN
  6

  7

 40
1.0
 41
2.2299999999999991
 42
0.5
 43
7.0
 44
1.0
 45
0.0
 46
0.0
 47
0.0
 48
0.01
140
2.7999999999999989
141
0.0
142
0.0
143
25.3999999999999986
144
1.0
145
0.0
146
1.0
147
1.0
 71
     0
 72
     0
 73
     0
 74
     0
 75
     0
 76
     0
 77
     3
 78
     9
170
     0
171
     2
172
     1
173
     0
174
     1
175
     0
176
   256
177
   256
178
    40
  0
DIMSTYLE
  2
AM_ISO
 70
     0
  3

  4
"
  5

  6

  7

 40
1.0
 41
2.5
 42
1.0
 43
10.0
 44
1.0
 45
0.0
 46
0.0
 47
0.1
 48
0.1
140
3.5
141
0.0
142
0.0
143
0.0393701
144
1.0
145
0.0
146
0.71
147
1.5
 71
     0
 72
     0
 73
     0
 74
     0
 75
     0
 76
     0
 77
     1
 78
     8
170
     0
171
     2
172
     1
173
     0
174
     0
175
     0
176
   256
177
   256
178
     2
  0
DIMSTYLE
  2
AM_ISO$3
 70
     0
  3

  4
"
  5

  6

  7

 40
1.0
 41
2.5
 42
1.0
 43
10.0
 44
1.0
 45
0.0
 46
0.0
 47
0.1
 48
0.1
140
3.5
141
0.0
142
0.0
143
0.0393701
144
1.0
145
0.0
146
0.71
147
1.5
 71
     0
 72
     0
 73
     0
 74
     1
 75
     0
 76
     0
 77
     1
 78
     8
170
     0
171
     2
172
     0
173
     0
174
     0
175
     0
176
   256
177
   256
178
     2
  0
DIMSTYLE
  2
AM_ISO$4
 70
     0
  3

  4
"
  5

  6

  7

 40
1.0
 41
2.5
 42
1.0
 43
10.0
 44
1.0
 45
0.0
 46
0.0
 47
0.1
 48
0.1
140
3.5
141
0.0
142
0.0
143
0.0393701
144
1.0
145
0.0
146
0.71
147
1.5
 71
     0
 72
     0
 73
     0
 74
     1
 75
     0
 76
     0
 77
     1
 78
     8
170
     0
171
     2
172
     0
173
     0
174
     0
175
     0
176
   256
177
   256
178
     2
  0
DIMSTYLE
  2
AM_ISO$6
 70
     0
  3

  4
"
  5

  6

  7

 40
1.0
 41
2.5
 42
1.0
 43
10.0
 44
1.0
 45
0.0
 46
0.0
 47
0.1
 48
0.1
140
3.5
141
0.0
142
0.0
143
0.0393701
144
1.0
145
0.0
146
0.71
147
1.5
 71
     0
 72
     0
 73
     0
 74
     0
 75
     0
 76
     0
 77
     0
 78
     8
170
     0
171
     2
172
     1
173
     0
174
     0
175
     0
176
   256
177
   256
178
     2
  0
DIMSTYLE
  2
AM_ISO$7
 70
     0
  3

  4
"
  5

  6

  7

 40
1.0
 41
2.5
 42
1.0
 43
10.0
 44
1.0
 45
0.0
 46
0.0
 47
0.1
 48
0.1
140
5.0
141
0.0
142
0.0
143
0.0393701
144
1.0
145
0.0
146
0.71
147
1.5
 71
     0
 72
     0
 73
     0
 74
     0
 75
     0
 76
     0
 77
     1
 78
     8
170
     0
171
     2
172
     1
173
     0
174
     0
175
     0
176
   256
177
   256
178
     2
  0
DIMSTYLE
  2
AM_ISO$SF
 70
     0
  3

  4
"
  5

  6

  7

 40
1.0
 41
2.5
 42
1.0
 43
10.0
 44
1.0
 45
0.0
 46
0.0
 47
0.1
 48
0.1
140
3.5
141
0.0
142
0.0
143
0.0393701
144
1.0
145
0.0
146
0.71
147
1.5
 71
     0
 72
     0
 73
     0
 74
     0
 75
     1
 76
     1
 77
     1
 78
     8
170
     0
171
     2
172
     1
173
     0
174
     0
175
     0
176
   256
177
   256
178
     2
  0
DIMSTYLE
  2
AM_ISO$SH
 70
     0
  3

  4
"
  5

  6
GENAXEH
  7

 40
1.0
 41
2.5
 42
1.0
 43
10.0
 44
1.0
 45
0.0
 46
0.0
 47
0.1
 48
0.1
140
3.5
141
0.0
142
0.0
143
0.0393701
144
2.0
145
0.0
146
0.71
147
1.5
 71
     0
 72
     0
 73
     0
 74
     0
 75
     1
 76
     1
 77
     1
 78
     8
170
     0
171
     2
172
     1
173
     1
174
     0
175
     0
176
   256
177
   256
178
     2
  0
DIMSTYLE
  2
BIGT$2
 70
     0
  3

  4

  5
OPEN
  6

  7

 40
1.0
 41
2.2299999999999991
 42
0.5
 43
7.0
 44
1.0
 45
0.0
 46
0.0
 47
0.0
 48
0.01
140
2.7999999999999989
141
0.0
142
0.0
143
25.3999999999999986
144
1.0
145
0.0
146
1.0
147
1.0
 71
     0
 72
     0
 73
     0
 74
     0
 75
     0
 76
     0
 77
     3
 78
     9
170
     0
171
     2
172
     1
173
     0
174
     0
175
     0
176
   256
177
   256
178
    40
  0
DIMSTYLE
  2
BIGT$3
 70
     0
  3

  4

  5
OPEN
  6

  7

 40
1.0
 41
2.2299999999999991
 42
0.5
 43
2.5
 44
1.0
 45
0.0
 46
0.0
 47
0.0
 48
0.01
140
2.7999999999999989
141
0.0
142
0.0
143
25.3999999999999986
144
1.0
145
0.0
146
1.0
147
1.0
 71
     0
 72
     0
 73
     0
 74
     0
 75
     0
 76
     0
 77
     3
 78
     9
170
     0
171
     2
172
     1
173
     0
174
     0
175
     0
176
   256
177
   256
178
    40
  0
DIMSTYLE
  2
BIGT$7
 70
     0
  3

  4

  5
OPEN
  6

  7

 40
0.0
 41
2.2299999999999991
 42
0.5
 43
7.0
 44
1.0
 45
0.0
 46
0.0
 47
0.0
 48
0.01
140
2.7999999999999989
141
0.0
142
0.0
143
25.3999999999999986
144
1.0
145
0.0
146
1.0
147
1.0
 71
     0
 72
     0
 73
     0
 74
     0
 75
     0
 76
     0
 77
     3
 78
     9
170
     0
171
     2
172
     0
173
     0
174
     0
175
     0
176
   256
177
   256
178
    40
  0
DIMSTYLE
  2
BIGT$6
 70
     0
  3

  4

  5
OPEN
  6

  7

 40
1.0
 41
2.2299999999999991
 42
0.5
 43
2.5
 44
1.0
 45
0.0
 46
0.0
 47
0.0
 48
0.01
140
2.7999999999999989
141
0.0
142
0.0
143
25.3999999999999986
144
1.0
145
0.0
146
1.0
147
1.0
 71
     0
 72
     0
 73
     0
 74
     0
 75
     0
 76
     0
 77
     3
 78
     9
170
     0
171
     2
172
     1
173
     0
174
     0
175
     0
176
   256
177
   256
178
    40
  0
DIMSTYLE
  2
BIGT$0
 70
     0
  3

  4

  5
OPEN
  6

  7

 40
1.0
 41
2.2299999999999991
 42
0.5
 43
7.0
 44
1.0
 45
0.0
 46
0.0
 47
0.0
 48
0.01
140
2.7999999999999989
141
0.0
142
0.0
143
25.3999999999999986
144
1.0
145
0.0
146
1.0
147
1.0
 71
     0
 72
     0
 73
     0
 74
     0
 75
     0
 76
     0
 77
     3
 78
     9
170
     0
171
     2
172
     1
173
     0
174
     0
175
     0
176
   256
177
   256
178
    40
  0
DIMSTYLE
  2
BIGT$4
 70
     0
  3

  4

  5
OPEN
  6

  7

 40
1.0
 41
2.2299999999999991
 42
0.5
 43
2.5
 44
1.0
 45
0.0
 46
0.0
 47
0.0
 48
0.01
140
2.7999999999999989
141
0.0
142
0.0
143
25.3999999999999986
144
1.0
145
0.0
146
1.0
147
1.0
 71
     0
 72
     0
 73
     0
 74
     0
 75
     0
 76
     0
 77
     3
 78
     9
170
     0
171
     2
172
     1
173
     0
174
     0
175
     0
176
   256
177
   256
178
    40
  0
DIMSTYLE
  2
BIGT$SH
 70
     0
  3

  4

  5
OPEN
  6

  7

 40
1.0
 41
2.2299999999999991
 42
0.5
 43
7.0
 44
1.0
 45
0.0
 46
0.0
 47
0.0
 48
0.0
140
2.7999999999999989
141
0.0
142
0.0
143
25.3999999999999986
144
1.0
145
0.0
146
1.0
147
1.0
 71
     0
 72
     0
 73
     0
 74
     0
 75
     0
 76
     0
 77
     3
 78
     9
170
     0
171
     2
172
     1
173
     0
174
     0
175
     0
176
   256
177
   256
178
    40
  0
DIMSTYLE
  2
BIGT$SF
 70
     0
  3

  4

  5
OPEN
  6

  7

 40
1.0
 41
2.2299999999999991
 42
0.5
 43
7.0
 44
1.0
 45
0.0
 46
0.0
 47
0.0
 48
0.0
140
2.7999999999999989
141
0.0
142
0.0
143
25.3999999999999986
144
1.0
145
0.0
146
1.0
147
1.0
 71
     0
 72
     0
 73
     0
 74
     0
 75
     0
 76
     0
 77
     3
 78
     9
170
     0
171
     2
172
     1
173
     0
174
     0
175
     0
176
   256
177
   256
178
    40
  0
DIMSTYLE
  2
TECHNICAL_OSAKA
 70
     0
  3

  4
"
  5
OPEN30
  6

  7

 40
1.0
 41
2.5
 42
1.0
 43
10.0
 44
1.0
 45
0.0
 46
0.0
 47
0.1
 48
0.1
140
2.7999999999999989
141
0.0
142
0.0
143
0.0393701
144
1.0
145
0.0
146
0.71
147
1.5
 71
     0
 72
     0
 73
     0
 74
     0
 75
     0
 76
     0
 77
     3
 78
     8
170
     0
171
     2
172
     1
173
     0
174
     0
175
     0
176
   256
177
   256
178
    40
  0
DIMSTYLE
  2
TECHNICAL_OSAKA$3
 70
     0
  3

  4
"
  5
OPEN30
  6

  7

 40
1.0
 41
2.5
 42
1.0
 43
10.0
 44
1.0
 45
0.0
 46
0.0
 47
0.1
 48
0.1
140
2.7999999999999989
141
0.0
142
0.0
143
0.0393701
144
1.0
145
0.0
146
0.71
147
1.5
 71
     0
 72
     0
 73
     0
 74
     1
 75
     0
 76
     0
 77
     3
 78
     8
170
     0
171
     2
172
     0
173
     0
174
     0
175
     0
176
   256
177
   256
178
    40
  0
DIMSTYLE
  2
TECHNICAL_OSAKA$4
 70
     0
  3

  4
"
  5
OPEN30
  6

  7

 40
1.0
 41
2.5
 42
1.0
 43
10.0
 44
1.0
 45
0.0
 46
0.0
 47
0.1
 48
0.1
140
2.7999999999999989
141
0.0
142
0.0
143
0.0393701
144
1.0
145
0.0
146
0.71
147
1.5
 71
     0
 72
     0
 73
     0
 74
     1
 75
     0
 76
     0
 77
     3
 78
     8
170
     0
171
     2
172
     0
173
     0
174
     0
175
     0
176
   256
177
   256
178
    40
  0
DIMSTYLE
  2
TECHNICAL_OSAKA$6
 70
     0
  3

  4
"
  5
OPEN30
  6

  7

 40
1.0
 41
2.5
 42
1.0
 43
10.0
 44
1.0
 45
0.0
 46
0.0
 47
0.1
 48
0.1
140
2.7999999999999989
141
0.0
142
0.0
143
0.0393701
144
1.0
145
0.0
146
0.71
147
1.5
 71
     0
 72
     0
 73
     0
 74
     0
 75
     0
 76
     0
 77
     0
 78
     8
170
     0
171
     2
172
     1
173
     0
174
     0
175
     0
176
   256
177
   256
178
    40
  0
DIMSTYLE
  2
TECHNICAL_OSAKA$7
 70
     0
  3

  4
"
  5
OPEN30
  6

  7

 40
1.0
 41
2.5
 42
1.0
 43
10.0
 44
1.0
 45
0.0
 46
0.0
 47
0.1
 48
0.1
140
2.7999999999999989
141
0.0
142
0.0
143
0.0393701
144
1.0
145
0.0
146
0.71
147
1.5
 71
     0
 72
     0
 73
     0
 74
     0
 75
     0
 76
     0
 77
     3
 78
     8
170
     0
171
     2
172
     1
173
     0
174
     0
175
     0
176
   256
177
   256
178
    40
  0
DIMSTYLE
  2
TECHNICAL_OSAKA$SF
 70
     0
  3

  4
"
  5
OPEN30
  6
OPEN30
  7
OPEN30
 40
1.0
 41
2.5
 42
1.0
 43
10.0
 44
1.0
 45
0.0
 46
0.0
 47
0.1
 48
0.1
140
3.5
141
0.0
142
0.0
143
0.0393701
144
1.0
145
0.0
146
0.71
147
1.5
 71
     0
 72
     0
 73
     0
 74
     0
 75
     1
 76
     1
 77
     3
 78
     8
170
     0
171
     2
172
     1
173
     0
174
     0
175
     0
176
   256
177
   256
178
    40
  0
DIMSTYLE
  2
TECHNICAL_OSAKA$SH
 70
     0
  3

  4
"
  5
OPEN30
  6
GENAXEH
  7
OPEN30
 40
1.0
 41
2.5
 42
1.0
 43
10.0
 44
1.0
 45
0.0
 46
0.0
 47
0.1
 48
0.1
140
3.5
141
0.0
142
0.0
143
0.0393701
144
2.0
145
0.0
146
0.71
147
1.5
 71
     0
 72
     0
 73
     0
 74
     0
 75
     1
 76
     1
 77
     3
 78
     8
170
     0
171
     2
172
     1
173
     1
174
     0
175
     0
176
   256
177
   256
178
    40
  0
ENDTAB
  0
ENDSEC
  0
SECTION
  2
BLOCKS
  0
BLOCK
  8
0
  2
$MODEL_SPACE
 70
     0
 10
0.0
 20
0.0
 30
0.0
  3
$MODEL_SPACE
  1

  0
ENDBLK
  5
1C
  8
0
  0
BLOCK
 67
     1
  8
0
  2
$PAPER_SPACE
 70
     0
 10
0.0
 20
0.0
 30
0.0
  3
$PAPER_SPACE
  1

  0
ENDBLK
  5
19
 67
     1
  8
0
  0
BLOCK
  8
0
  2
_OPEN
 70
     0
 10
0.0
 20
0.0
 30
0.0
  3
_OPEN
  1

  0
LINE
  5
595
  8
0
  6
BYBLOCK
 62
     0
 10
-1.0
 20
0.1666666666666666
 30
0.0
 11
0.0
 21
0.0
 31
0.0
  0
LINE
  5
596
  8
0
  6
BYBLOCK
 62
     0
 10
-1.0
 20
-0.1666666666666666
 30
0.0
 11
0.0
 21
0.0
 31
0.0
  0
LINE
  5
597
  8
0
  6
BYBLOCK
 62
     0
 10
0.0
 20
0.0
 30
0.0
 11
-1.0
 21
0.0
 31
0.0
  0
ENDBLK
  5
599
  8
0
  0
BLOCK
  8
0
  2
GENAXEH
 70
     0
 10
0.0
 20
0.0
 30
0.0
  3
GENAXEH
  1

  0
LINE
  5
6E8
  8
0
 10
-1.0
 20
0.0
 30
0.0
 11
1.0
 21
0.0
 31
0.0
  0
ENDBLK
  5
6EA
  8
0
  0
BLOCK
  8
0
  2
_OPEN30
 70
     0
 10
0.0
 20
0.0
 30
0.0
  3
_OPEN30
  1

  0
LINE
  5
E8F
  8
0
  6
BYBLOCK
 62
     0
 10
-1.0
 20
0.26794919
 30
0.0
 11
0.0
 21
0.0
 31
0.0
  0
LINE
  5
E90
  8
0
  6
BYBLOCK
 62
     0
 10
0.0
 20
0.0
 30
0.0
 11
-1.0
 21
-0.26794919
 31
0.0
  0
LINE
  5
E91
  8
0
  6
BYBLOCK
 62
     0
 10
0.0
 20
0.0
 30
0.0
 11
-1.0
 21
0.0
 31
0.0
  0
ENDBLK
  5
E93
  8
0
  0
BLOCK
  8
0
  2
_ACMOPEN15
 70
     0
 10
0.0
 20
0.0
 30
0.0
  3
_ACMOPEN15
  1

  0
LINE
  5
1359
  8
245
 62
     0
 10
-1.0
 20
0.0
 30
0.0
 11
0.0
 21
0.0
 31
0.0
  0
LINE
  5
135A
  8
245
 62
     0
 10
-1.0
 20
-0.131652497
 30
0.0
 11
0.0
 21
0.0
 31
0.0
  0
LINE
  5
135B
  8
245
 62
     0
 10
0.0
 20
0.0
 30
0.0
 11
-1.0
 21
0.131652497
 31
0.0
  0
ENDBLK
  5
1358
  8
0
  0
ENDSEC
  0
SECTION
  2
ENTITIES
  0
TEXT
  5
149A
  8
241
  6
CONTINUOUS
 10
-140.0
 20
42.0
 30
0.0
 40
5.0
  1
SL25.4-NBS10-120
  7
YOKO
 11
-140.0
 21
42.0
 31
0.0
 73
     1
  0
LINE
  5
14A4
  8
240
  6
CONTINUOUS
 10
-17.0000000000001492
 20
12.6999999999999993
 30
0.0
 11
-126.2999999999998977
 21
12.6999999999999993
 31
0.0
  0
LINE
  5
14A5
  8
240
  6
CONTINUOUS
 10
-17.0000000000001599
 20
-12.6999999999999993
 30
0.0
 11
-126.2999999999999972
 21
-12.6999999999999993
 31
0.0
  0
LINE
  5
14A6
  8
245
  6
CENTER2
 10
1.910872413295351
 20
0.0
 30
0.0
 11
-139.2532501592914969
 21
0.0
 31
0.0
  0
LINE
  5
14A7
  8
240
  6
CONTINUOUS
 10
-138.0
 20
-10.5
 30
0.0
 11
-138.0
 21
10.5
 31
0.0
  0
LINE
  5
14A8
  8
240
  6
CONTINUOUS
 10
-128.0
 20
-11.0
 30
0.0
 11
-137.5
 21
-11.0
 31
0.0
  0
LINE
  5
14A9
  8
240
  6
CONTINUOUS
 10
-138.0
 20
-10.5
 30
0.0
 11
-137.5
 21
-11.0
 31
0.0
  0
LINE
  5
14AA
  8
240
  6
CONTINUOUS
 10
-126.2999999999999972
 20
-12.6999999999999993
 30
0.0
 11
-128.0
 21
-11.0
 31
0.0
  0
LINE
  5
152C
  8
240
  6
CONTINUOUS
 10
-128.0
 20
11.0
 30
0.0
 11
-137.5
 21
11.0
 31
0.0
  0
LINE
  5
152D
  8
240
  6
CONTINUOUS
 10
-137.5
 20
11.0
 30
0.0
 11
-138.0
 21
10.5
 31
0.0
  0
LINE
  5
152E
  8
240
  6
CONTINUOUS
 10
-126.2999999999998977
 20
12.6999999999999993
 30
0.0
 11
-128.0
 21
11.0
 31
0.0
  0
LINE
  5
1623
  8
240
  6
CONTINUOUS
 10
-17.0000000000001599
 20
-12.6999999999999993
 30
0.0
 11
-17.0000000000001315
 21
-10.4999999999999396
 31
0.0
  0
LINE
  5
1624
  8
240
  6
CONTINUOUS
 10
-17.0000000000001315
 20
-10.4999999999999396
 30
0.0
 11
-12.5000000000000107
 21
-10.4999999999999307
 31
0.0
  0
LINE
  5
1625
  8
240
  6
CONTINUOUS
 10
-17.0000000000001492
 20
12.6999999999999993
 30
0.0
 11
-17.0000000000001812
 21
10.5000000000000409
 31
0.0
  0
LINE
  5
1626
  8
243
  6
HIDDEN2
 10
0.0000000000000355
 20
6.922094380863717
 30
0.0
 11
-2.499999999999964
 21
8.3654700538377682
 31
0.0
  0
LINE
  5
1627
  8
243
  6
HIDDEN2
 10
-4.6000000000000654
 20
6.999999999999897
 30
0.0
 11
-2.5000000000000071
 21
6.9999999999999201
 31
0.0
  0
LINE
  5
1628
  8
243
  6
HIDDEN2
 10
-4.6000000000000654
 20
6.999999999999897
 30
0.0
 11
-4.5999999999999233
 21
8.2522501646375659
 31
0.0
  0
LINE
  5
1629
  8
243
  6
HIDDEN2
 10
-2.5000000000000071
 20
6.9999999999999201
 30
0.0
 11
-2.499999999999964
 21
8.3654700538377682
 31
0.0
  0
LINE
  5
162A
  8
243
  6
HIDDEN2
 10
-4.5999999999999233
 20
8.2522501646375659
 30
0.0
 11
-27.0000000000001883
 21
5.8979152946864204
 31
0.0
  0
LINE
  5
162B
  8
243
  6
HIDDEN2
 10
-27.0000000000001883
 20
5.0000000000000284
 30
0.0
 11
0.0
 21
5.0000000000000284
 31
0.0
  0
LINE
  5
162C
  8
240
  6
CONTINUOUS
 10
-17.0000000000001812
 20
10.5000000000000409
 30
0.0
 11
-12.5
 21
10.5000000000001101
 31
0.0
  0
LINE
  5
162D
  8
241
  6
CONTINUOUS
 10
-17.0000000000001315
 20
-10.4999999999999396
 30
0.0
 11
-17.0000000000001492
 21
10.5000000000000409
 31
0.0
  0
LINE
  5
162E
  8
240
  6
CONTINUOUS
 10
-12.5
 20
-15.0
 30
0.0
 11
0.0000000000000071
 21
-14.9999999999999698
 31
0.0
1001
GRPNAME
1000
PASTMD03
  0
LINE
  5
162F
  8
240
  6
CONTINUOUS
 10
0.0000000000000071
 20
-14.9999999999999698
 30
0.0
 11
-0.0000000000000071
 21
14.9999999999999698
 31
0.0
1001
GRPNAME
1000
PASTMD03
  0
LINE
  5
1630
  8
241
  6
CONTINUOUS
 10
-12.5
 20
10.4999999999999698
 30
0.0
 11
-12.5
 21
-10.4999999999999698
 31
0.0
1001
GRPNAME
1000
PASTMD03
  0
LINE
  5
1631
  8
240
  6
CONTINUOUS
 10
-12.5
 20
-10.4999999999999698
 30
0.0
 11
-12.5
 21
-15.0
 31
0.0
1001
GRPNAME
1000
PASTMD03
  0
LINE
  5
1632
  8
240
  6
CONTINUOUS
 10
-12.5
 20
10.4999999999999698
 30
0.0
 11
-12.5
 21
15.0
 31
0.0
1001
GRPNAME
1000
PASTMD03
  0
LINE
  5
1633
  8
240
  6
CONTINUOUS
 10
-12.5
 20
15.0
 30
0.0
 11
-0.0000000000000071
 21
14.9999999999999698
 31
0.0
1001
GRPNAME
1000
PASTMD03
  0
LINE
  5
1634
  8
243
  6
HIDDEN2
 10
-27.0000000000001883
 20
-5.8979152946864204
 30
0.0
 11
-27.0000000000001883
 21
5.8979152946864204
 31
0.0
  0
LINE
  5
1635
  8
243
  6
HIDDEN2
 10
0.0000000000000355
 20
-6.922094380863717
 30
0.0
 11
-2.499999999999964
 21
-8.3654700538377682
 31
0.0
  0
LINE
  5
1636
  8
243
  6
HIDDEN2
 10
-4.6000000000000654
 20
-6.999999999999897
 30
0.0
 11
-2.5000000000000071
 21
-6.9999999999999201
 31
0.0
  0
LINE
  5
1637
  8
243
  6
HIDDEN2
 10
-4.6000000000000654
 20
-6.999999999999897
 30
0.0
 11
-4.5999999999999233
 21
-8.2522501646375659
 31
0.0
  0
LINE
  5
1638
  8
243
  6
HIDDEN2
 10
-2.5000000000000071
 20
-6.9999999999999201
 30
0.0
 11
-2.499999999999964
 21
-8.3654700538377682
 31
0.0
  0
LINE
  5
1639
  8
243
  6
HIDDEN2
 10
-4.5999999999999233
 20
-8.2522501646375659
 30
0.0
 11
-27.0000000000001883
 21
-5.8979152946864204
 31
0.0
  0
LINE
  5
163A
  8
243
  6
HIDDEN2
 10
-27.0000000000001883
 20
-5.0000000000000284
 30
0.0
 11
0.0
 21
-5.0000000000000284
 31
0.0
  0
LINE
  5
163B
  8
241
  6
CONTINUOUS
 10
-4.5000000000000071
 20
-12.1752659547105893
 30
0.0
 11
-12.5
 21
-12.1752659547105893
 31
0.0
  0
LINE
  5
163C
  8
241
  6
CONTINUOUS
 10
-4.5000000000000071
 20
-13.6752659547105893
 30
0.0
 11
-12.5
 21
-13.6752659547105893
 31
0.0
  0
LINE
  5
163D
  8
241
  6
CONTINUOUS
 10
-4.5000000000000071
 20
-12.1752659547105893
 30
0.0
 11
-4.5000000000000071
 21
-13.6752659547105893
 31
0.0
  0
LINE
  5
163E
  8
241
  6
CONTINUOUS
 10
-4.5000000000000071
 20
-1.5
 30
0.0
 11
-12.5
 21
-1.5
 31
0.0
  0
LINE
  5
163F
  8
241
  6
CONTINUOUS
 10
-4.5000000000000071
 20
1.5
 30
0.0
 11
-12.5
 21
1.5
 31
0.0
  0
LINE
  5
1640
  8
241
  6
CONTINUOUS
 10
-4.5000000000000071
 20
1.5
 30
0.0
 11
-4.5000000000000071
 21
-1.5
 31
0.0
  0
LINE
  5
1641
  8
241
  6
CONTINUOUS
 10
-4.5000000000000071
 20
13.6752659547105893
 30
0.0
 11
-12.5
 21
13.6752659547105893
 31
0.0
  0
LINE
  5
1642
  8
241
  6
CONTINUOUS
 10
-4.5000000000000071
 20
12.1752659547105893
 30
0.0
 11
-12.5
 21
12.1752659547105893
 31
0.0
  0
LINE
  5
1643
  8
241
  6
CONTINUOUS
 10
-4.5000000000000071
 20
12.1752659547105893
 30
0.0
 11
-4.5000000000000071
 21
13.6752659547105893
 31
0.0
  0
LINE
  5
1644
  8
250
  6
CONTINUOUS
 10
0.4999999999999966
 20
5.0000000000000302
 30
0.0
 11
15.0
 21
5.000000000000032
 31
0.0
  0
LINE
  5
1645
  8
250
  6
CONTINUOUS
 10
0.5000000000000072
 20
-5.0000000000000302
 30
0.0
 11
15.0
 21
-5.0000000000000266
 31
0.0
  0
LINE
  5
1646
  8
250
  6
CONTINUOUS
 10
14.0
 20
2.7700000000000311
 30
0.0
 11
14.0
 21
-2.7700000000000271
 31
0.0
  0
LINE
  5
1647
  8
250
  6
CONTINUOUS
 10
13.6283333333333303
 20
2.7700000000000311
 30
0.0
 11
14.0
 21
5.0000000000000311
 31
0.0
  0
LINE
  5
1648
  8
250
  6
CONTINUOUS
 10
14.3716666666666697
 20
2.7700000000000311
 30
0.0
 11
14.0
 21
5.0000000000000311
 31
0.0
  0
LINE
  5
1649
  8
250
  6
CONTINUOUS
 10
14.0
 20
5.0000000000000311
 30
0.0
 11
14.0
 21
2.7700000000000311
 31
0.0
  0
LINE
  5
164A
  8
250
  6
CONTINUOUS
 10
14.3716666666666697
 20
-2.770000000000028
 30
0.0
 11
14.0
 21
-5.0000000000000284
 31
0.0
  0
LINE
  5
164B
  8
250
  6
CONTINUOUS
 10
13.6283333333333392
 20
-2.770000000000028
 30
0.0
 11
14.0
 21
-5.0000000000000284
 31
0.0
  0
LINE
  5
164C
  8
250
  6
CONTINUOUS
 10
14.0
 20
-5.0000000000000284
 30
0.0
 11
14.0
 21
-2.770000000000028
 31
0.0
  0
TEXT
  5
164D
  8
250
  6
CONTINUOUS
 10
13.0
 20
-11.8912831668732206
 30
0.0
 40
2.7999999999999989
  1
max.\U+2205.394
 50
90.0
  0
LINE
  5
164E
  8
250
  6
CONTINUOUS
 10
0.499999999999993
 20
14.9999999999999805
 30
0.0
 11
22.0000000000003517
 21
14.9999999999999805
 31
0.0
  0
LINE
  5
164F
  8
250
  6
CONTINUOUS
 10
0.5000000000000001
 20
-14.9999999999999805
 30
0.0
 11
22.0000000000003588
 21
-14.9999999999999698
 31
0.0
  0
LINE
  5
1650
  8
250
  6
CONTINUOUS
 10
21.0000000000003517
 20
12.76999999999998
 30
0.0
 11
21.0000000000003588
 21
-12.7699999999999694
 31
0.0
  0
LINE
  5
1651
  8
250
  6
CONTINUOUS
 10
20.6283333333336891
 20
12.76999999999998
 30
0.0
 11
21.0000000000003517
 21
14.9999999999999805
 31
0.0
  0
LINE
  5
1652
  8
250
  6
CONTINUOUS
 10
21.3716666666670214
 20
12.76999999999998
 30
0.0
 11
21.0000000000003517
 21
14.9999999999999805
 31
0.0
  0
LINE
  5
1653
  8
250
  6
CONTINUOUS
 10
21.0000000000003517
 20
14.9999999999999805
 30
0.0
 11
21.0000000000003517
 21
12.76999999999998
 31
0.0
  0
LINE
  5
1654
  8
250
  6
CONTINUOUS
 10
21.3716666666670214
 20
-12.7699999999999694
 30
0.0
 11
21.0000000000003588
 21
-14.9999999999999698
 31
0.0
  0
LINE
  5
1655
  8
250
  6
CONTINUOUS
 10
20.6283333333336891
 20
-12.7699999999999694
 30
0.0
 11
21.0000000000003588
 21
-14.9999999999999698
 31
0.0
  0
LINE
  5
1656
  8
250
  6
CONTINUOUS
 10
21.0000000000003588
 20
-14.9999999999999698
 30
0.0
 11
21.0000000000003588
 21
-12.7699999999999694
 31
0.0
  0
TEXT
  5
1657
  8
250
  6
CONTINUOUS
 10
20.0000000000003517
 20
-6.866666666666668
 30
0.0
 40
2.7999999999999989
  1
\U+22051.181
 50
90.0
  0
LINE
  5
19A9
  8
250
  6
CONTINUOUS
 10
-17.0000000000001492
 20
13.1999999999999993
 30
0.0
 11
-17.0000000000001492
 21
29.0
 31
0.0
  0
LINE
  5
19AA
  8
250
  6
CONTINUOUS
 10
-0.0000000000000073
 20
15.3943661467937503
 30
0.0
 11
0.0000000000000009
 21
29.0
 31
0.0
  0
LINE
  5
19AB
  8
250
  6
CONTINUOUS
 10
-14.7700000000001506
 20
28.0
 30
0.0
 11
-2.2299999999999991
 21
28.0
 31
0.0
  0
LINE
  5
19AF
  8
250
  6
CONTINUOUS
 10
-14.7700000000001506
 20
27.6283333333333303
 30
0.0
 11
-17.0000000000001492
 21
28.0
 31
0.0
  0
LINE
  5
19B0
  8
250
  6
CONTINUOUS
 10
-14.7700000000001506
 20
28.371666666666659
 30
0.0
 11
-17.0000000000001492
 21
28.0
 31
0.0
  0
LINE
  5
19B1
  8
250
  6
CONTINUOUS
 10
-17.0000000000001492
 20
28.0
 30
0.0
 11
-14.7700000000001506
 21
28.0
 31
0.0
  0
LINE
  5
19B2
  8
250
  6
CONTINUOUS
 10
-2.2299999999999991
 20
28.371666666666659
 30
0.0
 11
0.0000000000000009
 21
28.0
 31
0.0
  0
LINE
  5
19B3
  8
250
  6
CONTINUOUS
 10
-2.2299999999999991
 20
27.6283333333333303
 30
0.0
 11
0.0000000000000009
 21
28.0
 31
0.0
  0
LINE
  5
19B4
  8
250
  6
CONTINUOUS
 10
0.0000000000000009
 20
28.0
 30
0.0
 11
-2.2299999999999991
 21
28.0
 31
0.0
  0
TEXT
  5
19B5
  8
250
  6
CONTINUOUS
 10
-12.1428571428572205
 20
29.0
 30
0.0
 40
3.0
  1
.67
  0
LINE
  5
19B6
  8
250
  6
CONTINUOUS
 10
-138.0
 20
11.0
 30
0.0
 11
-138.0
 21
29.0
 31
0.0
  0
LINE
  5
19B7
  8
250
  6
CONTINUOUS
 10
-17.0000000000001705
 20
13.1999999999999993
 30
0.0
 11
-17.0000000000001705
 21
29.0
 31
0.0
  0
LINE
  5
19B8
  8
250
  6
CONTINUOUS
 10
-135.7700000000000102
 20
28.0
 30
0.0
 11
-19.230000000000171
 21
28.0
 31
0.0
  0
LINE
  5
19BC
  8
250
  6
CONTINUOUS
 10
-135.7700000000000102
 20
27.6283333333333303
 30
0.0
 11
-138.0
 21
28.0
 31
0.0
  0
LINE
  5
19BD
  8
250
  6
CONTINUOUS
 10
-135.7700000000000102
 20
28.371666666666659
 30
0.0
 11
-138.0
 21
28.0
 31
0.0
  0
LINE
  5
19BE
  8
250
  6
CONTINUOUS
 10
-138.0
 20
28.0
 30
0.0
 11
-135.7700000000000102
 21
28.0
 31
0.0
  0
LINE
  5
19BF
  8
250
  6
CONTINUOUS
 10
-19.230000000000171
 20
28.371666666666659
 30
0.0
 11
-17.0000000000001705
 21
28.0
 31
0.0
  0
LINE
  5
19C0
  8
250
  6
CONTINUOUS
 10
-19.230000000000171
 20
27.6283333333333303
 30
0.0
 11
-17.0000000000001705
 21
28.0
 31
0.0
  0
LINE
  5
19C1
  8
250
  6
CONTINUOUS
 10
-17.0000000000001705
 20
28.0
 30
0.0
 11
-19.230000000000171
 21
28.0
 31
0.0
  0
TEXT
  5
19C2
  8
250
  6
CONTINUOUS
 10
-82.5000000000000853
 20
29.0
 30
0.0
 40
3.0
  1
4.76
  0
LINE
  5
19C3
  8
250
  6
CONTINUOUS
 10
-126.7999999999999972
 20
-12.6999999999999993
 30
0.0
 11
-148.0000000000015064
 21
-12.7000000000000099
 31
0.0
  0
LINE
  5
19C4
  8
250
  6
CONTINUOUS
 10
-126.7999999999998977
 20
12.6999999999999993
 30
0.0
 11
-148.0000000000015064
 21
12.6999999999999993
 31
0.0
  0
LINE
  5
19C5
  8
250
  6
CONTINUOUS
 10
-147.0000000000015064
 20
-10.4700000000000006
 30
0.0
 11
-147.0000000000015064
 21
10.4700000000000006
 31
0.0
  0
LINE
  5
19C9
  8
250
  6
CONTINUOUS
 10
-147.3716666666680908
 20
10.4700000000000006
 30
0.0
 11
-147.0000000000015064
 21
12.6999999999999993
 31
0.0
  0
LINE
  5
19CA
  8
250
  6
CONTINUOUS
 10
-146.6283333333348082
 20
10.4700000000000006
 30
0.0
 11
-147.0000000000015064
 21
12.6999999999999993
 31
0.0
  0
LINE
  5
19CB
  8
250
  6
CONTINUOUS
 10
-147.0000000000015064
 20
12.6999999999999993
 30
0.0
 11
-147.0000000000015064
 21
10.4700000000000006
 31
0.0
  0
LINE
  5
19CC
  8
250
  6
CONTINUOUS
 10
-146.6283333333348082
 20
-10.4700000000000095
 30
0.0
 11
-147.0000000000015064
 21
-12.7000000000000099
 31
0.0
  0
LINE
  5
19CD
  8
250
  6
CONTINUOUS
 10
-147.3716666666680908
 20
-10.4700000000000095
 30
0.0
 11
-147.0000000000015064
 21
-12.7000000000000099
 31
0.0
  0
LINE
  5
19CE
  8
250
  6
CONTINUOUS
 10
-147.0000000000015064
 20
-12.7000000000000099
 30
0.0
 11
-147.0000000000015064
 21
-10.4700000000000095
 31
0.0
  0
TEXT
  5
19CF
  8
250
  6
CONTINUOUS
 10
-148.0000000000013927
 20
-7.7857142857142456
 30
0.0
 40
3.0
  1
\U+22051.000
 50
90.0
  0
LINE
  5
19FF
  8
247
  6
CONTINUOUS
 10
-131.2500000000700027
 20
-6.0
 30
0.0
 11
-124.5576923080299991
 21
-6.0
 31
0.0
  0
ARC
  5
1A00
  8
247
  6
CONTINUOUS
 10
-131.2500000000700027
 20
-4.2500000000700311
 30
0.0
 40
1.7499999999299991
 50
90.0
 51
270.0
  0
ARC
  5
1A01
  8
247
  6
CONTINUOUS
 10
-124.5576923080299991
 20
-4.2500000000700311
 30
0.0
 40
1.7499999999299991
 50
270.0
 51
90.0
  0
LINE
  5
1A02
  8
247
  6
CONTINUOUS
 10
-130.3846153847200071
 20
-2.5000000001400622
 30
0.0
 11
-131.2448515419619923
 21
-5.5000000000200071
 31
0.0
  0
LINE
  5
1A03
  8
247
  6
CONTINUOUS
 10
-129.4849838183357917
 20
-3.9230769231598961
 30
0.0
 11
-130.7926761259757882
 21
-3.9230769231598961
 31
0.0
  0
ARC
  5
1A04
  8
247
  6
CONTINUOUS
 10
-129.1451438160898135
 20
-3.049598667702865
 30
0.0
 40
0.5538165441895349
 50
342.9978896752951982
 51
82.9241662185135482
  0
ARC
  5
1A05
  8
247
  6
CONTINUOUS
 10
-129.5668783230287886
 20
-2.936033044465828
 30
0.0
 40
0.9904354236226808
 50
274.7429368522006143
 51
343.8492262732664244
1001
GENIUS_GENOBJ-N-FIL_13
1002
{
1000
OWNER
1000
GEN
1002
}
1001
GENIUS_GENODEF_13
1002
{
1000
HIER
1070
     0
1002
}
1002
{
1000
MANEDIT
1070
     0
1002
}
1002
{
1000
NOSEL
1070
     0
1002
}
1002
{
1000
BEHIND
1070
     0
1002
}
1002
{
1000
OTHER
1070
     0
1002
}
1002
{
1000
REACTOR
1002
}
  0
LINE
  5
1A06
  8
247
  6
CONTINUOUS
 10
-129.9371592343219959
 20
-5.5000000000200071
 30
0.0
 11
-131.2448515419619923
 21
-5.5000000000200071
 31
0.0
  0
LINE
  5
1A07
  8
247
  6
CONTINUOUS
 10
-130.3846153847200071
 20
-2.5000000001400622
 30
0.0
 11
-129.0769230770800107
 21
-2.5000000001400622
 31
0.0
  0
ARC
  5
1A08
  8
247
  6
CONTINUOUS
 10
-129.5609196365469131
 20
-4.482024232665478
 30
0.0
 40
0.5640818586791229
 50
335.9909416525214851
 51
82.263443459069066
  0
ARC
  5
1A09
  8
247
  6
CONTINUOUS
 10
-130.0382626853470072
 20
-4.487429039186507
 30
0.0
 40
1.0176059446230981
 50
275.7019851642580761
 51
347.2773384368223901
1001
GENIUS_GENOBJ-N-FIL_13
1002
{
1000
OWNER
1000
GEN
1002
}
1001
GENIUS_GENODEF_13
1002
{
1000
HIER
1070
     0
1002
}
1002
{
1000
MANEDIT
1070
     0
1002
}
1002
{
1000
NOSEL
1070
     0
1002
}
1002
{
1000
BEHIND
1070
     0
1002
}
1002
{
1000
OTHER
1070
     0
1002
}
1002
{
1000
REACTOR
1002
}
  0
LINE
  5
1A0A
  8
247
  6
CONTINUOUS
 10
-128.2833130805420012
 20
-5.5000000000200071
 30
0.0
 11
-127.4230769233000018
 21
-2.5000000001400622
 31
0.0
  0
LINE
  5
1A0B
  8
247
  6
CONTINUOUS
 10
-125.00000000032
 20
-2.5000000001400622
 30
0.0
 11
-125.5657366194566009
 21
-2.5000000001400622
 31
0.0
  0
LINE
  5
1A0C
  8
247
  6
CONTINUOUS
 10
-126.4615384618000036
 20
-5.5000000000200071
 30
0.0
 11
-125.8461538464400036
 21
-5.5000000000200071
 31
0.0
  0
ARC
  5
1A0D
  8
247
  6
CONTINUOUS
 10
-124.7087912091227935
 20
-4.5832851359733668
 30
0.0
 40
2.2526500823422122
 50
112.3594881415293969
 51
164.9932485428458904
  0
ARC
  5
1A0E
  8
247
  6
CONTINUOUS
 10
-125.3740694792132047
 20
-3.308312655194638
 30
0.0
 40
0.8906723995727782
 50
4.994589319075331
 51
65.1663289573004931
1001
GENIUS_GENOBJ-N-FIL_13
1002
{
1000
OWNER
1000
GEN
1002
}
1001
GENIUS_GENODEF_13
1002
{
1000
HIER
1070
     0
1002
}
1002
{
1000
MANEDIT
1070
     0
1002
}
1002
{
1000
NOSEL
1070
     0
1002
}
1002
{
1000
BEHIND
1070
     0
1002
}
1002
{
1000
OTHER
1070
     0
1002
}
1002
{
1000
REACTOR
1002
}
  0
ARC
  5
1A0F
  8
247
  6
CONTINUOUS
 10
-126.2264588862125976
 20
-4.160145888667782
 30
0.0
 40
1.392781735586712
 50
285.8460965557807185
 51
352.3251370041625137
  0
ARC
  5
1A10
  8
247
  6
CONTINUOUS
 10
-125.6422127258402952
 20
-4.4592434315272831
 30
0.0
 40
1.324563662670287
 50
159.713601670490192
 51
231.7887456564114927
1001
GENIUS_GENOBJ-N-FIL_13
1002
{
1000
OWNER
1000
GEN
1002
}
1001
GENIUS_GENODEF_13
1002
{
1000
HIER
1070
     0
1002
}
1002
{
1000
MANEDIT
1070
     0
1002
}
1002
{
1000
NOSEL
1070
     0
1002
}
1002
{
1000
BEHIND
1070
     0
1002
}
1002
{
1000
OTHER
1070
     0
1002
}
1002
{
1000
REACTOR
1002
}
  0
LINE
  5
1A11
  8
247
  6
CONTINUOUS
 10
-125.5384615387600036
 20
-4.346153846219976
 30
0.0
 11
-124.8461538464799929
 21
-4.346153846219976
 31
0.0
  0
LINE
  5
1A12
  8
247
  6
CONTINUOUS
 10
-131.2500000000700027
 20
-2.5000000001400622
 30
0.0
 11
-130.5769230770200124
 21
-2.5000000001400622
 31
0.0
  0
VIEWPORT
  5
22
 67
     1
  8
0
 10
261.517699115044195
 20
148.5
 30
0.0
 40
523.0353982300885036
 41
297.0
 68
     1
 69
     1
1001
ACAD
1000
MVIEW
1002
{
1070
    16
1010
0.0
1020
0.0
1030
0.0
1010
0.0
1020
0.0
1030
1.0
1040
0.0
1040
297.0
1040
261.517699115044195
1040
148.5
1040
50.0
1040
0.0
1040
0.0
1070
     0
1070
   100
1070
     1
1070
     1
1070
     0
1070
     0
1070
     0
1070
     0
1040
0.0
1040
0.0
1040
0.0
1040
1.0
1040
1.0
1040
10.0
1040
10.0
1070
     0
1002
{
1002
}
1002
}
1001
GENIUS_GENODEF_13
1002
{
1000
HIER
1070
     0
1002
}
1002
{
1000
MANEDIT
1070
     0
1002
}
1002
{
1000
NOSEL
1070
     0
1002
}
1002
{
1000
BEHIND
1070
     0
1002
}
1002
{
1000
OTHER
1070
     0
1002
}
1002
{
1000
REACTOR
1002
}
1001
GENIUS_GENOBJ-N-SDF_13
1002
{
1000
OWNER
1000
GEN
1002
}
1001
GENIUS_GENSCREG_15
1000
PF
1040
1.0
1000
DF
1040
1.0
1000
MIN
1011
0.0
1021
0.0
1031
0.0
1021
0.0
1031
0.0
1000
MAX
1011
523.0353982300885036
1021
0.0
1031
0.0
1021
297.0
1031
0.0
1000
FLAGS
1070
     4
  0
ENDSEC
  0
EOF
