  0
SECTION
  2
HEADER
  9
$ACADVER
  1
AC1009
  9
$INSBASE
 10
0.0
 20
0.0
 30
0.0
  9
$EXTMIN
 10
-116.0
 20
-36.0
 30
0.0
  9
$EXTMAX
 10
21.999999999999989
 20
54.000000000000007
 30
0.0
  9
$LIMMIN
 10
0.0
 20
0.0
  9
$LIMMAX
 10
297.0
 20
210.0
  9
$ORTHOMODE
 70
     0
  9
$REGENMODE
 70
     1
  9
$FILLMODE
 70
     1
  9
$QTEXTMODE
 70
     0
  9
$MIRRTEXT
 70
     1
  9
$DRAGMODE
 70
     2
  9
$LTSCALE
 40
10.0
  9
$OSMODE
 70
    39
  9
$ATTMODE
 70
     1
  9
$TEXTSIZE
 40
3.0
  9
$TRACEWID
 40
1.0
  9
$TEXTSTYLE
  7
YOKO
  9
$CLAYER
  8
240
  9
$CELTYPE
  6
BYLAYER
  9
$CECOLOR
 62
   256
  9
$DIMSCALE
 40
1.0
  9
$DIMASZ
 40
2.2299999999999991
  9
$DIMEXO
 40
0.5
  9
$DIMDLI
 40
2.5
  9
$DIMRND
 40
0.0
  9
$DIMDLE
 40
0.0
  9
$DIMEXE
 40
1.0
  9
$DIMTP
 40
0.0
  9
$DIMTM
 40
0.0
  9
$DIMTXT
 40
3.0
  9
$DIMCEN
 40
0.0
  9
$DIMTSZ
 40
0.0
  9
$DIMTOL
 70
     0
  9
$DIMLIM
 70
     0
  9
$DIMTIH
 70
     0
  9
$DIMTOH
 70
     0
  9
$DIMSE1
 70
     0
  9
$DIMSE2
 70
     0
  9
$DIMTAD
 70
     3
  9
$DIMZIN
 70
     8
  9
$DIMBLK
  1
OPEN
  9
$DIMASO
 70
     1
  9
$DIMSHO
 70
     1
  9
$DIMPOST
  1

  9
$DIMAPOST
  1

  9
$DIMALT
 70
     0
  9
$DIMALTD
 70
     2
  9
$DIMALTF
 40
25.399999999999999
  9
$DIMLFAC
 40
1.0
  9
$DIMTOFL
 70
     1
  9
$DIMTVP
 40
0.0
  9
$DIMTIX
 70
     0
  9
$DIMSOXD
 70
     0
  9
$DIMSAH
 70
     0
  9
$DIMBLK1
  1

  9
$DIMBLK2
  1

  9
$DIMSTYLE
  2
BIGT
  9
$DIMCLRD
 70
   256
  9
$DIMCLRE
 70
   256
  9
$DIMCLRT
 70
    40
  9
$DIMTFAC
 40
1.0
  9
$DIMGAP
 40
1.0
  9
$LUNITS
 70
     2
  9
$LUPREC
 70
     3
  9
$SKETCHINC
 40
1.0
  9
$FILLETRAD
 40
0.5
  9
$AUNITS
 70
     0
  9
$AUPREC
 70
     3
  9
$MENU
  1
.
  9
$ELEVATION
 40
0.0
  9
$PELEVATION
 40
0.0
  9
$THICKNESS
 40
0.0
  9
$LIMCHECK
 70
     0
  9
$BLIPMODE
 70
     0
  9
$CHAMFERA
 40
0.5
  9
$CHAMFERB
 40
0.5
  9
$SKPOLY
 70
     0
  9
$TDCREATE
 40
2452181.4253680091
  9
$TDUPDATE
 40
2456350.3644871181
  9
$TDINDWG
 40
0.134802662
  9
$TDUSRTIMER
 40
0.1348024884
  9
$USRTIMER
 70
     1
  9
$ANGBASE
 50
0.0
  9
$ANGDIR
 70
     0
  9
$PDMODE
 70
    35
  9
$PDSIZE
 40
2.0
  9
$PLINEWID
 40
0.0
  9
$COORDS
 70
     2
  9
$SPLFRAME
 70
     0
  9
$SPLINETYPE
 70
     6
  9
$SPLINESEGS
 70
     8
  9
$ATTDIA
 70
     1
  9
$ATTREQ
 70
     1
  9
$HANDLING
 70
     1
  9
$HANDSEED
  5
2980
  9
$SURFTAB1
 70
     6
  9
$SURFTAB2
 70
     6
  9
$SURFTYPE
 70
     6
  9
$SURFU
 70
     6
  9
$SURFV
 70
     6
  9
$UCSNAME
  2

  9
$UCSORG
 10
0.0
 20
0.0
 30
0.0
  9
$UCSXDIR
 10
1.0
 20
0.0
 30
0.0
  9
$UCSYDIR
 10
0.0
 20
1.0
 30
0.0
  9
$PUCSNAME
  2

  9
$PUCSORG
 10
0.0
 20
0.0
 30
0.0
  9
$PUCSXDIR
 10
1.0
 20
0.0
 30
0.0
  9
$PUCSYDIR
 10
0.0
 20
1.0
 30
0.0
  9
$USERI1
 70
     1
  9
$USERI2
 70
     0
  9
$USERI3
 70
     0
  9
$USERI4
 70
     0
  9
$USERI5
 70
     0
  9
$USERR1
 40
0.0
  9
$USERR2
 40
0.0
  9
$USERR3
 40
0.0
  9
$USERR4
 40
0.0
  9
$USERR5
 40
0.0
  9
$WORLDVIEW
 70
     1
  9
$SHADEDGE
 70
     3
  9
$SHADEDIF
 70
    70
  9
$TILEMODE
 70
     1
  9
$MAXACTVP
 70
    16
  9
$PLIMCHECK
 70
     0
  9
$PEXTMIN
 10
1.0000000000000000E+020
 20
1.0000000000000000E+020
 30
1.0000000000000000E+020
  9
$PEXTMAX
 10
-1.0000000000000000E+020
 20
-1.0000000000000000E+020
 30
-1.0000000000000000E+020
  9
$PLIMMIN
 10
0.0
 20
0.0
  9
$PLIMMAX
 10
420.0
 20
297.0
  9
$UNITMODE
 70
     0
  9
$VISRETAIN
 70
     0
  9
$PLINEGEN
 70
     0
  9
$PSLTSCALE
 70
     1
  0
ENDSEC
  0
SECTION
  2
TABLES
  0
TABLE
  2
VPORT
 70
     3
  0
VPORT
  2
*ACTIVE
 70
     0
 10
0.0
 20
0.0
 11
1.0
 21
1.0
 12
-47.001760521086652
 22
8.9927682504146276
 13
0.0
 23
0.0
 14
7.0
 24
7.0
 15
7.0
 25
7.0
 16
0.0
 26
0.0
 36
1.0
 17
0.0
 27
0.0
 37
0.0
 40
95.71857684309694
 41
1.4489795918367341
 42
50.0
 43
0.0
 44
0.0
 50
0.0
 51
0.0
 71
     0
 72
  2000
 73
     1
 74
     0
 75
     0
 76
     1
 77
     0
 78
     0
  0
ENDTAB
  0
TABLE
  2
LTYPE
 70
    21
  0
LTYPE
  2
CONTINUOUS
 70
     0
  3
Solid line
 72
    65
 73
     0
 40
0.0
  0
LTYPE
  2
CENTER2
 70
     0
  3
___ _ ___ _ ___ _ ___ _ ___ _ ___ _ ___ _ ___ _
 72
    65
 73
     4
 40
1.125
 49
0.75
 49
-0.125
 49
0.125
 49
-0.125
  0
LTYPE
  2
PHANTOM2
 70
     0
  3
___ _ _ ___ _ _ ___ _ _ ___ _ _ ___ _ _ ___ _ _
 72
    65
 73
     6
 40
1.25
 49
0.625
 49
-0.125
 49
0.125
 49
-0.125
 49
0.125
 49
-0.125
  0
LTYPE
  2
HIDDEN2
 70
     0
  3
_ _ _ _ _ _ _ _ _ _ _ _ _ _ _ _ _ _ _ _ _ _ _ _
 72
    65
 73
     2
 40
0.1875
 49
0.125
 49
-0.0625
  0
LTYPE
  2
AMCONSTR
 70
     0
  3
_______________________
 72
    65
 73
     2
 40
9999.0
 49
9999.0
 49
0.0
  0
LTYPE
  2
HIDDEN
 70
     0
  3
Hidden __ __ __ __ __ __ __ __ __ __ __ __ __ _
 72
    65
 73
     2
 40
9.5249999999999986
 49
6.3499999999999979
 49
-3.174999999999998
  0
LTYPE
  2
CENTER
 70
     0
  3
____ _ ____ _ ____ _ ____ _ ____ _ ____ _ ____ 
 72
    65
 73
     4
 40
2.0
 49
1.25
 49
-0.25
 49
0.25
 49
-0.25
  0
LTYPE
  2
AMZIGZAG2
 70
     0
  3
/\/-/\/-/\/-/\/-/\/-/\/
 72
    65
 73
     2
 40
0.4401
 49
0.0001
 49
-0.4400000000000001
  0
LTYPE
  2
ACANSTGB
 70
     0
  3
__ . . __ . .
 72
    65
 73
     6
 40
0.35433070866
 49
0.15748031496
 49
-0.03937007874
 49
0.03937007874
 49
-0.03937007874
 49
0.03937007874
 49
-0.03937007874
  0
LTYPE
  2
ACANSTGL
 70
     0
  3
_ _ _ _ _
 72
    65
 73
     2
 40
0.11811023622
 49
0.07874015748
 49
-0.03937007874
  0
ENDTAB
  0
TABLE
  2
LAYER
 70
     9
  0
LAYER
  2
0
 70
     0
 62
     7
  6
CONTINUOUS
  0
LAYER
  2
240
 70
     0
 62
     4
  6
CONTINUOUS
  0
LAYER
  2
241
 70
     0
 62
   211
  6
CONTINUOUS
  0
LAYER
  2
242
 70
     0
 62
     3
  6
CONTINUOUS
  0
LAYER
  2
245
 70
     0
 62
     2
  6
CENTER2
  0
LAYER
  2
246
 70
     0
 62
     3
  6
PHANTOM2
  0
LAYER
  2
247
 70
     0
 62
    60
  6
CONTINUOUS
  0
LAYER
  2
250
 70
     0
 62
     3
  6
CONTINUOUS
  0
LAYER
  2
DEFPOINTS
 70
     0
 62
     7
  6
CONTINUOUS
  0
ENDTAB
  0
TABLE
  2
STYLE
 70
     9
  0
STYLE
  2
STANDARD
 70
     0
 40
0.0
 41
1.0
 50
0.0
 71
     0
 42
3.0
  3
romans.shx
  4
BIGFONT.SHX
  0
STYLE
  2
YOKO
 70
     0
 40
0.0
 41
1.0
 50
0.0
 71
     0
 42
3.0
  3
romans.shx
  4
extfont.shx
  0
STYLE
  2

 70
     1
 40
0.0
 41
1.0
 50
0.0
 71
     0
 42
3.0
  3
ltypeshp.shx
  4

  0
STYLE
  2
ACANSTS
 70
     0
 40
1.0
 41
1.0
 50
0.0
 71
     0
 42
3.0
  3
romans.shx
  4
extfont.shx
  0
STYLE
  2
ACANSGDT
 70
     0
 40
0.0
 41
1.0
 50
0.0
 71
     0
 42
3.0
  3
amgdtans.shx
  4

  0
ENDTAB
  0
TABLE
  2
VIEW
 70
     0
  0
ENDTAB
  0
TABLE
  2
UCS
 70
     0
  0
ENDTAB
  0
TABLE
  2
APPID
 70
    31
  0
APPID
  2
ACAD
 70
     0
  0
APPID
  2
GLOBAL
 70
     0
  0
APPID
  2
DETAIL
 70
     0
  0
APPID
  2
GRPNAME
 70
     0
  0
APPID
  2
GPARA
 70
     0
  0
APPID
  2
ITEMNAME
 70
     0
  0
APPID
  2
HATCH_TYPE
 70
     0
  0
APPID
  2
HATCH_DISPLAY
 70
     0
  0
APPID
  2
HATCH_DISTANCE
 70
     0
  0
APPID
  2
MCAD_NO_VIS
 70
     0
  0
APPID
  2
ACAD_TEMP_GRAPHIC
 70
     0
  0
APPID
  2
ACATTRIBSERVICES
 70
     0
  0
APPID
  2
GENIUS_GENSCREG_15
 70
     0
  0
APPID
  2
GENIUS_GENODEF_13
 70
     0
  0
APPID
  2
GENIUS_GENOBJ-N-SDF_13
 70
     0
  0
APPID
  2
GENIUS_GENREC_14
 70
     0
  0
APPID
  2
GENIUS_GENOBJ-N-REC_13
 70
     0
  0
APPID
  2
GENIUS_GENDIMSH_14
 70
     0
  0
APPID
  2
GENIUS_GENOBJ-N-DIM_13
 70
     0
  0
APPID
  2
GENIUS_GENDIM_13
 70
     0
  0
APPID
  2
GENIUS_GENDTOL_13
 70
     0
  0
APPID
  2
GENIUS_GENOLIS_13
 70
     0
  0
APPID
  2
GENIUS_GENOENT_13
 70
     0
  0
APPID
  2
GENIUS_GENOBJ-F-FEM_13
 70
     0
  0
APPID
  2
GENIUS_GENOREF_13
 70
     0
  0
APPID
  2
GENIUS_GEFFEM_13
 70
     0
  0
APPID
  2
GENIUS_GEFFEMP_13
 70
     0
  0
APPID
  2
AD_DRAW
 70
     0
  0
APPID
  2
DESIGNERASSEMBLIES
 70
     0
  0
APPID
  2
ACADM_DIM_EDIT
 70
     0
  0
APPID
  2
AMDT_DM_ADJ
 70
     0
  0
ENDTAB
  0
TABLE
  2
DIMSTYLE
 70
    30
  0
DIMSTYLE
  2
STANDARD
 70
     0
  3

  4

  5

  6

  7

 40
1.0
 41
2.0
 42
2.0
 43
3.75
 44
2.0
 45
0.0
 46
0.0
 47
0.0
 48
0.0
140
4.0
141
0.09
142
0.0
143
25.399999999999999
144
1.0
145
0.0
146
1.0
147
1.0
 71
     0
 72
     0
 73
     1
 74
     1
 75
     0
 76
     0
 77
     0
 78
     8
170
     0
171
     2
172
     0
173
     1
174
     0
175
     0
176
   256
177
   256
178
   256
  0
DIMSTYLE
  2
BIGT
 70
     0
  3

  4

  5

  6

  7

 40
1.0
 41
2.2299999999999991
 42
0.5
 43
7.0
 44
1.0
 45
0.0
 46
0.0
 47
0.0
 48
0.01
140
2.799999999999998
141
0.0
142
0.0
143
25.399999999999999
144
1.0
145
0.0
146
1.0
147
1.0
 71
     0
 72
     0
 73
     0
 74
     0
 75
     0
 76
     0
 77
     3
 78
     9
170
     0
171
     2
172
     1
173
     0
174
     1
175
     0
176
   256
177
   256
178
    40
  0
DIMSTYLE
  2
AM_ANSI
 70
     0
  3

  4
mm
  5

  6

  7

 40
1.0
 41
0.1
 42
0.05
 43
0.5
 44
0.1
 45
0.0
 46
0.0
 47
0.1
 48
0.1
140
0.12
141
0.0
142
0.0
143
25.399999999999999
144
1.0
145
0.0
146
0.71
147
0.06
 71
     0
 72
     0
 73
     1
 74
     1
 75
     0
 76
     0
 77
     0
 78
     7
170
     0
171
     2
172
     0
173
     0
174
     0
175
     0
176
   256
177
   256
178
     2
  0
DIMSTYLE
  2
AM_ANSI$3
 70
     0
  3

  4
mm
  5

  6

  7

 40
1.0
 41
0.1
 42
0.05
 43
0.5
 44
0.1
 45
0.0
 46
0.0
 47
0.1
 48
0.1
140
0.12
141
0.0
142
0.0
143
25.399999999999999
144
1.0
145
0.0
146
0.71
147
0.06
 71
     0
 72
     0
 73
     1
 74
     1
 75
     0
 76
     0
 77
     0
 78
     7
170
     0
171
     2
172
     0
173
     0
174
     0
175
     0
176
   256
177
   256
178
     2
  0
DIMSTYLE
  2
AM_ANSI$4
 70
     0
  3

  4
mm
  5

  6

  7

 40
1.0
 41
0.1
 42
0.05
 43
0.5
 44
0.1
 45
0.0
 46
0.0
 47
0.1
 48
0.1
140
0.12
141
0.0
142
0.0
143
25.399999999999999
144
1.0
145
0.0
146
0.71
147
0.06
 71
     0
 72
     0
 73
     1
 74
     1
 75
     0
 76
     0
 77
     0
 78
     7
170
     0
171
     2
172
     0
173
     0
174
     0
175
     0
176
   256
177
   256
178
     2
  0
DIMSTYLE
  2
AM_ANSI$7
 70
     0
  3

  4
mm
  5

  6

  7

 40
1.0
 41
0.1
 42
0.05
 43
0.5
 44
0.1
 45
0.0
 46
0.0
 47
0.1
 48
0.1
140
0.24
141
0.0
142
0.0
143
25.399999999999999
144
1.0
145
0.0
146
0.71
147
0.06
 71
     0
 72
     0
 73
     1
 74
     1
 75
     0
 76
     0
 77
     0
 78
     7
170
     0
171
     2
172
     0
173
     0
174
     0
175
     0
176
   256
177
   256
178
     2
  0
DIMSTYLE
  2
AM_ANSI$SF
 70
     0
  3

  4
mm
  5

  6

  7

 40
1.0
 41
0.1
 42
0.05
 43
0.5
 44
0.1
 45
0.0
 46
0.0
 47
0.1
 48
0.1
140
0.12
141
0.0
142
0.0
143
25.399999999999999
144
1.0
145
0.0
146
0.71
147
0.06
 71
     0
 72
     0
 73
     1
 74
     1
 75
     1
 76
     1
 77
     0
 78
     7
170
     0
171
     2
172
     0
173
     0
174
     0
175
     0
176
   256
177
   256
178
     2
  0
DIMSTYLE
  2
AM_ANSI$SH
 70
     0
  3

  4
mm
  5

  6
GENAXEH
  7

 40
1.0
 41
0.1
 42
0.05
 43
0.5
 44
0.1
 45
0.0
 46
0.0
 47
0.1
 48
0.1
140
0.12
141
0.0
142
0.0
143
25.399999999999999
144
1.0
145
0.0
146
0.71
147
0.06
 71
     0
 72
     0
 73
     1
 74
     1
 75
     1
 76
     1
 77
     0
 78
     7
170
     0
171
     2
172
     0
173
     1
174
     0
175
     0
176
   256
177
   256
178
     2
  0
ENDTAB
  0
ENDSEC
  0
SECTION
  2
BLOCKS
  0
BLOCK
  8
0
  2
$MODEL_SPACE
 70
     0
 10
0.0
 20
0.0
 30
0.0
  3
$MODEL_SPACE
  1

  0
ENDBLK
  5
2867
  8
0
  0
BLOCK
 67
     1
  8
0
  2
$PAPER_SPACE
 70
     0
 10
0.0
 20
0.0
 30
0.0
  3
$PAPER_SPACE
  1

  0
ENDBLK
  5
2863
 67
     1
  8
0
  0
BLOCK
  8
0
  2
_OPEN
 70
     0
 10
0.0
 20
0.0
 30
0.0
  3
_OPEN
  1

  0
LINE
  5
25DC
  8
0
  6
BYBLOCK
 62
     0
 10
-1.0
 20
0.1666666666666666
 30
0.0
 11
0.0
 21
0.0
 31
0.0
  0
LINE
  5
25DD
  8
0
  6
BYBLOCK
 62
     0
 10
-1.0
 20
-0.1666666666666666
 30
0.0
 11
0.0
 21
0.0
 31
0.0
  0
LINE
  5
25DE
  8
0
  6
BYBLOCK
 62
     0
 10
0.0
 20
0.0
 30
0.0
 11
-1.0
 21
0.0
 31
0.0
  0
ENDBLK
  5
25DF
  8
0
  0
BLOCK
  8
0
  2
GENAXEH
 70
     0
 10
0.0
 20
0.0
 30
0.0
  3
GENAXEH
  1

  0
LINE
  5
2607
  8
0
 10
-1.0
 20
0.0
 30
0.0
 11
1.0
 21
0.0
 31
0.0
  0
ENDBLK
  5
2608
  8
0
  0
BLOCK
  8
0
  2
*X15
 70
     1
 10
0.0
 20
0.0
 30
0.0
  3
*X15
  1

  0
LINE
  5
27F6
  8
0
 62
     0
 10
-46.96041330138263
 20
-11.647284763578419
 30
0.0
 11
-46.364282448656972
 21
-11.051153910852751
 31
0.0
  0
LINE
  5
27F7
  8
0
 62
     0
 10
-46.553804451241199
 20
-11.03862015071293
 30
0.0
 11
-46.314991813987028
 21
-10.799807513458781
 31
0.0
  0
LINE
  5
27F8
  8
0
 62
     0
 10
-47.211759698776611
 20
-11.69657539824834
 30
0.0
 11
-46.972947061522447
 21
-11.45776276099418
 31
0.0
  0
LINE
  5
27F9
  8
0
 62
     0
 10
-46.496012503597051
 20
-10.778772440344721
 30
0.0
 11
-46.323256656252568
 21
-10.606016593000261
 31
0.0
  0
LINE
  5
27FA
  8
0
 62
     0
 10
-47.415483980433372
 20
-11.698243917181051
 30
0.0
 11
-47.232794771890653
 21
-11.515554708638341
 31
0.0
  0
LINE
  5
27FB
  8
0
 62
     0
 10
-46.510359373317328
 20
-10.59106354734095
 30
0.0
 11
-46.361926187123032
 21
-10.442630361146639
 31
0.0
  0
LINE
  5
27FC
  8
0
 62
     0
 10
-47.617539743157437
 20
-11.698243917181051
 30
0.0
 11
-47.435661085728903
 21
-11.51636525975252
 31
0.0
  0
LINE
  5
27FD
  8
0
 62
     0
 10
-46.5584672524949
 20
-10.43711566379447
 30
0.0
 11
-46.422111629259398
 21
-10.30076004055897
 31
0.0
  0
LINE
  5
27FE
  8
0
 62
     0
 10
-47.81959550588148
 20
-11.69824391718104
 30
0.0
 11
-47.637716848452961
 21
-11.51636525975252
 31
0.0
  0
LINE
  5
27FF
  8
0
 62
     0
 10
-46.630264682429221
 20
-10.306857331004741
 30
0.0
 11
-46.499852539499969
 21
-10.17644518807548
 31
0.0
  0
LINE
  5
2800
  8
0
 62
     0
 10
-48.021651268605538
 20
-11.698243917181051
 30
0.0
 11
-47.839772611176997
 21
-11.51636525975251
 31
0.0
  0
LINE
  5
2801
  8
0
 62
     0
 10
-46.721937671351633
 20
-10.19647455720307
 30
0.0
 11
-46.59333001640212
 21
-10.06786690225357
 31
0.0
  0
LINE
  5
2802
  8
0
 62
     0
 10
-48.22370703132961
 20
-11.69824391718104
 30
0.0
 11
-48.041828373901062
 21
-11.51636525975251
 31
0.0
  0
LINE
  5
2803
  8
0
 62
     0
 10
-46.832446663779471
 20
-10.104927786906851
 30
0.0
 11
-46.702009861783097
 21
-9.9744909849104886
 31
0.0
  0
LINE
  5
2804
  8
0
 62
     0
 10
-48.425762794053661
 20
-11.69824391718104
 30
0.0
 11
-48.243884136625127
 21
-11.51636525975252
 31
0.0
  0
LINE
  5
2805
  8
0
 62
     0
 10
-46.962845779531953
 20
-10.03327113993528
 30
0.0
 11
-46.82643363299637
 21
-9.8968589933996967
 31
0.0
  0
LINE
  5
2806
  8
0
 62
     0
 10
-48.627818556777719
 20
-11.69824391718104
 30
0.0
 11
-48.445939899349177
 21
-11.51636525975252
 31
0.0
  0
LINE
  5
2807
  8
0
 62
     0
 10
-47.116973840216893
 20
-9.9853434378961765
 30
0.0
 11
-46.968430598123668
 21
-9.8368001958029474
 31
0.0
  0
LINE
  5
2808
  8
0
 62
     0
 10
-48.829874319501762
 20
-11.69824391718104
 30
0.0
 11
-48.647995662073242
 21
-11.51636525975251
 31
0.0
  0
LINE
  5
2809
  8
0
 62
     0
 10
-47.304972460519423
 20
-9.9712862954746626
 30
0.0
 11
-47.13198109371293
 21
-9.7982949286681542
 31
0.0
  0
LINE
  5
280A
  8
0
 62
     0
 10
-49.031930082225799
 20
-11.69824391718104
 30
0.0
 11
-48.850051424797279
 21
-11.51636525975251
 31
0.0
  0
LINE
  5
280B
  8
0
 62
     0
 10
-47.474272377026857
 20
-9.9385304492580513
 30
0.0
 11
-47.326027309361322
 21
-9.7902853815925184
 31
0.0
  0
LINE
  5
280C
  8
0
 62
     0
 10
-49.233985844949892
 20
-11.698243917181051
 30
0.0
 11
-49.052107187521337
 21
-11.51636525975252
 31
0.0
  0
LINE
  5
280D
  8
0
 62
     0
 10
-49.436041607673921
 20
-11.698243917181051
 30
0.0
 11
-49.254162950245401
 21
-11.51636525975251
 31
0.0
  0
LINE
  5
280E
  8
0
 62
     0
 10
-49.638097370398
 20
-11.698243917181051
 30
0.0
 11
-49.456218712969459
 21
-11.51636525975252
 31
0.0
  0
LINE
  5
280F
  8
0
 62
     0
 10
-49.840153133122037
 20
-11.69824391718104
 30
0.0
 11
-49.658274475693531
 21
-11.51636525975251
 31
0.0
  0
LINE
  5
2810
  8
0
 62
     0
 10
-50.042208895846102
 20
-11.698243917181051
 30
0.0
 11
-49.860330238417561
 21
-11.51636525975252
 31
0.0
  0
LINE
  5
2811
  8
0
 62
     0
 10
-50.24426465857016
 20
-11.698243917181051
 30
0.0
 11
-50.062386001141633
 21
-11.51636525975252
 31
0.0
  0
LINE
  5
2812
  8
0
 62
     0
 10
-50.44632042129421
 20
-11.698243917181051
 30
0.0
 11
-50.26444176386569
 21
-11.51636525975252
 31
0.0
  0
LINE
  5
2813
  8
0
 62
     0
 10
-50.648376184018282
 20
-11.698243917181051
 30
0.0
 11
-50.466497526589748
 21
-11.51636525975252
 31
0.0
  0
LINE
  5
2814
  8
0
 62
     0
 10
-50.850431946742319
 20
-11.698243917181051
 30
0.0
 11
-50.66855328931382
 21
-11.51636525975252
 31
0.0
  0
LINE
  5
2815
  8
0
 62
     0
 10
-51.048412713619747
 20
-11.69416892133443
 30
0.0
 11
-50.870609052037842
 21
-11.51636525975251
 31
0.0
  0
LINE
  5
2816
  8
0
 62
     0
 10
-51.218866210985318
 20
-11.66256665597593
 30
0.0
 11
-51.065474929473687
 21
-11.50917537446429
 31
0.0
  0
LINE
  5
2817
  8
0
 62
     0
 10
-51.366083383012253
 20
-11.60772806527882
 30
0.0
 11
-51.227183304501288
 21
-11.46882798676782
 31
0.0
  0
LINE
  5
2818
  8
0
 62
     0
 10
-51.494939359367073
 20
-11.534528278909571
 30
0.0
 11
-51.36336474236164
 21
-11.40295366190413
 31
0.0
  0
LINE
  5
2819
  8
0
 62
     0
 10
-51.60771012376469
 20
-11.445243280583121
 30
0.0
 11
-51.478973193554431
 21
-11.316506350372871
 31
0.0
  0
LINE
  5
281A
  8
0
 62
     0
 10
-51.705240534399472
 20
-11.340717928493831
 30
0.0
 11
-51.575672857328819
 21
-11.2111502514232
 31
0.0
  0
LINE
  5
281B
  8
0
 62
     0
 10
-51.787285438197749
 20
-11.22070706956805
 30
0.0
 11
-51.652989838021881
 21
-11.086411469392189
 31
0.0
  0
LINE
  5
281C
  8
0
 62
     0
 10
-50.739044281510019
 20
-9.9704101501562672
 30
0.0
 11
-50.595756433997643
 21
-9.8271223026439003
 31
0.0
  0
LINE
  5
281D
  8
0
 62
     0
 10
-51.852415463903363
 20
-11.083781332549631
 30
0.0
 11
-51.708011156912761
 21
-10.93937702555902
 31
0.0
  0
LINE
  5
281E
  8
0
 62
     0
 10
-50.941100044234069
 20
-9.9704101501562725
 30
0.0
 11
-50.759221382124679
 21
-9.7885314880468997
 31
0.0
  0
LINE
  5
281F
  8
0
 62
     0
 10
-51.897388273887699
 20
-10.92669837980992
 30
0.0
 11
-51.733037979539397
 21
-10.76234808546163
 31
0.0
  0
LINE
  5
2820
  8
0
 62
     0
 10
-51.172997285997198
 20
-10.000251629195359
 30
0.0
 11
-50.961277652425281
 21
-9.7885319956234476
 31
0.0
  0
LINE
  5
2821
  8
0
 62
     0
 10
-51.915148711484967
 20
-10.742403054683139
 30
0.0
 11
-51.703429077913071
 21
-10.53068342111122
 31
0.0
  0
LINE
  5
2822
  8
0
 62
     0
 10
-51.88665200405265
 20
-10.51185058452675
 30
0.0
 11
-51.191830122581692
 21
-9.8170287030557795
 31
0.0
  0
ENDBLK
  5
2824
  8
0
  0
BLOCK
  8
0
  2
*X16
 70
     1
 10
0.0
 20
0.0
 30
0.0
  3
*X16
  1

  0
LINE
  5
2826
  8
0
 62
     0
 10
-49.16322361919071
 20
-11.42542592869782
 30
0.0
 11
-49.148236560442868
 21
-11.41043886994998
 31
0.0
  0
LINE
  5
2827
  8
0
 62
     0
 10
-49.36527938191476
 20
-11.42542592869782
 30
0.0
 11
-49.067005721522982
 21
-11.12715226830603
 31
0.0
  0
LINE
  5
2828
  8
0
 62
     0
 10
-49.556112105091877
 20
-11.41420288915088
 30
0.0
 11
-48.985774882603089
 21
-10.843865666662101
 31
0.0
  0
LINE
  5
2829
  8
0
 62
     0
 10
-49.474880157619289
 20
-11.13091517895424
 30
0.0
 11
-48.904544043683217
 21
-10.56057906501816
 31
0.0
  0
LINE
  5
282A
  8
0
 62
     0
 10
-49.393648210146672
 20
-10.847627468757571
 30
0.0
 11
-48.823313204763323
 21
-10.27729246337422
 31
0.0
  0
LINE
  5
282B
  8
0
 62
     0
 10
-49.31241626267407
 20
-10.56433975856091
 30
0.0
 11
-48.742082365843451
 21
-9.9940058617302867
 31
0.0
  0
LINE
  5
282C
  8
0
 62
     0
 10
-49.23118431520146
 20
-10.28105204836424
 30
0.0
 11
-48.738663754884101
 21
-9.7885314880468925
 31
0.0
  0
LINE
  5
282D
  8
0
 62
     0
 10
-49.149952367728858
 20
-9.9977643381675847
 30
0.0
 11
-48.940719517608173
 21
-9.7885314880468925
 31
0.0
  0
LINE
  5
282E
  8
0
 62
     0
 10
-49.161569511066773
 20
-9.8073257187814349
 30
0.0
 11
-49.142775280332238
 21
-9.7885314880468997
 31
0.0
  0
ENDBLK
  5
2830
  8
0
  0
BLOCK
  8
0
  2
*X17
 70
     1
 10
0.0
 20
0.0
 30
0.0
  3
*X17
  1

  0
LINE
  5
2832
  8
0
 62
     0
 10
-47.856379563744042
 20
-11.330916449595501
 30
0.0
 11
-47.685871063216631
 21
-11.16040794906807
 31
0.0
  0
LINE
  5
2833
  8
0
 62
     0
 10
-48.150186689732017
 20
-11.4226678128594
 30
0.0
 11
-47.604639438690008
 21
-10.87712056181738
 31
0.0
  0
LINE
  5
2834
  8
0
 62
     0
 10
-48.06437743620328
 20
-11.1348027966066
 30
0.0
 11
-47.523407814163349
 21
-10.593833174566679
 31
0.0
  0
LINE
  5
2835
  8
0
 62
     0
 10
-48.339932834904822
 20
-11.410358195308129
 30
0.0
 11
-48.126404308206887
 21
-11.196829668610221
 31
0.0
  0
LINE
  5
2836
  8
0
 62
     0
 10
-47.97272387261561
 20
-10.841093470294879
 30
0.0
 11
-47.629480432848077
 21
-10.49785003052734
 31
0.0
  0
LINE
  5
2837
  8
0
 62
     0
 10
-48.486802181992047
 20
-11.3551717796713
 30
0.0
 11
-48.327990177068472
 21
-11.19635977474775
 31
0.0
  0
LINE
  5
2838
  8
0
 62
     0
 10
-48.013414857681497
 20
-10.67972869263672
 30
0.0
 11
-47.831536195572127
 21
-10.49785003052734
 31
0.0
  0
LINE
  5
2839
  8
0
 62
     0
 10
-48.605165201822501
 20
-11.27147903677773
 30
0.0
 11
-48.4125421610225
 21
-11.078855995977721
 31
0.0
  0
LINE
  5
283A
  8
0
 62
     0
 10
-47.565703144804822
 20
-10.029961217036011
 30
0.0
 11
-47.54676673945599
 21
-10.01102481168717
 31
0.0
  0
LINE
  5
283B
  8
0
 62
     0
 10
-48.698654025022883
 20
-11.162912097254059
 30
0.0
 11
-48.367337583204197
 21
-10.831595655435381
 31
0.0
  0
LINE
  5
283C
  8
0
 62
     0
 10
-47.818382815117303
 20
-10.080585124624429
 30
0.0
 11
-47.595206927568313
 21
-9.8574092370754371
 31
0.0
  0
LINE
  5
283D
  8
0
 62
     0
 10
-48.765775651087942
 20
-11.027977960595059
 30
0.0
 11
-48.28610568255975
 21
-10.54830799206688
 31
0.0
  0
LINE
  5
283E
  8
0
 62
     0
 10
-47.934400493986352
 20
-9.9945470407694312
 30
0.0
 11
-47.798210991265528
 21
-9.8583575380486081
 31
0.0
  0
LINE
  5
283F
  8
0
 62
     0
 10
-48.797919706085111
 20
-10.85806625286817
 30
0.0
 11
-48.204873781915332
 21
-10.26502032869838
 31
0.0
  0
LINE
  5
2840
  8
0
 62
     0
 10
-48.769289450775439
 20
-10.62738023483444
 30
0.0
 11
-47.945282012913609
 21
-9.8033727969726154
 31
0.0
  0
LINE
  5
2841
  8
0
 62
     0
 10
-48.702208387954151
 20
-10.3582434092891
 30
0.0
 11
-48.135396096704149
 21
-9.7914311180391032
 31
0.0
  0
ENDBLK
  5
2843
  8
0
  0
ENDSEC
  0
SECTION
  2
ENTITIES
  0
TEXT
  5
151D
  8
241
 10
-98.500000000000014
 20
49.0
 30
0.0
 40
5.0
  1
SL25-NBS13-80
  7
YOKO
 11
-98.500000000000014
 21
49.0
 31
0.0
 73
     1
  0
TEXT
  5
2642
  8
247
 10
-45.860095337184802
 20
-11.60113973810936
 30
0.0
 40
1.5
  1
SL25-NBS13-80
  7
YOKO
 11
-45.860095337184802
 21
-11.60113973810936
 31
0.0
 73
     1
  0
LINE
  5
2643
  8
242
 10
-26.5
 20
5.1273774973177426
 30
0.0
 11
-101.5
 21
-5.1273774973177391
 31
0.0
  0
LINE
  5
2644
  8
242
 10
-101.5
 20
5.12737749731774
 30
0.0
 11
-26.5
 21
-5.1273774973177551
 31
0.0
  0
LINE
  5
2645
  8
241
 10
-26.5
 20
-5.1273774973177426
 30
0.0
 11
-101.5
 21
-5.1273774973177391
 31
0.0
  0
LINE
  5
2646
  8
241
 10
-26.5
 20
5.1273774973177426
 30
0.0
 11
-101.5
 21
5.12737749731774
 31
0.0
  0
LINE
  5
2647
  8
240
 10
-90.000000000000114
 20
-12.499999999999931
 30
0.0
 11
-22.999999999999929
 21
-12.49999999999994
 31
0.0
  0
LINE
  5
2648
  8
240
 10
-90.000000000000014
 20
12.499999999999989
 30
0.0
 11
-22.999999999999929
 21
12.5
 31
0.0
  0
LINE
  5
2649
  8
245
 10
2.6567394255023351
 20
0.0
 30
0.0
 11
-103.7245399921092
 21
0.0
 31
0.0
  0
LINE
  5
264A
  8
240
 10
-101.5
 20
-10.5
 30
0.0
 11
-101.5
 21
10.5
 31
0.0
  0
LINE
  5
264B
  8
240
 10
-101.5
 20
-10.5
 30
0.0
 11
-101.0
 21
-11.0
 31
0.0
  0
LINE
  5
264C
  8
246
 10
-68.000000000000014
 20
3.0
 30
0.0
 11
-80.000000000000014
 21
3.0
 31
0.0
  0
LINE
  5
264D
  8
246
 10
-68.000000000000014
 20
-2.9999999999999432
 30
0.0
 11
-80.000000000000014
 21
-2.9999999999999432
 31
0.0
  0
LINE
  5
264E
  8
246
 10
-74.600000000000051
 20
-6.6499999999999764
 30
0.0
 11
-60.350000000000009
 21
-6.6499999999999764
 31
0.0
  0
LINE
  5
264F
  8
246
 10
-74.250000000000014
 20
-6.9999999999999432
 30
0.0
 11
-60.699999999999932
 21
-6.9999999999999432
 31
0.0
  0
LINE
  5
2650
  8
246
 10
-74.600000000000051
 20
6.6499999999999764
 30
0.0
 11
-60.350000000000009
 21
6.6499999999999764
 31
0.0
  0
LINE
  5
2651
  8
246
 10
-74.250000000000014
 20
7.0
 30
0.0
 11
-60.699999999999932
 21
7.0
 31
0.0
  0
LINE
  5
2652
  8
240
 10
-91.5
 20
-11.0
 30
0.0
 11
-101.0
 21
-11.0
 31
0.0
  0
LINE
  5
2653
  8
240
 10
-90.000000000000114
 20
-12.499999999999931
 30
0.0
 11
-91.5
 21
-11.0
 31
0.0
  0
LINE
  5
2654
  8
246
 10
-80.000000000000014
 20
-5.2499999999999432
 30
0.0
 11
-80.000000000000014
 21
5.25
 31
0.0
  0
LINE
  5
2655
  8
246
 10
-79.000000000000014
 20
-6.2499999999999432
 30
0.0
 11
-75.000000000000014
 21
-6.2499999999999432
 31
0.0
  0
ARC
  5
2656
  8
246
 10
-79.000000000000014
 20
-5.2499999999999432
 30
0.0
 40
1.0
 50
180.0
 51
270.0
  0
LINE
  5
2657
  8
246
 10
-75.000000000000014
 20
-6.2499999999999432
 30
0.0
 11
-74.250000000000014
 21
-6.9999999999999432
 31
0.0
  0
LINE
  5
2658
  8
246
 10
-79.000000000000014
 20
6.25
 30
0.0
 11
-75.000000000000014
 21
6.25
 31
0.0
  0
ARC
  5
2659
  8
246
 10
-79.000000000000014
 20
5.25
 30
0.0
 40
1.0
 50
90.0
 51
180.0
  0
LINE
  5
265A
  8
246
 10
-75.000000000000014
 20
6.25
 30
0.0
 11
-74.250000000000014
 21
7.0
 31
0.0
  0
INSERT
  5
265B
  8
247
  6
CONTINUOUS
  2
*X15
 10
0.0
 20
0.0
 30
0.0
1001
ACAD
1000
HATCH
1002
{
1070
    19
1000
ANSI31
1040
0.045
1040
6.2831853071795853
1000
ASC_BOUNDS
1070
     1
1070
     2
1070
    10
1005
269A
1005
26BC
1005
26BA
1005
265F
1005
265E
1005
268C
1005
268F
1005
267D
1005
267C
1005
267E
1000
ASC_SEEDPOINT
1011
-105.8251432109133
1021
0.0
1031
0.0
1021
-18.785739415750712
1031
0.0
1000
R14_HATCH_DATA
1000
265B
1011
1.0
1021
0.0
1031
0.0
1021
0.0
1031
0.0
1011
0.0
1021
0.0
1031
0.0
1021
1.0
1031
0.0
1011
0.0
1021
0.0
1031
0.0
1021
0.0
1031
1.0
1040
0.0
1010
0.0
1020
0.0
1030
1.0
1000
ANSI31
1070
     0
1070
     1
1071
        1
1071
       33
1071
       10
1070
     1
1040
-50.584691150213871
1040
-9.7885314880468961
1040
-50.63684187653223
1040
-9.9704101501562743
1070
     1
1040
-50.960293109442382
1040
-9.7885314880468961
1040
-50.584691150213871
1040
-9.7885314880468961
1070
     1
1040
-50.960293109442382
1040
-9.9704101501562743
1040
-50.63684187653223
1040
-9.9704101501562743
1070
     2
1040
-50.960293109442382
1040
-10.74338759766604
1040
0.7729774475097658
1040
1.570796326794895
1040
4.7123889803846879
1070
     1
1070
     2
1040
-50.960293109442382
1040
-10.74338759766604
1040
0.9548561096191406
1040
1.570796326794895
1040
4.7123889803846879
1070
     1
1070
     1
1040
-50.960293109442382
1040
-11.698243917181051
1040
-47.268179614569327
1040
-11.698243917181051
1070
     1
1040
-50.960293109442382
1040
-11.51636525975252
1040
-47.268179614569327
1040
-11.51636525975252
1070
     2
1040
-47.268179614569348
1040
-10.74338759766604
1040
0.9548561096191406
1040
4.7123889803846879
1040
8.1117806218165374
1070
     1
1070
     2
1040
-47.268179614569348
1040
-10.74338759766604
1040
0.7729774475097658
1040
4.7123889803846879
1040
8.1005519157032833
1070
     1
1070
     1
1040
-47.45684920075098
1040
-9.9937835632422072
1040
-47.511622912909182
1040
-9.820082849130884
1071
       10
1005
267E
1005
267C
1005
267D
1005
268F
1005
268C
1005
265E
1005
265F
1005
26BA
1005
26BC
1005
269A
1070
     0
1070
     1
1040
6.2831853071795853
1040
0.045
1070
     0
1070
     1
1040
0.785398163397448
1040
-105.8251432109133
1040
-18.785739415750712
1040
-0.101027881362028
1040
0.101027881362028
1070
     0
1071
        1
1040
-105.8251432109133
1040
-18.785739415750712
1040
0.0
1002
}
  0
LINE
  5
265C
  8
247
 10
-49.156180102850577
 20
-9.7885314880468961
 30
0.0
 11
-48.683163745428708
 21
-9.7885314880468961
 31
0.0
  0
ARC
  5
265D
  8
247
 10
-48.207290942694343
 20
-10.834326928720721
 30
0.0
 40
0.591105651855469
 50
163.99975070172931
 51
304.96387329163173
1001
ACAD
1000
ASC_BOUNDS
1002
{
1070
    19
1005
2696
1002
}
  0
LINE
  5
265E
  8
247
 10
-50.960293109442382
 20
-11.698243917181051
 30
0.0
 11
-47.268179614569327
 21
-11.698243917181051
 31
0.0
1001
ACAD
1000
ASC_BOUNDS
1002
{
1070
    19
1005
265B
1002
}
  0
LINE
  5
265F
  8
247
 10
-50.960293109442382
 20
-11.51636525975252
 30
0.0
 11
-47.268179614569327
 21
-11.51636525975252
 31
0.0
1001
ACAD
1000
ASC_BOUNDS
1002
{
1070
    19
1005
265B
1002
}
  0
INSERT
  5
2660
  8
247
  6
CONTINUOUS
  2
*X16
 10
0.0
 20
0.0
 30
0.0
1001
ACAD
1000
HATCH
1002
{
1070
    19
1000
ANSI31
1040
0.045
1040
6.2831853071795853
1000
R14_HATCH_DATA
1000
2660
1011
1.0
1021
0.0
1031
0.0
1021
0.0
1031
0.0
1011
0.0
1021
0.0
1031
0.0
1021
1.0
1031
0.0
1011
0.0
1021
0.0
1031
0.0
1021
0.0
1031
1.0
1040
0.0
1010
0.0
1020
0.0
1030
1.0
1000
ANSI31
1070
     0
1070
     0
1071
        1
1071
        7
1070
     0
1070
     1
1071
        6
1040
-48.683163745428708
1040
-9.7885314880468961
1040
-49.156180102850577
1040
-9.7885314880468961
1040
-49.213549335028333
1040
-9.9885925232031436
1040
-49.147322375799781
1040
-9.9885925232031436
1040
-49.559330279852539
1040
-11.42542592869783
1040
-49.152534015204097
1040
-11.42542592869783
1071
        0
1070
     0
1070
     1
1040
6.2831853071795853
1040
0.045
1070
     0
1070
     1
1040
0.785398163397448
1040
-105.8251432109133
1040
-18.785739415750712
1040
-0.101027881362028
1040
0.101027881362028
1070
     0
1040
0.0134348504236232
1071
        1
1040
-49.108405764651181
1040
-10.56411746204614
1040
0.0
1002
}
  0
POLYLINE
  5
2661
  8
247
 66
     1
 10
0.0
 20
0.0
 30
0.0
 70
     1
  0
VERTEX
  5
2662
  8
247
 10
-49.156180102850612
 20
-9.7885314880468961
 30
0.0
  0
VERTEX
  5
2663
  8
247
 10
-49.21354933502834
 20
-9.9885925232031472
 30
0.0
  0
VERTEX
  5
2664
  8
247
 10
-49.147322375799831
 20
-9.9885925232031472
 30
0.0
  0
VERTEX
  5
2665
  8
247
 10
-49.55933027985256
 20
-11.42542592869783
 30
0.0
  0
VERTEX
  5
2666
  8
247
 10
-49.152534015204132
 20
-11.42542592869783
 30
0.0
  0
VERTEX
  5
2667
  8
247
 10
-48.683163745428708
 20
-9.7885314880468961
 30
0.0
  0
SEQEND
  5
2668
  8
247
  0
POLYLINE
  5
2669
  8
247
 66
     1
 10
0.0
 20
0.0
 30
0.0
 70
     1
1001
HATCH_DISTANCE
1040
1.0
1001
HATCH_DISPLAY
1070
     0
1001
HATCH_TYPE
1070
     7
  0
VERTEX
  5
266A
  8
247
 10
-49.156180102850612
 20
-9.7885314880468961
 30
0.0
  0
VERTEX
  5
266B
  8
247
 10
-49.21354933502834
 20
-9.9885925232031472
 30
0.0
  0
VERTEX
  5
266C
  8
247
 10
-49.147322375799831
 20
-9.9885925232031472
 30
0.0
  0
VERTEX
  5
266D
  8
247
 10
-49.55933027985256
 20
-11.42542592869783
 30
0.0
  0
VERTEX
  5
266E
  8
247
 10
-49.152534015204132
 20
-11.42542592869783
 30
0.0
  0
VERTEX
  5
266F
  8
247
 10
-48.683163745428708
 20
-9.7885314880468961
 30
0.0
  0
SEQEND
  5
2670
  8
247
  0
LINE
  5
2671
  8
247
 10
-49.152534015204097
 20
-11.42542592869783
 30
0.0
 11
-48.683163745428708
 21
-9.7885314880468961
 31
0.0
  0
LINE
  5
2672
  8
247
 10
-49.860722220970459
 20
-10.10236690323697
 30
0.0
 11
-49.63393297084464
 21
-9.8755776531111543
 31
0.0
  0
LINE
  5
2673
  8
247
 10
-49.83741054038515
 20
-10.28111098537571
 30
0.0
 11
-49.533054157845527
 21
-9.9767546028361185
 31
0.0
  0
LINE
  5
2674
  8
247
 10
-49.213549335028333
 20
-9.9885925232031472
 30
0.0
 11
-49.147322375799781
 21
-9.9885925232031472
 31
0.0
  0
LINE
  5
2675
  8
247
 10
-49.213549335028333
 20
-9.9885925232031472
 30
0.0
 11
-49.156180102850577
 21
-9.7885314880468961
 31
0.0
  0
LINE
  5
2676
  8
247
 10
-49.994906475068341
 20
-9.9751639985513592
 30
0.0
 11
-50.143953993977327
 21
-10.494966104966601
 31
0.0
  0
LINE
  5
2677
  8
247
 10
-50.54224272492111
 20
-9.9704101501562743
 30
0.0
 11
-50.447636706854688
 21
-9.9704101501568196
 31
0.0
  0
LINE
  5
2678
  8
247
 10
-50.490091998602431
 20
-9.7885314880468961
 30
0.0
 11
-50.54224272492111
 21
-9.9704101501562743
 31
0.0
  0
LINE
  5
2679
  8
247
 10
-50.492946459680603
 20
-10.128423853774949
 30
0.0
 11
-50.153054093952591
 21
-9.7885314880469672
 31
0.0
  0
LINE
  5
267A
  8
247
 10
-50.574177832686793
 20
-10.411710989505201
 30
0.0
 11
-49.950998331228533
 21
-9.7885314880469672
 31
0.0
  0
LINE
  5
267B
  8
247
 10
-50.536988518786004
 20
-9.970410150156308
 30
0.0
 11
-50.355109856676627
 21
-9.7885314880469316
 31
0.0
  0
LINE
  5
267C
  8
247
 10
-50.960293109442382
 20
-9.7885314880468961
 30
0.0
 11
-50.584691150213871
 21
-9.7885314880468961
 31
0.0
1001
ACAD
1000
ASC_BOUNDS
1002
{
1070
    19
1005
265B
1002
}
  0
LINE
  5
267D
  8
247
 10
-50.960293109442382
 20
-9.9704101501562743
 30
0.0
 11
-50.63684187653223
 21
-9.9704101501562743
 31
0.0
1001
ACAD
1000
ASC_BOUNDS
1002
{
1070
    19
1005
265B
1002
}
  0
LINE
  5
267E
  8
247
 10
-50.584691150213871
 20
-9.7885314880468961
 30
0.0
 11
-50.63684187653223
 21
-9.9704101501562743
 31
0.0
1001
ACAD
1000
ASC_BOUNDS
1002
{
1070
    19
1005
265B
1002
}
  0
ARC
  5
267F
  8
247
 10
-50.10439635040921
 20
-10.22503890381838
 30
0.0
 40
0.2728103756904602
 50
261.6626016879294
 51
66.338155095189762
  0
LINE
  5
2680
  8
247
 10
-49.9563221926594
 20
-9.9959111122019078
 30
0.0
 11
-49.768745704878789
 21
-9.8083346244213061
 31
0.0
  0
LINE
  5
2681
  8
247
 10
-50.490091998602431
 20
-9.7885314880468961
 30
0.0
 11
-49.903359872291702
 21
-9.7885314880469672
 31
0.0
  0
LINE
  5
2682
  8
247
 10
-49.559330279852539
 20
-11.42542592869783
 30
0.0
 11
-49.152534015204097
 21
-11.42542592869783
 31
0.0
  0
ARC
  5
2683
  8
247
 10
-50.313006122137722
 20
-10.952546685800799
 30
0.0
 40
0.2728181809186934
 50
261.66285421114878
 51
66.338192159110051
  0
LINE
  5
2684
  8
247
 10
-50.203514076041749
 20
-10.70266421006173
 30
0.0
 11
-50.352564046970777
 21
-11.22248173432674
 31
0.0
  0
LINE
  5
2685
  8
247
 10
-50.779669720983222
 20
-11.42542592869783
 30
0.0
 11
-50.262450276973063
 21
-10.908206484687661
 31
0.0
  0
LINE
  5
2686
  8
247
 10
-50.864856250311519
 20
-11.42542592869783
 30
0.0
 11
-50.110095508124033
 21
-11.42542592869783
 31
0.0
  0
LINE
  5
2687
  8
247
 10
-50.577613958259171
 20
-11.42542592869783
 30
0.0
 11
-50.343677464436169
 21
-11.19148943487486
 31
0.0
  0
LINE
  5
2688
  8
247
 10
-50.375558195535142
 20
-11.42542592869783
 30
0.0
 11
-49.708204031620511
 21
-10.75807176478323
 31
0.0
  0
LINE
  5
2689
  8
247
 10
-49.937356135579677
 20
-11.39133539419055
 30
0.0
 11
-49.689496039236261
 21
-11.143475297847131
 31
0.0
  0
ARC
  5
268A
  8
247
 10
-50.110095508124047
 20
-10.970735925302749
 30
0.0
 40
0.4546897888183594
 50
270.0
 51
40.329840654167192
  0
LINE
  5
268B
  8
247
 10
-50.173502432811048
 20
-11.425425928697861
 30
0.0
 11
-49.659315202395682
 21
-10.91123869828245
 31
0.0
  0
ARC
  5
268C
  8
247
 10
-50.960293109442382
 20
-10.74338759766604
 30
0.0
 40
0.9548561096191406
 50
90.0
 51
270.0
1001
ACAD
1000
ASC_BOUNDS
1002
{
1070
    19
1005
265B
1002
}
  0
LINE
  5
268D
  8
247
 10
-49.559330279852539
 20
-11.42542592869783
 30
0.0
 11
-49.147322375799781
 21
-9.9885925232031472
 31
0.0
  0
LINE
  5
268E
  8
247
 10
-50.04648003972509
 20
-10.89429201016379
 30
0.0
 11
-49.450092234166249
 21
-10.297904204604929
 31
0.0
  0
ARC
  5
268F
  8
247
 10
-50.960293109442382
 20
-10.74338759766604
 30
0.0
 40
0.7729774475097658
 50
90.0
 51
270.0
1001
ACAD
1000
ASC_BOUNDS
1002
{
1070
    19
1005
265B
1002
}
  0
LINE
  5
2690
  8
247
 10
-50.864856250311519
 20
-11.42542592869783
 30
0.0
 11
-50.447636706854688
 21
-9.9704101501568196
 31
0.0
  0
LINE
  5
2691
  8
247
 10
-50.817871951705342
 20
-11.261572396695939
 30
0.0
 11
-50.048324268851879
 21
-10.492024713842451
 31
0.0
  0
LINE
  5
2692
  8
247
 10
-50.736640578699152
 20
-10.978285260965681
 30
0.0
 11
-50.099987056143249
 21
-10.34163173840979
 31
0.0
  0
LINE
  5
2693
  8
247
 10
-50.117011749616182
 20
-10.76276795733083
 30
0.0
 11
-49.466162825056372
 21
-10.111919032771
 31
0.0
  0
ARC
  5
2694
  8
247
 10
-49.901485736395529
 20
-10.243221276865251
 30
0.0
 40
0.4546936511993409
 50
287.66957754739792
 51
90.236159842671569
  0
LINE
  5
2695
  8
247
 10
-50.65540920569299
 20
-10.694998125235429
 30
0.0
 11
-50.018758364361318
 21
-10.058347283903769
 31
0.0
  0
INSERT
  5
2696
  8
247
  6
CONTINUOUS
  2
*X17
 10
0.0
 20
0.0
 30
0.0
1001
ACAD
1000
HATCH
1002
{
1070
    19
1000
ANSI31
1040
0.045
1040
6.2831853071795853
1000
ASC_BOUNDS
1070
     1
1070
     2
1070
    15
1005
26B4
1005
2697
1005
26BE
1005
265D
1005
26B9
1005
26BB
1005
2698
1005
26BF
1005
26B7
1005
26B6
1005
26B8
1005
26BD
1005
2699
1005
26B5
1005
26B3
1000
ASC_SEEDPOINT
1011
-105.8251432109133
1021
0.0
1031
0.0
1021
-18.785739415750712
1031
0.0
1000
R14_HATCH_DATA
1000
2696
1011
1.0
1021
0.0
1031
0.0
1021
0.0
1031
0.0
1011
0.0
1021
0.0
1031
0.0
1021
1.0
1031
0.0
1011
0.0
1021
0.0
1031
0.0
1021
0.0
1031
1.0
1040
0.0
1010
0.0
1020
0.0
1030
1.0
1000
ANSI31
1070
     0
1070
     1
1071
        1
1071
       33
1071
       15
1070
     1
1040
-47.54357939484278
1040
-10.02113265381838
1040
-47.59835310700096
1040
-9.8474319397070502
1070
     2
1040
-47.268179614569348
1040
-10.74338759766604
1040
0.7729795932769779
1040
1.935084649241253
1040
2.313293405967598
1070
     1
1070
     2
1040
-47.981700427557641
1040
-10.17956923829103
1040
0.1909725040197372
1040
0.0298472487257512
1040
2.8623120192823759
1070
     1
1070
     1
1040
-48.410393817450192
1040
-10.98174971924807
1040
-48.165275104071291
1040
-10.126924127207049
1070
     2
1040
-48.226819140936527
1040
-11.03438796387697
1040
0.1909723699092865
1040
2.8623447390176029
1040
6.003937392607396
1070
     1
1070
     1
1040
-48.043244464422862
1040
-11.087026208505881
1040
-47.926452929999023
1040
-10.67972869263674
1070
     1
1040
-48.077817065741222
1040
-10.67972869263674
1040
-47.926452929999023
1040
-10.67972869263674
1070
     1
1040
-48.077817065741222
1040
-10.67972869263674
1040
-48.025666339422848
1040
-10.49785003052736
1070
     1
1040
-48.025666339422848
1040
-10.49785003052736
1040
-47.4958849978701
1040
-10.49785003052736
1070
     1
1040
-47.761864001776367
1040
-11.42542592869783
1040
-47.4958849978701
1040
-10.49785003052736
1070
     1
1040
-47.86855498078026
1040
-11.318741816149011
1040
-47.761864001776367
1040
-11.42542592869783
1070
     2
1040
-48.207290942694343
1040
-10.834326928720721
1040
0.591105651855469
1040
2.8623356221950562
1040
5.3226236885737679
1070
     1
1070
     2
1040
-47.240864856268551
1040
-10.865404504404321
1040
1.546847534179685
1040
2.7088413612455069
1040
3.0158386434483861
1070
     1
1070
     2
1040
-48.076910693670897
1040
-10.37963027344729
1040
0.5910996437072754
1040
0.9327739783146624
1040
2.8623431914429078
1070
     1
1070
     2
1040
-47.268179614569348
1040
-10.74338759766604
1040
0.954856538772583
1040
1.9238702396596461
1040
2.0694663713693631
1070
     1
1071
       15
1005
26B3
1005
26B5
1005
2699
1005
26BD
1005
26B8
1005
26B6
1005
26B7
1005
26BF
1005
2698
1005
26BB
1005
26B9
1005
265D
1005
26BE
1005
2697
1005
26B4
1070
     0
1070
     1
1040
6.2831853071795853
1040
0.045
1070
     0
1070
     1
1040
0.785398163397448
1040
-105.8251432109133
1040
-18.785739415750712
1040
-0.101027881362028
1040
0.101027881362028
1070
     0
1071
        1
1040
-105.8251432109133
1040
-18.785739415750712
1040
0.0
1002
}
  0
ARC
  5
2697
  8
247
 10
-48.076910693670897
 20
-10.37963027344729
 30
0.0
 40
0.5910996437072754
 50
53.444012197057553
 51
164.00018438768521
1001
ACAD
1000
ASC_BOUNDS
1002
{
1070
    19
1005
2696
1002
}
  0
LINE
  5
2698
  8
247
 10
-48.025666339422848
 20
-10.49785003052736
 30
0.0
 11
-47.4958849978701
 21
-10.49785003052736
 31
0.0
1001
ACAD
1000
ASC_BOUNDS
1002
{
1070
    19
1005
2696
1002
}
  0
ARC
  5
2699
  8
247
 10
-47.981700427557641
 20
-10.17956923829103
 30
0.0
 40
0.1909725040197372
 50
1.7101213820627641
 51
163.99839835444851
1001
ACAD
1000
ASC_BOUNDS
1002
{
1070
    19
1005
2696
1002
}
  0
LINE
  5
269A
  8
247
 10
-47.45684920075098
 20
-9.9937835632422072
 30
0.0
 11
-47.511622912909182
 21
-9.820082849130884
 31
0.0
1001
ACAD
1000
ASC_BOUNDS
1002
{
1070
    19
1005
265B
1002
}
  0
POLYLINE
  5
269B
  8
247
 66
     1
 10
0.0
 20
0.0
 30
0.0
 70
     1
  0
VERTEX
  5
269C
  8
247
 10
-47.45684920075098
 20
-9.9937835632422072
 30
0.0
  0
VERTEX
  5
269D
  8
247
 10
-47.511622912909203
 20
-9.820082849130884
 30
0.0
  0
VERTEX
  5
269E
  8
247
 10
-47.511622912909203
 20
-9.820082849130884
 30
0.0
  0
VERTEX
  5
269F
  8
247
 10
-47.45684920075098
 20
-9.9937835632422072
 30
0.0
  0
SEQEND
  5
26A0
  8
247
  0
POLYLINE
  5
26A1
  8
247
 66
     1
 10
0.0
 20
0.0
 30
0.0
 70
     1
1001
HATCH_DISTANCE
1040
1.0
1001
HATCH_DISPLAY
1070
     0
1001
HATCH_TYPE
1070
     7
  0
VERTEX
  5
26A2
  8
247
 10
-47.45684920075098
 20
-9.9937835632422072
 30
0.0
  0
VERTEX
  5
26A3
  8
247
 10
-47.511622912909203
 20
-9.820082849130884
 30
0.0
  0
VERTEX
  5
26A4
  8
247
 10
-47.511622912909203
 20
-9.820082849130884
 30
0.0
  0
VERTEX
  5
26A5
  8
247
 10
-47.45684920075098
 20
-9.9937835632422072
 30
0.0
  0
SEQEND
  5
26A6
  8
247
  0
POLYLINE
  5
26A7
  8
247
 66
     1
 10
0.0
 20
0.0
 30
0.0
 70
     1
  0
VERTEX
  5
26A8
  8
247
 10
-47.45684920075098
 20
-9.9937835632422072
 30
0.0
  0
VERTEX
  5
26A9
  8
247
 10
-47.511622912909203
 20
-9.820082849130884
 30
0.0
  0
VERTEX
  5
26AA
  8
247
 10
-47.511622912909203
 20
-9.820082849130884
 30
0.0
  0
VERTEX
  5
26AB
  8
247
 10
-47.45684920075098
 20
-9.9937835632422072
 30
0.0
  0
SEQEND
  5
26AC
  8
247
  0
POLYLINE
  5
26AD
  8
247
 66
     1
 10
0.0
 20
0.0
 30
0.0
 70
     1
1001
HATCH_DISTANCE
1040
1.0
1001
HATCH_DISPLAY
1070
     0
1001
HATCH_TYPE
1070
     7
  0
VERTEX
  5
26AE
  8
247
 10
-47.45684920075098
 20
-9.9937835632422072
 30
0.0
  0
VERTEX
  5
26AF
  8
247
 10
-47.511622912909203
 20
-9.820082849130884
 30
0.0
  0
VERTEX
  5
26B0
  8
247
 10
-47.511622912909203
 20
-9.820082849130884
 30
0.0
  0
VERTEX
  5
26B1
  8
247
 10
-47.45684920075098
 20
-9.9937835632422072
 30
0.0
  0
SEQEND
  5
26B2
  8
247
  0
LINE
  5
26B3
  8
247
 10
-47.54357939484278
 20
-10.02113265381838
 30
0.0
 11
-47.59835310700096
 21
-9.8474319397070502
 31
0.0
1001
ACAD
1000
ASC_BOUNDS
1002
{
1070
    19
1005
2696
1002
}
  0
ARC
  5
26B4
  8
247
 10
-47.268179614569348
 20
-10.74338759766604
 30
0.0
 40
0.954856538772583
 50
110.22964506332001
 51
118.5716889237176
1001
ACAD
1000
ASC_BOUNDS
1002
{
1070
    19
1005
2696
1002
}
  0
ARC
  5
26B5
  8
247
 10
-47.268179614569348
 20
-10.74338759766604
 30
0.0
 40
0.7729795932769779
 50
110.8721834020771
 51
132.54194893738679
1001
ACAD
1000
ASC_BOUNDS
1002
{
1070
    19
1005
2696
1002
}
  0
LINE
  5
26B6
  8
247
 10
-48.043244464422862
 20
-11.087026208505881
 30
0.0
 11
-47.926452929999023
 21
-10.67972869263674
 31
0.0
1001
ACAD
1000
ASC_BOUNDS
1002
{
1070
    19
1005
2696
1002
}
  0
LINE
  5
26B7
  8
247
 10
-48.077817065741222
 20
-10.67972869263674
 30
0.0
 11
-47.926452929999023
 21
-10.67972869263674
 31
0.0
1001
ACAD
1000
ASC_BOUNDS
1002
{
1070
    19
1005
2696
1002
}
  0
ARC
  5
26B8
  8
247
 10
-48.226819140936527
 20
-11.03438796387697
 30
0.0
 40
0.1909723699092865
 50
164.00027305718379
 51
344.00027305718368
1001
ACAD
1000
ASC_BOUNDS
1002
{
1070
    19
1005
2696
1002
}
  0
LINE
  5
26B9
  8
247
 10
-47.86855498078026
 20
-11.318741816149011
 30
0.0
 11
-47.761864001776367
 21
-11.42542592869783
 31
0.0
1001
ACAD
1000
ASC_BOUNDS
1002
{
1070
    19
1005
2696
1002
}
  0
ARC
  5
26BA
  8
247
 10
-47.268179614569348
 20
-10.74338759766604
 30
0.0
 40
0.9548561096191406
 50
270.0
 51
104.7707939660941
1001
ACAD
1000
ASC_BOUNDS
1002
{
1070
    19
1005
265B
1002
}
  0
LINE
  5
26BB
  8
247
 10
-47.761864001776367
 20
-11.42542592869783
 30
0.0
 11
-47.4958849978701
 21
-10.49785003052736
 31
0.0
1001
ACAD
1000
ASC_BOUNDS
1002
{
1070
    19
1005
2696
1002
}
  0
ARC
  5
26BC
  8
247
 10
-47.268179614569348
 20
-10.74338759766604
 30
0.0
 40
0.7729774475097658
 50
270.0
 51
104.1274364964119
1001
ACAD
1000
ASC_BOUNDS
1002
{
1070
    19
1005
265B
1002
}
  0
LINE
  5
26BD
  8
247
 10
-48.410393817450192
 20
-10.98174971924807
 30
0.0
 11
-48.165275104071291
 21
-10.126924127207049
 31
0.0
1001
ACAD
1000
ASC_BOUNDS
1002
{
1070
    19
1005
2696
1002
}
  0
ARC
  5
26BE
  8
247
 10
-47.240864856268551
 20
-10.865404504404321
 30
0.0
 40
1.546847534179685
 50
155.20517736984041
 51
172.79482596205199
1001
ACAD
1000
ASC_BOUNDS
1002
{
1070
    19
1005
2696
1002
}
  0
LINE
  5
26BF
  8
247
 10
-48.077817065741222
 20
-10.67972869263674
 30
0.0
 11
-48.025666339422848
 21
-10.49785003052736
 31
0.0
1001
ACAD
1000
ASC_BOUNDS
1002
{
1070
    19
1005
2696
1002
}
  0
LINE
  5
26C0
  8
246
 10
-60.0
 20
6.3000000000000123
 30
0.0
 11
-60.0
 21
-6.2999999999999519
 31
0.0
  0
LINE
  5
26C1
  8
246
 10
-63.69059900000002
 20
-2.3094009999999781
 30
0.0
 11
-63.69059900000002
 21
2.3094010000000349
 31
0.0
  0
LINE
  5
26C2
  8
246
 10
-67.601282999999981
 20
-2.3094009999999781
 30
0.0
 11
-67.601282999999981
 21
2.3094010000000349
 31
0.0
  0
LINE
  5
26C3
  8
246
 10
-60.0
 20
-5.9999999999999432
 30
0.0
 11
-63.69059900000002
 21
-2.3094009999999781
 31
0.0
  0
LINE
  5
26C4
  8
246
 10
-67.601282999999981
 20
-1.1547009999999871
 30
0.0
 11
-63.69059900000002
 21
-1.1547009999999871
 31
0.0
  0
LINE
  5
26C5
  8
246
 10
-67.601282999999981
 20
-2.3094009999999781
 30
0.0
 11
-63.69059900000002
 21
-2.3094009999999781
 31
0.0
  0
LINE
  5
26C6
  8
246
 10
-68.000000000000014
 20
-2.9999999999999432
 30
0.0
 11
-68.000000000000014
 21
-1.7725149999999401
 31
0.0
  0
LINE
  5
26C7
  8
246
 10
-67.601282999999981
 20
-2.3094009999999781
 30
0.0
 11
-68.000000000000014
 21
-2.9999999999999432
 31
0.0
  0
LINE
  5
26C8
  8
246
 10
-60.699999999999932
 20
-6.9999999999999432
 30
0.0
 11
-60.0
 21
-6.2999999999999519
 31
0.0
  0
LINE
  5
26C9
  8
246
 10
-60.0
 20
6.0
 30
0.0
 11
-63.69059900000002
 21
2.3094010000000349
 31
0.0
  0
LINE
  5
26CA
  8
246
 10
-67.601282999999981
 20
2.3094010000000349
 30
0.0
 11
-63.69059900000002
 21
2.3094010000000349
 31
0.0
  0
LINE
  5
26CB
  8
246
 10
-67.601282999999981
 20
1.1546999999999901
 30
0.0
 11
-63.69059900000002
 21
1.1546999999999901
 31
0.0
  0
LINE
  5
26CC
  8
246
 10
-67.601282999999981
 20
2.3094010000000349
 30
0.0
 11
-68.000000000000014
 21
3.0
 31
0.0
  0
LINE
  5
26CD
  8
246
 10
-68.000000000000014
 20
3.0
 30
0.0
 11
-68.000000000000014
 21
1.7725149999999961
 31
0.0
  0
LINE
  5
26CE
  8
246
 10
-60.0
 20
6.3000000000000123
 30
0.0
 11
-60.699999999999932
 21
7.0
 31
0.0
  0
LINE
  5
26CF
  8
240
 10
-101.0
 20
11.0
 30
0.0
 11
-101.5
 21
10.5
 31
0.0
  0
LINE
  5
26D0
  8
240
 10
-91.499999999999986
 20
11.0
 30
0.0
 11
-101.0
 21
11.0
 31
0.0
  0
LINE
  5
26D1
  8
240
 10
-90.000000000000014
 20
12.499999999999989
 30
0.0
 11
-91.499999999999986
 21
11.0
 31
0.0
  0
LINE
  5
26D2
  8
241
 10
-22.79999999999999
 20
-12.299999999999949
 30
0.0
 11
-22.79999999999999
 21
12.30000000000001
 31
0.0
  0
LINE
  5
26D3
  8
241
 10
-21.499999999999989
 20
-12.299999999999949
 30
0.0
 11
-21.499999999999989
 21
12.30000000000001
 31
0.0
  0
LINE
  5
26D4
  8
246
 10
-3.19999999999993
 20
8.75
 30
0.0
 11
-3.19999999999993
 21
10.25
 31
0.0
  0
LINE
  5
26D5
  8
246
 10
-3.0
 20
10.25
 30
0.0
 11
0.0
 21
8.5179489999999873
 31
0.0
  0
LINE
  5
26D6
  8
241
 10
-1.581370999999989
 20
17.000946000000049
 30
0.0
 11
-1.581370999999989
 21
-17.152317999999958
 31
0.0
  0
LINE
  5
26D7
  8
240
 10
0.0
 20
15.96004999999996
 30
0.0
 11
0.0
 21
-15.960050999999959
 31
0.0
  0
LINE
  5
26D8
  8
241
 10
-18.5
 20
12.5
 30
0.0
 11
-18.5
 21
0.0
 31
0.0
  0
LINE
  5
26D9
  8
246
 10
-5.600000000000021
 20
10.25
 30
0.0
 11
-5.600000000000021
 21
8.75
 31
0.0
  0
LINE
  5
26DA
  8
241
 10
-15.5
 20
15.0
 30
0.0
 11
-15.5
 21
0.0
 31
0.0
  0
LINE
  5
26DB
  8
241
 10
-16.0
 20
13.0
 30
0.0
 11
-16.0
 21
0.0
 31
0.0
  0
LINE
  5
26DC
  8
246
 10
-5.600000000000021
 20
10.25
 30
0.0
 11
-31.0
 21
7.5803520000000599
 31
0.0
  0
LINE
  5
26DD
  8
246
 10
-31.0
 20
-6.4999999999999432
 30
0.0
 11
0.0
 21
-6.4999999999999432
 31
0.0
  0
LINE
  5
26DE
  8
246
 10
-31.0
 20
6.5
 30
0.0
 11
0.0
 21
6.5
 31
0.0
  0
LINE
  5
26DF
  8
240
 10
-14.69999999999993
 20
-17.49999999999994
 30
0.0
 11
-1.581370999999989
 21
-17.49999999999994
 31
0.0
  0
LINE
  5
26E0
  8
246
 10
-5.600000000000021
 20
8.75
 30
0.0
 11
-3.19999999999993
 21
8.75
 31
0.0
  0
LINE
  5
26E1
  8
246
 10
-5.600000000000021
 20
-8.7499999999999432
 30
0.0
 11
-3.19999999999993
 21
-8.7499999999999432
 31
0.0
  0
LINE
  5
26E2
  8
246
 10
-5.600000000000021
 20
-10.24999999999994
 30
0.0
 11
-31.0
 21
-7.5803529999999428
 31
0.0
  0
LINE
  5
26E3
  8
246
 10
-5.600000000000021
 20
-10.24999999999994
 30
0.0
 11
-5.600000000000021
 21
-8.7499999999999432
 31
0.0
  0
LINE
  5
26E4
  8
241
 10
-16.0
 20
-12.99999999999994
 30
0.0
 11
-16.0
 21
0.0
 31
0.0
  0
LINE
  5
26E5
  8
241
 10
-18.5
 20
-12.49999999999994
 30
0.0
 11
-18.5
 21
0.0
 31
0.0
  0
LINE
  5
26E6
  8
241
 10
-15.5
 20
-14.99999999999994
 30
0.0
 11
-15.5
 21
0.0
 31
0.0
  0
LINE
  5
26E7
  8
240
 10
-21.0
 20
-12.99999999999994
 30
0.0
 11
-16.0
 21
-12.99999999999994
 31
0.0
  0
ARC
  5
26E8
  8
240
 10
-21.0
 20
-12.49999999999994
 30
0.0
 40
0.5
 50
180.0
 51
270.0
  0
LINE
  5
26E9
  8
240
 10
-21.499999999999989
 20
-12.49999999999994
 30
0.0
 11
-21.499999999999989
 21
-12.299999999999949
 31
0.0
  0
LINE
  5
26EA
  8
240
 10
-22.79999999999999
 20
-12.299999999999949
 30
0.0
 11
-21.499999999999989
 21
-12.299999999999949
 31
0.0
  0
LINE
  5
26EB
  8
240
 10
-22.999999999999929
 20
-12.49999999999994
 30
0.0
 11
-22.79999999999999
 21
-12.299999999999949
 31
0.0
  0
LINE
  5
26EC
  8
241
 10
-6.5
 20
-16.056144999999951
 30
0.0
 11
-15.5
 21
-16.056144999999951
 31
0.0
  0
LINE
  5
26ED
  8
241
 10
-6.5
 20
-14.056144999999949
 30
0.0
 11
-15.5
 21
-14.056144999999949
 31
0.0
  0
LINE
  5
26EE
  8
240
 10
-16.0
 20
-14.49999999999994
 30
0.0
 11
-16.0
 21
-12.99999999999994
 31
0.0
  0
LINE
  5
26EF
  8
240
 10
-15.5
 20
-16.699999999999989
 30
0.0
 11
-15.5
 21
-14.99999999999994
 31
0.0
  0
LINE
  5
26F0
  8
240
 10
-16.0
 20
-14.49999999999994
 30
0.0
 11
-15.5
 21
-14.99999999999994
 31
0.0
  0
ARC
  5
26F1
  8
240
 10
-14.69999999999993
 20
-16.699999999999989
 30
0.0
 40
0.8
 50
180.0
 51
270.0
  0
LINE
  5
26F2
  8
242
 10
-16.0
 20
-12.49999999999994
 30
0.0
 11
-18.5
 21
-12.49999999999994
 31
0.0
  0
LINE
  5
26F3
  8
242
 10
-18.5
 20
-12.49999999999994
 30
0.0
 11
-19.0
 21
-12.99999999999994
 31
0.0
  0
LINE
  5
26F4
  8
241
 10
-6.5
 20
-16.056144999999951
 30
0.0
 11
-6.5
 21
-14.056144999999949
 31
0.0
  0
ARC
  5
26F5
  8
241
 10
-37.900000000000361
 20
-0.0000000000000062
 30
0.0
 40
12.500000000000339
 50
335.78319898661408
 51
24.21678341329196
  0
LINE
  5
26F6
  8
241
 10
-26.5
 20
-5.1273774973177426
 30
0.0
 11
-26.5
 21
5.1273774973177426
 31
0.0
  0
LINE
  5
26F7
  8
246
 10
-31.00000000000005
 20
7.5803520000000031
 30
0.0
 11
-31.00000000000005
 21
-7.5803530000000006
 31
0.0
  0
LINE
  5
26F8
  8
241
 10
-6.5
 20
2.0
 30
0.0
 11
-6.5
 21
0.0
 31
0.0
  0
LINE
  5
26F9
  8
241
 10
-6.5
 20
-1.999999999999942
 30
0.0
 11
-15.5
 21
-1.999999999999942
 31
0.0
  0
LINE
  5
26FA
  8
241
 10
-6.5
 20
-1.999999999999942
 30
0.0
 11
-6.5
 21
0.0
 31
0.0
  0
LINE
  5
26FB
  8
241
 10
-6.5
 20
2.0
 30
0.0
 11
-15.5
 21
2.0
 31
0.0
  0
LINE
  5
26FC
  8
246
 10
-3.0
 20
-10.24999999999994
 30
0.0
 11
0.0
 21
-8.5179489999999873
 31
0.0
  0
LINE
  5
26FD
  8
246
 10
-3.19999999999993
 20
-8.7499999999999432
 30
0.0
 11
-3.19999999999993
 21
-10.24999999999994
 31
0.0
  0
LINE
  5
26FE
  8
240
 10
-1.015686000000072
 20
-17.265685999999949
 30
0.0
 11
-0.2050249999999778
 21
-16.455024999999971
 31
0.0
  0
ARC
  5
26FF
  8
240
 10
-1.581370999999989
 20
-16.699999999999989
 30
0.0
 40
0.8
 50
270.0
 51
315.0
  0
ARC
  5
2700
  8
240
 10
-0.6999999999999318
 20
-15.960050999999959
 30
0.0
 40
0.7
 50
315.0
 51
0.0
  0
LINE
  5
2701
  8
246
 10
-3.19999999999993
 20
-10.24999999999994
 30
0.0
 11
-3.0
 21
-10.24999999999994
 31
0.0
  0
LINE
  5
2702
  8
240
 10
-14.69999999999993
 20
17.5
 30
0.0
 11
-1.581370999999989
 21
17.5
 31
0.0
  0
LINE
  5
2703
  8
240
 10
-16.0
 20
13.0
 30
0.0
 11
-21.0
 21
12.999999999999989
 31
0.0
  0
LINE
  5
2704
  8
240
 10
-21.499999999999989
 20
12.30000000000001
 30
0.0
 11
-21.499999999999989
 21
12.49999999999994
 31
0.0
  0
ARC
  5
2705
  8
240
 10
-21.0
 20
12.49999999999994
 30
0.0
 40
0.5
 50
90.000000000000057
 51
180.0
  0
LINE
  5
2706
  8
240
 10
-22.79999999999999
 20
12.30000000000001
 30
0.0
 11
-21.499999999999989
 21
12.30000000000001
 31
0.0
  0
LINE
  5
2707
  8
240
 10
-22.79999999999999
 20
12.30000000000001
 30
0.0
 11
-22.999999999999929
 21
12.5
 31
0.0
  0
LINE
  5
2708
  8
240
 10
-21.499999999999989
 20
12.30000000000001
 30
0.0
 11
-21.499999999999989
 21
11.999999999999989
 31
0.0
  0
LINE
  5
2709
  8
241
 10
-6.5
 20
14.05614500000001
 30
0.0
 11
-15.5
 21
14.05614500000001
 31
0.0
  0
LINE
  5
270A
  8
241
 10
-6.5
 20
16.056145000000011
 30
0.0
 11
-15.5
 21
16.056145000000011
 31
0.0
  0
LINE
  5
270B
  8
240
 10
-16.0
 20
14.5
 30
0.0
 11
-15.5
 21
15.0
 31
0.0
  0
LINE
  5
270C
  8
242
 10
-16.0
 20
12.5
 30
0.0
 11
-18.5
 21
12.5
 31
0.0
  0
LINE
  5
270D
  8
242
 10
-18.5
 20
12.5
 30
0.0
 11
-19.0
 21
13.0
 31
0.0
  0
LINE
  5
270E
  8
240
 10
-16.0
 20
14.5
 30
0.0
 11
-16.0
 21
13.0
 31
0.0
  0
LINE
  5
270F
  8
240
 10
-15.5
 20
16.699999999999989
 30
0.0
 11
-15.5
 21
15.0
 31
0.0
  0
ARC
  5
2710
  8
240
 10
-14.69999999999993
 20
16.699999999999989
 30
0.0
 40
0.8
 50
90.0
 51
180.0
  0
LINE
  5
2711
  8
241
 10
-6.5
 20
16.056145000000011
 30
0.0
 11
-6.5
 21
14.05614500000001
 31
0.0
  0
LINE
  5
2712
  8
246
 10
-3.19999999999993
 20
10.25
 30
0.0
 11
-3.0
 21
10.25
 31
0.0
  0
LINE
  5
2713
  8
240
 10
-0.2050249999999778
 20
16.455024999999971
 30
0.0
 11
-1.015686000000072
 21
17.265685000000008
 31
0.0
  0
ARC
  5
2714
  8
240
 10
-1.581370999999989
 20
16.699999999999989
 30
0.0
 40
0.8
 50
44.999999999999922
 51
90.0
  0
ARC
  5
2715
  8
240
 10
-0.6999999999999318
 20
15.96004999999996
 30
0.0
 40
0.7
 50
0.0
 51
44.999999999999922
  0
LINE
  5
2717
  8
250
 10
-101.5
 20
11.0
 30
0.0
 11
-101.5
 21
29.0
 31
0.0
  0
LINE
  5
2718
  8
250
 10
-21.499999999999989
 20
12.999999999999989
 30
0.0
 11
-21.499999999999989
 21
29.0
 31
0.0
  0
LINE
  5
2719
  8
250
 10
-99.269999999999996
 20
28.0
 30
0.0
 11
-23.73
 21
28.0
 31
0.0
  0
LINE
  5
271D
  8
250
 10
-101.5
 20
11.0
 30
0.0
 11
-101.5
 21
36.0
 31
0.0
  0
LINE
  5
271E
  8
250
 10
0.0000000000000682
 20
16.46004999999996
 30
0.0
 11
0.0000000000000694
 21
36.0
 31
0.0
  0
LINE
  5
271F
  8
250
 10
-99.269999999999996
 20
35.0
 30
0.0
 11
-2.2299999999999289
 21
35.0
 31
0.0
  0
LINE
  5
2723
  8
250
 10
-21.499999999999989
 20
12.5
 30
0.0
 11
-21.499999999999989
 21
29.0
 31
0.0
  0
LINE
  5
2724
  8
250
 10
0.0000000000000682
 20
16.46004999999996
 30
0.0
 11
0.000000000000069
 21
29.0
 31
0.0
  0
LINE
  5
2725
  8
250
 10
-19.269999999999989
 20
28.0
 30
0.0
 11
-2.2299999999999311
 21
28.0
 31
0.0
  0
LINE
  5
2729
  8
250
 10
-1.0813709999999901
 20
-17.5
 30
0.0
 11
21.999999999999972
 21
-17.5
 31
0.0
  0
LINE
  5
272A
  8
250
 10
-1.0813709999999901
 20
17.5
 30
0.0
 11
21.999999999999989
 21
17.499999999999989
 31
0.0
  0
LINE
  5
272B
  8
250
 10
20.999999999999989
 20
-15.27
 30
0.0
 11
20.999999999999989
 21
15.269999999999991
 31
0.0
  0
LINE
  5
272F
  8
250
 10
0.5
 20
-6.4999999999999432
 30
0.0
 11
14.999999999999989
 21
-6.4999999999999458
 31
0.0
  0
LINE
  5
2730
  8
250
 10
0.5
 20
6.5
 30
0.0
 11
15.0
 21
6.4999999999999938
 31
0.0
  0
LINE
  5
2731
  8
250
 10
13.999999999999989
 20
-4.2699999999999472
 30
0.0
 11
14.0
 21
4.269999999999996
 31
0.0
  0
LINE
  5
2735
  8
250
 10
-60.0
 20
-6.7999999999999519
 30
0.0
 11
-60.0
 21
-36.0
 31
0.0
  0
LINE
  5
2736
  8
250
 10
0.0000000000000568
 20
-16.460050999999961
 30
0.0
 11
0.0000000000000556
 21
-36.0
 31
0.0
  0
LINE
  5
2737
  8
250
 10
-57.77000000000001
 20
-35.0
 30
0.0
 11
-2.229999999999944
 21
-35.0
 31
0.0
  0
LINE
  5
273B
  8
250
 10
-90.500000000000071
 20
-12.499999999999931
 30
0.0
 11
-113.0
 21
-12.49999999999992
 31
0.0
  0
LINE
  5
273C
  8
250
 10
-90.5
 20
12.499999999999989
 30
0.0
 11
-113.0
 21
12.5
 31
0.0
  0
LINE
  5
273D
  8
250
 10
-112.0
 20
-10.26999999999992
 30
0.0
 11
-112.0
 21
10.27
 31
0.0
  0
TEXT
  5
2741
  8
250
 10
-113.0
 20
-4.071428571428549
 30
0.0
 40
3.0
  1
\U+2205
 50
90.0
1001
ACAD
1000
MTEXTBEGIN
1070
    73
1070
     1
1070
    44
1040
1.0
1070
    74
1070
     0
1000
MTEXTEND
  0
TEXT
  5
2742
  8
250
 10
-113.0
 20
-1.357142857142835
 30
0.0
 40
3.0
  1
25
 50
90.0
1001
ACAD
1000
MTEXTBEGIN
1070
    73
1070
     1
1070
    44
1040
1.0
1070
    74
1070
     0
1000
MTEXTEND
  0
LINE
  5
2743
  8
250
 10
-112.3716666666666
 20
10.27
 30
0.0
 11
-112.0
 21
12.5
 31
0.0
  0
LINE
  5
2744
  8
250
 10
-111.6283333333333
 20
10.27
 30
0.0
 11
-112.0
 21
12.5
 31
0.0
  0
LINE
  5
2745
  8
250
 10
-112.0
 20
12.5
 30
0.0
 11
-112.0
 21
10.27
 31
0.0
  0
LINE
  5
2746
  8
250
 10
-111.6283333333333
 20
-10.26999999999992
 30
0.0
 11
-112.0
 21
-12.49999999999992
 31
0.0
  0
LINE
  5
2747
  8
250
 10
-112.3716666666666
 20
-10.26999999999992
 30
0.0
 11
-112.0
 21
-12.49999999999992
 31
0.0
  0
LINE
  5
2748
  8
250
 10
-112.0
 20
-12.49999999999992
 30
0.0
 11
-112.0
 21
-10.26999999999992
 31
0.0
  0
TEXT
  5
2749
  8
250
 10
-37.514285714285691
 20
-34.0
 30
0.0
 40
3.0
  1
41ü`60
1001
ACAD
1000
MTEXTBEGIN
1070
    73
1070
     1
1070
    44
1040
1.0
1070
    74
1070
     0
1000
MTEXTEND
  0
LINE
  5
274A
  8
250
 10
-2.2299999999999431
 20
-34.62833333333333
 30
0.0
 11
0.0000000000000557
 21
-35.0
 31
0.0
  0
LINE
  5
274B
  8
250
 10
-2.2299999999999431
 20
-35.37166666666667
 30
0.0
 11
0.0000000000000557
 21
-35.0
 31
0.0
  0
LINE
  5
274C
  8
250
 10
0.0000000000000557
 20
-35.0
 30
0.0
 11
-2.2299999999999431
 21
-35.0
 31
0.0
  0
LINE
  5
274D
  8
250
 10
-57.77000000000001
 20
-35.37166666666667
 30
0.0
 11
-60.0
 21
-35.0
 31
0.0
  0
LINE
  5
274E
  8
250
 10
-57.77000000000001
 20
-34.62833333333333
 30
0.0
 11
-60.0
 21
-35.0
 31
0.0
  0
LINE
  5
274F
  8
250
 10
-60.0
 20
-35.0
 30
0.0
 11
-57.77000000000001
 21
-35.0
 31
0.0
  0
TEXT
  5
2750
  8
250
 10
19.999999999999989
 20
-4.0714285714285721
 30
0.0
 40
3.0
  1
\U+2205
 50
90.0
1001
ACAD
1000
MTEXTBEGIN
1070
    73
1070
     1
1070
    44
1040
1.0
1070
    74
1070
     0
1000
MTEXTEND
  0
TEXT
  5
2751
  8
250
 10
19.999999999999989
 20
-1.3571428571428581
 30
0.0
 40
3.0
  1
35
 50
90.0
1001
ACAD
1000
MTEXTBEGIN
1070
    73
1070
     1
1070
    44
1040
1.0
1070
    74
1070
     0
1000
MTEXTEND
  0
LINE
  5
2752
  8
250
 10
20.62833333333332
 20
15.269999999999991
 30
0.0
 11
20.999999999999989
 21
17.499999999999989
 31
0.0
  0
LINE
  5
2753
  8
250
 10
21.371666666666648
 20
15.269999999999991
 30
0.0
 11
20.999999999999989
 21
17.499999999999989
 31
0.0
  0
LINE
  5
2754
  8
250
 10
20.999999999999989
 20
17.499999999999989
 30
0.0
 11
20.999999999999989
 21
15.269999999999991
 31
0.0
  0
LINE
  5
2755
  8
250
 10
21.371666666666648
 20
-15.27
 30
0.0
 11
20.999999999999989
 21
-17.5
 31
0.0
  0
LINE
  5
2756
  8
250
 10
20.62833333333332
 20
-15.27
 30
0.0
 11
20.999999999999989
 21
-17.5
 31
0.0
  0
LINE
  5
2757
  8
250
 10
20.999999999999989
 20
-17.5
 30
0.0
 11
20.999999999999989
 21
-15.27
 31
0.0
  0
LINE
  5
2758
  8
250
 10
13.62833333333333
 20
4.269999999999996
 30
0.0
 11
14.0
 21
6.4999999999999947
 31
0.0
  0
LINE
  5
2759
  8
250
 10
14.371666666666661
 20
4.269999999999996
 30
0.0
 11
14.0
 21
6.4999999999999947
 31
0.0
  0
LINE
  5
275A
  8
250
 10
14.0
 20
6.4999999999999947
 30
0.0
 11
14.0
 21
4.269999999999996
 31
0.0
  0
LINE
  5
275B
  8
250
 10
14.371666666666661
 20
-4.2699999999999481
 30
0.0
 11
13.999999999999989
 21
-6.4999999999999449
 31
0.0
  0
LINE
  5
275C
  8
250
 10
13.62833333333332
 20
-4.2699999999999481
 30
0.0
 11
13.999999999999989
 21
-6.4999999999999449
 31
0.0
  0
LINE
  5
275D
  8
250
 10
13.999999999999989
 20
-6.4999999999999449
 30
0.0
 11
13.999999999999989
 21
-4.2699999999999481
 31
0.0
  0
TEXT
  5
275E
  8
250
 10
13.33780158699277
 20
-6.5533252404938871
 30
0.0
 40
3.0
  1
MAX.\U+220513
 50
90.0
  0
TEXT
  5
275F
  8
250
 10
-64.357142857142861
 20
29.0
 30
0.0
 40
3.0
  1
80
1001
ACAD
1000
MTEXTBEGIN
1070
    73
1070
     1
1070
    44
1040
1.0
1070
    74
1070
     0
1000
MTEXTEND
  0
LINE
  5
2760
  8
250
 10
-23.72999999999999
 20
28.371666666666659
 30
0.0
 11
-21.499999999999989
 21
28.0
 31
0.0
  0
LINE
  5
2761
  8
250
 10
-23.72999999999999
 20
27.62833333333333
 30
0.0
 11
-21.499999999999989
 21
28.0
 31
0.0
  0
LINE
  5
2762
  8
250
 10
-21.499999999999989
 20
28.0
 30
0.0
 11
-23.72999999999999
 21
28.0
 31
0.0
  0
LINE
  5
2763
  8
250
 10
-99.269999999999996
 20
27.62833333333333
 30
0.0
 11
-101.5
 21
28.0
 31
0.0
  0
LINE
  5
2764
  8
250
 10
-99.269999999999996
 20
28.371666666666659
 30
0.0
 11
-101.5
 21
28.0
 31
0.0
  0
LINE
  5
2765
  8
250
 10
-101.5
 20
28.0
 30
0.0
 11
-99.269999999999996
 21
28.0
 31
0.0
  0
TEXT
  5
2766
  8
250
 10
-57.392857142857103
 20
36.0
 30
0.0
 40
3.0
  1
101.5
1001
ACAD
1000
MTEXTBEGIN
1070
    73
1070
     1
1070
    44
1040
1.0
1070
    74
1070
     0
1000
MTEXTEND
  0
LINE
  5
2767
  8
250
 10
-2.229999999999928
 20
35.37166666666667
 30
0.0
 11
0.0000000000000693
 21
35.0
 31
0.0
  0
LINE
  5
2768
  8
250
 10
-2.229999999999928
 20
34.62833333333333
 30
0.0
 11
0.0000000000000693
 21
35.0
 31
0.0
  0
LINE
  5
2769
  8
250
 10
0.0000000000000693
 20
35.0
 30
0.0
 11
-2.229999999999928
 21
35.0
 31
0.0
  0
LINE
  5
276A
  8
250
 10
-99.269999999999996
 20
34.62833333333333
 30
0.0
 11
-101.5
 21
35.0
 31
0.0
  0
LINE
  5
276B
  8
250
 10
-99.269999999999996
 20
35.37166666666667
 30
0.0
 11
-101.5
 21
35.0
 31
0.0
  0
LINE
  5
276C
  8
250
 10
-101.5
 20
35.0
 30
0.0
 11
-99.269999999999996
 21
35.0
 31
0.0
  0
TEXT
  5
276D
  8
250
 10
-15.749999999999959
 20
29.0
 30
0.0
 40
3.0
  1
21.5
1001
ACAD
1000
MTEXTBEGIN
1070
    73
1070
     1
1070
    44
1040
1.0
1070
    74
1070
     0
1000
MTEXTEND
  0
LINE
  5
276E
  8
250
 10
-2.2299999999999289
 20
28.371666666666659
 30
0.0
 11
0.0000000000000689
 21
28.0
 31
0.0
  0
LINE
  5
276F
  8
250
 10
-2.2299999999999289
 20
27.62833333333333
 30
0.0
 11
0.0000000000000689
 21
28.0
 31
0.0
  0
LINE
  5
2770
  8
250
 10
0.0000000000000689
 20
28.0
 30
0.0
 11
-2.2299999999999289
 21
28.0
 31
0.0
  0
LINE
  5
2771
  8
250
 10
-19.269999999999989
 20
27.62833333333333
 30
0.0
 11
-21.499999999999989
 21
28.0
 31
0.0
  0
LINE
  5
2772
  8
250
 10
-19.269999999999989
 20
28.371666666666659
 30
0.0
 11
-21.499999999999989
 21
28.0
 31
0.0
  0
LINE
  5
2773
  8
250
 10
-21.499999999999989
 20
28.0
 30
0.0
 11
-19.269999999999989
 21
28.0
 31
0.0
  0
VIEWPORT
  5
22
 67
     1
  8
0
 10
261.51769911504419
 20
148.5
 30
0.0
 40
523.0353982300885
 41
297.0
 68
     1
 69
     1
1001
ACAD
1000
MVIEW
1002
{
1070
    16
1010
0.0
1020
0.0
1030
0.0
1010
0.0
1020
0.0
1030
1.0
1040
0.0
1040
297.0
1040
261.51769911504419
1040
148.5
1040
50.0
1040
0.0
1040
0.0
1070
     0
1070
   100
1070
     1
1070
     1
1070
     0
1070
     0
1070
     0
1070
     0
1040
0.0
1040
0.0
1040
0.0
1040
1.0
1040
1.0
1040
10.0
1040
10.0
1070
     0
1002
{
1002
}
1002
}
1001
GENIUS_GENOBJ-N-SDF_13
1002
{
1000
OWNER
1000
GEN
1002
}
1001
GENIUS_GENODEF_13
1002
{
1000
HIER
1070
     0
1002
}
1002
{
1000
MANEDIT
1070
     0
1002
}
1002
{
1000
NOSEL
1070
     0
1002
}
1002
{
1000
BEHIND
1070
     0
1002
}
1002
{
1000
OTHER
1070
     0
1002
}
1002
{
1000
REACTOR
1002
}
1001
GENIUS_GENSCREG_15
1000
PF
1040
1.0
1000
DF
1040
1.0
1000
MIN
1011
0.0
1021
0.0
1031
0.0
1021
0.0
1031
0.0
1000
MAX
1011
523.0353982300885
1021
0.0
1031
0.0
1021
297.0
1031
0.0
1000
FLAGS
1070
     2
  0
ENDSEC
  0
EOF
