  0
SECTION
  2
HEADER
  9
$ACADVER
  1
AC1009
  9
$INSBASE
 10
0.0
 20
0.0
 30
0.0
  9
$EXTMIN
 10
-114.02508391809511
 20
-29.014586511982369
 30
-0.0000000349181948
  9
$EXTMAX
 10
22.00491501320505
 20
54.008500288230998
 30
0.0000000814935747
  9
$LIMMIN
 10
0.0
 20
0.0
  9
$LIMMAX
 10
297.0
 20
210.0
  9
$ORTHOMODE
 70
     0
  9
$REGENMODE
 70
     1
  9
$FILLMODE
 70
     1
  9
$QTEXTMODE
 70
     0
  9
$MIRRTEXT
 70
     1
  9
$DRAGMODE
 70
     2
  9
$LTSCALE
 40
10.0
  9
$OSMODE
 70
    39
  9
$ATTMODE
 70
     1
  9
$TEXTSIZE
 40
3.0
  9
$TRACEWID
 40
1.0
  9
$TEXTSTYLE
  7
YOKO
  9
$CLAYER
  8
240
  9
$CELTYPE
  6
BYLAYER
  9
$CECOLOR
 62
   256
  9
$DIMSCALE
 40
1.0
  9
$DIMASZ
 40
2.2299999999999991
  9
$DIMEXO
 40
0.5
  9
$DIMDLI
 40
2.5
  9
$DIMRND
 40
0.0
  9
$DIMDLE
 40
0.0
  9
$DIMEXE
 40
1.0
  9
$DIMTP
 40
0.0
  9
$DIMTM
 40
0.0
  9
$DIMTXT
 40
3.0
  9
$DIMCEN
 40
0.0
  9
$DIMTSZ
 40
0.0
  9
$DIMTOL
 70
     0
  9
$DIMLIM
 70
     0
  9
$DIMTIH
 70
     0
  9
$DIMTOH
 70
     0
  9
$DIMSE1
 70
     0
  9
$DIMSE2
 70
     0
  9
$DIMTAD
 70
     3
  9
$DIMZIN
 70
     8
  9
$DIMBLK
  1
OPEN
  9
$DIMASO
 70
     1
  9
$DIMSHO
 70
     1
  9
$DIMPOST
  1

  9
$DIMAPOST
  1

  9
$DIMALT
 70
     0
  9
$DIMALTD
 70
     2
  9
$DIMALTF
 40
25.399999999999999
  9
$DIMLFAC
 40
1.0
  9
$DIMTOFL
 70
     1
  9
$DIMTVP
 40
0.0
  9
$DIMTIX
 70
     0
  9
$DIMSOXD
 70
     0
  9
$DIMSAH
 70
     0
  9
$DIMBLK1
  1

  9
$DIMBLK2
  1

  9
$DIMSTYLE
  2
BIGT
  9
$DIMCLRD
 70
   256
  9
$DIMCLRE
 70
   256
  9
$DIMCLRT
 70
    40
  9
$DIMTFAC
 40
1.0
  9
$DIMGAP
 40
1.0
  9
$LUNITS
 70
     2
  9
$LUPREC
 70
     3
  9
$SKETCHINC
 40
1.0
  9
$FILLETRAD
 40
1.0
  9
$AUNITS
 70
     0
  9
$AUPREC
 70
     3
  9
$MENU
  1
.
  9
$ELEVATION
 40
0.0
  9
$PELEVATION
 40
0.0
  9
$THICKNESS
 40
0.0
  9
$LIMCHECK
 70
     0
  9
$BLIPMODE
 70
     0
  9
$CHAMFERA
 40
0.3
  9
$CHAMFERB
 40
0.3
  9
$SKPOLY
 70
     0
  9
$TDCREATE
 40
2452180.6568630561
  9
$TDUPDATE
 40
2456315.6670663548
  9
$TDINDWG
 40
0.1401960301
  9
$TDUSRTIMER
 40
0.1401958565
  9
$USRTIMER
 70
     1
  9
$ANGBASE
 50
0.0
  9
$ANGDIR
 70
     0
  9
$PDMODE
 70
    35
  9
$PDSIZE
 40
2.0
  9
$PLINEWID
 40
0.0
  9
$COORDS
 70
     0
  9
$SPLFRAME
 70
     0
  9
$SPLINETYPE
 70
     6
  9
$SPLINESEGS
 70
     8
  9
$ATTDIA
 70
     1
  9
$ATTREQ
 70
     1
  9
$HANDLING
 70
     1
  9
$HANDSEED
  5
22FB
  9
$SURFTAB1
 70
     6
  9
$SURFTAB2
 70
     6
  9
$SURFTYPE
 70
     6
  9
$SURFU
 70
     6
  9
$SURFV
 70
     6
  9
$UCSNAME
  2

  9
$UCSORG
 10
0.0
 20
0.0
 30
0.0
  9
$UCSXDIR
 10
1.0
 20
0.0
 30
0.0
  9
$UCSYDIR
 10
0.0
 20
1.0
 30
0.0
  9
$PUCSNAME
  2

  9
$PUCSORG
 10
0.0
 20
0.0
 30
0.0
  9
$PUCSXDIR
 10
1.0
 20
0.0
 30
0.0
  9
$PUCSYDIR
 10
0.0
 20
1.0
 30
0.0
  9
$USERI1
 70
     1
  9
$USERI2
 70
     0
  9
$USERI3
 70
     0
  9
$USERI4
 70
     0
  9
$USERI5
 70
     0
  9
$USERR1
 40
0.0
  9
$USERR2
 40
0.0
  9
$USERR3
 40
0.0
  9
$USERR4
 40
0.0
  9
$USERR5
 40
0.0
  9
$WORLDVIEW
 70
     1
  9
$SHADEDGE
 70
     3
  9
$SHADEDIF
 70
    70
  9
$TILEMODE
 70
     1
  9
$MAXACTVP
 70
    16
  9
$PLIMCHECK
 70
     0
  9
$PEXTMIN
 10
1.0000000000000000E+020
 20
1.0000000000000000E+020
 30
1.0000000000000000E+020
  9
$PEXTMAX
 10
-1.0000000000000000E+020
 20
-1.0000000000000000E+020
 30
-1.0000000000000000E+020
  9
$PLIMMIN
 10
0.0
 20
0.0
  9
$PLIMMAX
 10
420.0
 20
297.0
  9
$UNITMODE
 70
     0
  9
$VISRETAIN
 70
     0
  9
$PLINEGEN
 70
     0
  9
$PSLTSCALE
 70
     1
  0
ENDSEC
  0
SECTION
  2
TABLES
  0
TABLE
  2
VPORT
 70
     7
  0
VPORT
  2
*ACTIVE
 70
     0
 10
0.0
 20
0.0
 11
1.0
 21
1.0
 12
-46.010084452445021
 22
12.496956888124309
 13
0.0
 23
0.0
 14
7.0
 24
7.0
 15
7.0
 25
7.0
 16
0.0
 26
0.0
 36
1.0
 17
0.0
 27
0.0
 37
0.0
 40
93.581499135928851
 41
1.4600431965442759
 42
50.0
 43
0.0
 44
0.0
 50
0.0
 51
0.0
 71
     0
 72
  2000
 73
     1
 74
     0
 75
     0
 76
     1
 77
     0
 78
     0
  0
ENDTAB
  0
TABLE
  2
LTYPE
 70
    13
  0
LTYPE
  2
CONTINUOUS
 70
     0
  3
Solid line
 72
    65
 73
     0
 40
0.0
  0
LTYPE
  2
CENTER2
 70
     0
  3
___ _ ___ _ ___ _ ___ _ ___ _ ___ _ ___ _ ___ _
 72
    65
 73
     4
 40
1.125
 49
0.75
 49
-0.125
 49
0.125
 49
-0.125
  0
LTYPE
  2
PHANTOM2
 70
     0
  3
___ _ _ ___ _ _ ___ _ _ ___ _ _ ___ _ _ ___ _ _
 72
    65
 73
     6
 40
1.25
 49
0.625
 49
-0.125
 49
0.125
 49
-0.125
 49
0.125
 49
-0.125
  0
LTYPE
  2
HIDDEN2
 70
     0
  3
_ _ _ _ _ _ _ _ _ _ _ _ _ _ _ _ _ _ _ _ _ _ _ _
 72
    65
 73
     2
 40
0.1875
 49
0.125
 49
-0.0625
  0
LTYPE
  2
AMCONSTR
 70
     0
  3
_______________________
 72
    65
 73
     2
 40
9999.0
 49
9999.0
 49
0.0
  0
LTYPE
  2
AM_ISO02W050
 70
     0
  3
__ __ __ __ __ __ __ __ __ __ __ __ __ __ __
 72
    65
 73
     2
 40
7.5
 49
6.0
 49
-1.5
  0
LTYPE
  2
HIDDEN
 70
     0
  3
Hidden __ __ __ __ __ __ __ __ __ __ __ __ __ _
 72
    65
 73
     2
 40
9.5249999999999986
 49
6.3499999999999988
 49
-3.1749999999999989
  0
LTYPE
  2
CENTER
 70
     0
  3
____ _ ____ _ ____ _ ____ _ ____ _ ____ _ ____ 
 72
    65
 73
     4
 40
2.0
 49
1.25
 49
-0.25
 49
0.25
 49
-0.25
  0
LTYPE
  2
ACJISTGB
 70
     0
  3
__ . . __ . .
 72
    65
 73
     6
 40
9.0
 49
4.0
 49
-1.0
 49
1.0
 49
-1.0
 49
1.0
 49
-1.0
  0
LTYPE
  2
ACJISTGL
 70
     0
  3
_ _ _ _ _
 72
    65
 73
     2
 40
3.0
 49
2.0
 49
-1.0
  0
LTYPE
  2
ACISOWELD
 70
     0
  3
_ _ _ _ _
 72
    65
 73
     2
 40
2.0
 49
2.0
 49
-1.0
  0
LTYPE
  2
ACISOTGB
 70
     0
  3
__ . . __ . .
 72
    65
 73
     6
 40
9.0
 49
4.0
 49
-1.0
 49
1.0
 49
-1.0
 49
1.0
 49
-1.0
  0
LTYPE
  2
ACISOTGL
 70
     0
  3
_ _ _ _ _
 72
    65
 73
     2
 40
3.0
 49
2.0
 49
-1.0
  0
ENDTAB
  0
TABLE
  2
LAYER
 70
    10
  0
LAYER
  2
0
 70
     0
 62
     7
  6
CONTINUOUS
  0
LAYER
  2
240
 70
     0
 62
     4
  6
CONTINUOUS
  0
LAYER
  2
241
 70
     0
 62
   211
  6
CONTINUOUS
  0
LAYER
  2
242
 70
     0
 62
     3
  6
CONTINUOUS
  0
LAYER
  2
245
 70
     0
 62
     2
  6
CENTER2
  0
LAYER
  2
246
 70
     0
 62
     3
  6
PHANTOM2
  0
LAYER
  2
247
 70
     0
 62
    60
  6
CONTINUOUS
  0
LAYER
  2
250
 70
     0
 62
     3
  6
CONTINUOUS
  0
LAYER
  2
DEFPOINTS
 70
     0
 62
     7
  6
CONTINUOUS
  0
ENDTAB
  0
TABLE
  2
STYLE
 70
     6
  0
STYLE
  2
STANDARD
 70
     0
 40
0.0
 41
1.0
 50
0.0
 71
     0
 42
3.0
  3
romans.shx
  4
BIGFONT.SHX
  0
STYLE
  2
YOKO
 70
     0
 40
0.0
 41
1.0
 50
0.0
 71
     0
 42
3.0
  3
romans.shx
  4
extfont.shx
  0
STYLE
  2
ACJISGDT
 70
     0
 40
0.0
 41
1.0
 50
0.0
 71
     0
 42
3.0
  3
amgdt.shx
  4
extfont.shx
  0
STYLE
  2
ACJISTS
 70
     0
 40
1.0
 41
1.0
 50
0.0
 71
     0
 42
3.0
  3
amgdt.shx
  4
extfont.shx
  0
STYLE
  2
ACISOTS
 70
     0
 40
1.0
 41
1.0
 50
0.0
 71
     0
 42
3.0
  3
amgdt.shx
  4
extfont.shx
  0
STYLE
  2
ACISOGDT
 70
     0
 40
0.0
 41
1.0
 50
0.0
 71
     0
 42
3.0
  3
amgdt.shx
  4
extfont.shx
  0
ENDTAB
  0
TABLE
  2
VIEW
 70
     0
  0
ENDTAB
  0
TABLE
  2
UCS
 70
     0
  0
ENDTAB
  0
TABLE
  2
APPID
 70
    31
  0
APPID
  2
ACAD
 70
     0
  0
APPID
  2
GLOBAL
 70
     0
  0
APPID
  2
DETAIL
 70
     0
  0
APPID
  2
GRPNAME
 70
     0
  0
APPID
  2
GPARA
 70
     0
  0
APPID
  2
ITEMNAME
 70
     0
  0
APPID
  2
HATCH_TYPE
 70
     0
  0
APPID
  2
HATCH_DISPLAY
 70
     0
  0
APPID
  2
HATCH_DISTANCE
 70
     0
  0
APPID
  2
MCAD_NO_VIS
 70
     0
  0
APPID
  2
ACAD_TEMP_GRAPHIC
 70
     0
  0
APPID
  2
ACATTRIBSERVICES
 70
     0
  0
APPID
  2
GENIUS_GENSCREG_15
 70
     0
  0
APPID
  2
GENIUS_GENODEF_13
 70
     0
  0
APPID
  2
GENIUS_GENOBJ-N-SDF_13
 70
     0
  0
APPID
  2
GENIUS_GENREC_14
 70
     0
  0
APPID
  2
GENIUS_GENOBJ-N-REC_13
 70
     0
  0
APPID
  2
GENIUS_GENDIMSH_14
 70
     0
  0
APPID
  2
GENIUS_GENOBJ-N-DIM_13
 70
     0
  0
APPID
  2
GENIUS_GENDIM_13
 70
     0
  0
APPID
  2
GENIUS_GENDTOL_13
 70
     0
  0
APPID
  2
GENIUS_GENOLIS_13
 70
     0
  0
APPID
  2
GENIUS_GENOENT_13
 70
     0
  0
APPID
  2
GENIUS_GENOBJ-F-FEM_13
 70
     0
  0
APPID
  2
GENIUS_GENOREF_13
 70
     0
  0
APPID
  2
GENIUS_GEFFEM_13
 70
     0
  0
APPID
  2
GENIUS_GEFFEMP_13
 70
     0
  0
APPID
  2
AD_DRAW
 70
     0
  0
APPID
  2
DESIGNERASSEMBLIES
 70
     0
  0
APPID
  2
ACADM_DIM_EDIT
 70
     0
  0
APPID
  2
AMDT_DM_ADJ
 70
     0
  0
ENDTAB
  0
TABLE
  2
DIMSTYLE
 70
    24
  0
DIMSTYLE
  2
STANDARD
 70
     0
  3

  4

  5

  6

  7

 40
1.0
 41
2.0
 42
2.0
 43
3.75
 44
2.0
 45
0.0
 46
0.0
 47
0.0
 48
0.0
140
4.0
141
0.09
142
0.0
143
25.399999999999999
144
1.0
145
0.0
146
1.0
147
1.0
 71
     0
 72
     0
 73
     1
 74
     1
 75
     0
 76
     0
 77
     0
 78
     8
170
     0
171
     2
172
     0
173
     1
174
     0
175
     0
176
   256
177
   256
178
   256
  0
DIMSTYLE
  2
BIGT
 70
     0
  3

  4

  5
OPEN
  6

  7

 40
1.0
 41
2.2299999999999991
 42
0.5
 43
7.0
 44
1.0
 45
0.0
 46
0.0
 47
0.0
 48
0.01
140
2.7999999999999989
141
0.0
142
0.0
143
25.399999999999999
144
1.0
145
0.0
146
1.0
147
1.0
 71
     0
 72
     0
 73
     0
 74
     0
 75
     0
 76
     0
 77
     3
 78
     9
170
     0
171
     2
172
     1
173
     0
174
     1
175
     0
176
   256
177
   256
178
    40
  0
DIMSTYLE
  2
BIGT$0
 70
     0
  3

  4

  5
OPEN
  6

  7

 40
1.0
 41
2.2299999999999991
 42
0.5
 43
7.0
 44
1.0
 45
0.0
 46
0.0
 47
0.0
 48
0.01
140
2.7999999999999989
141
0.0
142
0.0
143
25.399999999999999
144
1.0
145
0.0
146
1.0
147
1.0
 71
     0
 72
     0
 73
     0
 74
     0
 75
     0
 76
     0
 77
     3
 78
     9
170
     0
171
     2
172
     1
173
     0
174
     0
175
     0
176
   256
177
   256
178
    40
  0
DIMSTYLE
  2
BIGT$2
 70
     0
  3

  4

  5
OPEN
  6

  7

 40
1.0
 41
2.2299999999999991
 42
0.5
 43
7.0
 44
1.0
 45
0.0
 46
0.0
 47
0.0
 48
0.01
140
2.7999999999999989
141
0.0
142
0.0
143
25.399999999999999
144
1.0
145
0.0
146
1.0
147
1.0
 71
     0
 72
     0
 73
     0
 74
     0
 75
     0
 76
     0
 77
     3
 78
     9
170
     0
171
     2
172
     1
173
     0
174
     0
175
     0
176
   256
177
   256
178
    40
  0
DIMSTYLE
  2
BIGT$3
 70
     0
  3

  4

  5
OPEN
  6

  7

 40
1.0
 41
2.2299999999999991
 42
0.5
 43
2.5
 44
1.0
 45
0.0
 46
0.0
 47
0.0
 48
0.01
140
2.7999999999999989
141
0.0
142
0.0
143
25.399999999999999
144
1.0
145
0.0
146
1.0
147
1.0
 71
     0
 72
     0
 73
     0
 74
     0
 75
     0
 76
     0
 77
     3
 78
     9
170
     0
171
     2
172
     1
173
     0
174
     0
175
     0
176
   256
177
   256
178
    40
  0
DIMSTYLE
  2
BIGT$4
 70
     0
  3

  4

  5
OPEN
  6

  7

 40
1.0
 41
2.2299999999999991
 42
0.5
 43
2.5
 44
1.0
 45
0.0
 46
0.0
 47
0.0
 48
0.01
140
2.7999999999999989
141
0.0
142
0.0
143
25.399999999999999
144
1.0
145
0.0
146
1.0
147
1.0
 71
     0
 72
     0
 73
     0
 74
     0
 75
     0
 76
     0
 77
     3
 78
     9
170
     0
171
     2
172
     1
173
     0
174
     0
175
     0
176
   256
177
   256
178
    40
  0
DIMSTYLE
  2
BIGT$6
 70
     0
  3

  4

  5
OPEN
  6

  7

 40
1.0
 41
2.2299999999999991
 42
0.5
 43
2.5
 44
1.0
 45
0.0
 46
0.0
 47
0.0
 48
0.01
140
2.7999999999999989
141
0.0
142
0.0
143
25.399999999999999
144
1.0
145
0.0
146
1.0
147
1.0
 71
     0
 72
     0
 73
     0
 74
     0
 75
     0
 76
     0
 77
     3
 78
     9
170
     0
171
     2
172
     1
173
     0
174
     0
175
     0
176
   256
177
   256
178
    40
  0
DIMSTYLE
  2
BIGT$7
 70
     0
  3

  4

  5
OPEN
  6

  7

 40
0.0
 41
2.2299999999999991
 42
0.5
 43
7.0
 44
1.0
 45
0.0
 46
0.0
 47
0.0
 48
0.01
140
2.7999999999999989
141
0.0
142
0.0
143
25.399999999999999
144
1.0
145
0.0
146
1.0
147
1.0
 71
     0
 72
     0
 73
     0
 74
     0
 75
     0
 76
     0
 77
     3
 78
     9
170
     0
171
     2
172
     0
173
     0
174
     0
175
     0
176
   256
177
   256
178
    40
  0
DIMSTYLE
  2
BIGT$SF
 70
     0
  3

  4

  5
OPEN
  6

  7

 40
1.0
 41
2.2299999999999991
 42
0.5
 43
7.0
 44
1.0
 45
0.0
 46
0.0
 47
0.0
 48
0.0
140
2.7999999999999989
141
0.0
142
0.0
143
25.399999999999999
144
1.0
145
0.0
146
1.0
147
1.0
 71
     0
 72
     0
 73
     0
 74
     0
 75
     0
 76
     0
 77
     3
 78
     9
170
     0
171
     2
172
     1
173
     0
174
     0
175
     0
176
   256
177
   256
178
    40
  0
DIMSTYLE
  2
BIGT$SH
 70
     0
  3

  4

  5
OPEN
  6

  7

 40
1.0
 41
2.2299999999999991
 42
0.5
 43
7.0
 44
1.0
 45
0.0
 46
0.0
 47
0.0
 48
0.0
140
2.7999999999999989
141
0.0
142
0.0
143
25.399999999999999
144
1.0
145
0.0
146
1.0
147
1.0
 71
     0
 72
     0
 73
     0
 74
     0
 75
     0
 76
     0
 77
     3
 78
     9
170
     0
171
     2
172
     1
173
     0
174
     0
175
     0
176
   256
177
   256
178
    40
  0
DIMSTYLE
  2
AM_ISO
 70
     0
  3

  4
"
  5

  6

  7

 40
1.0
 41
2.5
 42
1.0
 43
10.0
 44
1.0
 45
0.0
 46
0.0
 47
0.1
 48
0.1
140
3.5
141
0.0
142
0.0
143
0.0393701
144
1.0
145
0.0
146
0.71
147
1.5
 71
     0
 72
     0
 73
     0
 74
     0
 75
     0
 76
     0
 77
     1
 78
     8
170
     0
171
     2
172
     1
173
     0
174
     0
175
     0
176
   256
177
   256
178
     2
  0
DIMSTYLE
  2
AM_ISO$3
 70
     0
  3

  4
"
  5

  6

  7

 40
1.0
 41
2.5
 42
1.0
 43
10.0
 44
1.0
 45
0.0
 46
0.0
 47
0.1
 48
0.1
140
3.5
141
0.0
142
0.0
143
0.0393701
144
1.0
145
0.0
146
0.71
147
1.5
 71
     0
 72
     0
 73
     0
 74
     1
 75
     0
 76
     0
 77
     1
 78
     8
170
     0
171
     2
172
     0
173
     0
174
     0
175
     0
176
   256
177
   256
178
     2
  0
DIMSTYLE
  2
AM_ISO$4
 70
     0
  3

  4
"
  5

  6

  7

 40
1.0
 41
2.5
 42
1.0
 43
10.0
 44
1.0
 45
0.0
 46
0.0
 47
0.1
 48
0.1
140
3.5
141
0.0
142
0.0
143
0.0393701
144
1.0
145
0.0
146
0.71
147
1.5
 71
     0
 72
     0
 73
     0
 74
     1
 75
     0
 76
     0
 77
     1
 78
     8
170
     0
171
     2
172
     0
173
     0
174
     0
175
     0
176
   256
177
   256
178
     2
  0
DIMSTYLE
  2
AM_ISO$6
 70
     0
  3

  4
"
  5

  6

  7

 40
1.0
 41
2.5
 42
1.0
 43
10.0
 44
1.0
 45
0.0
 46
0.0
 47
0.1
 48
0.1
140
3.5
141
0.0
142
0.0
143
0.0393701
144
1.0
145
0.0
146
0.71
147
1.5
 71
     0
 72
     0
 73
     0
 74
     0
 75
     0
 76
     0
 77
     0
 78
     8
170
     0
171
     2
172
     1
173
     0
174
     0
175
     0
176
   256
177
   256
178
     2
  0
DIMSTYLE
  2
AM_ISO$7
 70
     0
  3

  4
"
  5

  6

  7

 40
1.0
 41
2.5
 42
1.0
 43
10.0
 44
1.0
 45
0.0
 46
0.0
 47
0.1
 48
0.1
140
5.0
141
0.0
142
0.0
143
0.0393701
144
1.0
145
0.0
146
0.71
147
1.5
 71
     0
 72
     0
 73
     0
 74
     0
 75
     0
 76
     0
 77
     1
 78
     8
170
     0
171
     2
172
     1
173
     0
174
     0
175
     0
176
   256
177
   256
178
     2
  0
DIMSTYLE
  2
AM_ISO$SF
 70
     0
  3

  4
"
  5

  6

  7

 40
1.0
 41
2.5
 42
1.0
 43
10.0
 44
1.0
 45
0.0
 46
0.0
 47
0.1
 48
0.1
140
3.5
141
0.0
142
0.0
143
0.0393701
144
1.0
145
0.0
146
0.71
147
1.5
 71
     0
 72
     0
 73
     0
 74
     0
 75
     1
 76
     1
 77
     1
 78
     8
170
     0
171
     2
172
     1
173
     0
174
     0
175
     0
176
   256
177
   256
178
     2
  0
DIMSTYLE
  2
AM_ISO$SH
 70
     0
  3

  4
"
  5

  6
GENAXEH
  7

 40
1.0
 41
2.5
 42
1.0
 43
10.0
 44
1.0
 45
0.0
 46
0.0
 47
0.1
 48
0.1
140
3.5
141
0.0
142
0.0
143
0.0393701
144
2.0
145
0.0
146
0.71
147
1.5
 71
     0
 72
     0
 73
     0
 74
     0
 75
     1
 76
     1
 77
     1
 78
     8
170
     0
171
     2
172
     1
173
     1
174
     0
175
     0
176
   256
177
   256
178
     2
  0
DIMSTYLE
  2
TECHNICAL_OSAKA
 70
     0
  3

  4
"
  5
OPEN30
  6

  7

 40
1.0
 41
2.5
 42
1.0
 43
10.0
 44
1.0
 45
0.0
 46
0.0
 47
0.1
 48
0.1
140
2.7999999999999989
141
0.0
142
0.0
143
0.0393701
144
1.0
145
0.0
146
0.71
147
1.5
 71
     0
 72
     0
 73
     0
 74
     0
 75
     0
 76
     0
 77
     3
 78
     8
170
     0
171
     2
172
     1
173
     0
174
     0
175
     0
176
   256
177
   256
178
    40
  0
DIMSTYLE
  2
TECHNICAL_OSAKA$3
 70
     0
  3

  4
"
  5
OPEN30
  6

  7

 40
1.0
 41
2.5
 42
1.0
 43
10.0
 44
1.0
 45
0.0
 46
0.0
 47
0.1
 48
0.1
140
2.7999999999999989
141
0.0
142
0.0
143
0.0393701
144
1.0
145
0.0
146
0.71
147
1.5
 71
     0
 72
     0
 73
     0
 74
     1
 75
     0
 76
     0
 77
     3
 78
     8
170
     0
171
     2
172
     0
173
     0
174
     0
175
     0
176
   256
177
   256
178
    40
  0
DIMSTYLE
  2
TECHNICAL_OSAKA$4
 70
     0
  3

  4
"
  5
OPEN30
  6

  7

 40
1.0
 41
2.5
 42
1.0
 43
10.0
 44
1.0
 45
0.0
 46
0.0
 47
0.1
 48
0.1
140
2.7999999999999989
141
0.0
142
0.0
143
0.0393701
144
1.0
145
0.0
146
0.71
147
1.5
 71
     0
 72
     0
 73
     0
 74
     1
 75
     0
 76
     0
 77
     3
 78
     8
170
     0
171
     2
172
     0
173
     0
174
     0
175
     0
176
   256
177
   256
178
    40
  0
DIMSTYLE
  2
TECHNICAL_OSAKA$6
 70
     0
  3

  4
"
  5
OPEN30
  6

  7

 40
1.0
 41
2.5
 42
1.0
 43
10.0
 44
1.0
 45
0.0
 46
0.0
 47
0.1
 48
0.1
140
2.7999999999999989
141
0.0
142
0.0
143
0.0393701
144
1.0
145
0.0
146
0.71
147
1.5
 71
     0
 72
     0
 73
     0
 74
     0
 75
     0
 76
     0
 77
     0
 78
     8
170
     0
171
     2
172
     1
173
     0
174
     0
175
     0
176
   256
177
   256
178
    40
  0
DIMSTYLE
  2
TECHNICAL_OSAKA$7
 70
     0
  3

  4
"
  5
OPEN30
  6

  7

 40
1.0
 41
2.5
 42
1.0
 43
10.0
 44
1.0
 45
0.0
 46
0.0
 47
0.1
 48
0.1
140
2.7999999999999989
141
0.0
142
0.0
143
0.0393701
144
1.0
145
0.0
146
0.71
147
1.5
 71
     0
 72
     0
 73
     0
 74
     0
 75
     0
 76
     0
 77
     3
 78
     8
170
     0
171
     2
172
     1
173
     0
174
     0
175
     0
176
   256
177
   256
178
    40
  0
DIMSTYLE
  2
TECHNICAL_OSAKA$SF
 70
     0
  3

  4
"
  5
OPEN30
  6
OPEN30
  7
OPEN30
 40
1.0
 41
2.5
 42
1.0
 43
10.0
 44
1.0
 45
0.0
 46
0.0
 47
0.1
 48
0.1
140
3.5
141
0.0
142
0.0
143
0.0393701
144
1.0
145
0.0
146
0.71
147
1.5
 71
     0
 72
     0
 73
     0
 74
     0
 75
     1
 76
     1
 77
     3
 78
     8
170
     0
171
     2
172
     1
173
     0
174
     0
175
     0
176
   256
177
   256
178
    40
  0
DIMSTYLE
  2
TECHNICAL_OSAKA$SH
 70
     0
  3

  4
"
  5
OPEN30
  6
GENAXEH
  7
OPEN30
 40
1.0
 41
2.5
 42
1.0
 43
10.0
 44
1.0
 45
0.0
 46
0.0
 47
0.1
 48
0.1
140
3.5
141
0.0
142
0.0
143
0.0393701
144
2.0
145
0.0
146
0.71
147
1.5
 71
     0
 72
     0
 73
     0
 74
     0
 75
     1
 76
     1
 77
     3
 78
     8
170
     0
171
     2
172
     1
173
     1
174
     0
175
     0
176
   256
177
   256
178
    40
  0
ENDTAB
  0
ENDSEC
  0
SECTION
  2
BLOCKS
  0
BLOCK
  8
0
  2
$MODEL_SPACE
 70
     0
 10
0.0
 20
0.0
 30
0.0
  3
$MODEL_SPACE
  1

  0
ENDBLK
  5
1C
  8
0
  0
BLOCK
 67
     1
  8
0
  2
$PAPER_SPACE
 70
     0
 10
0.0
 20
0.0
 30
0.0
  3
$PAPER_SPACE
  1

  0
ENDBLK
  5
19
 67
     1
  8
0
  0
BLOCK
  8
0
  2
_OPEN
 70
     0
 10
0.0
 20
0.0
 30
0.0
  3
_OPEN
  1

  0
LINE
  5
2098
  8
0
  6
BYBLOCK
 62
     0
 10
-1.0
 20
0.1666666666666666
 30
0.0
 11
0.0
 21
0.0
 31
0.0
  0
LINE
  5
2099
  8
0
  6
BYBLOCK
 62
     0
 10
-1.0
 20
-0.1666666666666666
 30
0.0
 11
0.0
 21
0.0
 31
0.0
  0
LINE
  5
209A
  8
0
  6
BYBLOCK
 62
     0
 10
0.0
 20
0.0
 30
0.0
 11
-1.0
 21
0.0
 31
0.0
  0
ENDBLK
  5
209B
  8
0
  0
BLOCK
  8
0
  2
GENAXEH
 70
     0
 10
0.0
 20
0.0
 30
0.0
  3
GENAXEH
  1

  0
LINE
  5
20C3
  8
0
 10
-1.0
 20
0.0
 30
0.0
 11
1.0
 21
0.0
 31
0.0
  0
ENDBLK
  5
20C4
  8
0
  0
BLOCK
  8
0
  2
_OPEN30
 70
     0
 10
0.0
 20
0.0
 30
0.0
  3
_OPEN30
  1

  0
LINE
  5
20E8
  8
0
  6
BYBLOCK
 62
     0
 10
-1.0
 20
0.26794919
 30
0.0
 11
0.0
 21
0.0
 31
0.0
  0
LINE
  5
20E9
  8
0
  6
BYBLOCK
 62
     0
 10
0.0
 20
0.0
 30
0.0
 11
-1.0
 21
-0.26794919
 31
0.0
  0
LINE
  5
20EA
  8
0
  6
BYBLOCK
 62
     0
 10
0.0
 20
0.0
 30
0.0
 11
-1.0
 21
0.0
 31
0.0
  0
ENDBLK
  5
20EB
  8
0
  0
BLOCK
  8
0
  2
*U12
 70
     1
 10
0.0
 20
0.0
 30
0.0
  3
*U12
  1

  0
TEXT
  5
223C
  8
250
 62
    40
 10
19.999999999999961
 20
-4.0714285714285596
 30
0.0
 40
3.0
  1
\U+2205
 50
90.0
  0
TEXT
  5
223D
  8
250
 62
    40
 10
19.999999999999961
 20
-1.3571428571428461
 30
0.0
 40
3.0
  1
25
 50
90.0
  0
ENDBLK
  5
223F
  8
0
  0
BLOCK
  8
0
  2
*U13
 70
     1
 10
0.0
 20
0.0
 30
0.0
  3
*U13
  1

  0
TEXT
  5
2241
  8
250
 62
    40
 10
-25.014285714285709
 20
-27.0
 30
0.0
 40
3.0
  1
26ü`42
  0
ENDBLK
  5
2243
  8
0
  0
BLOCK
  8
0
  2
*U14
 70
     1
 10
0.0
 20
0.0
 30
0.0
  3
*U14
  1

  0
TEXT
  5
2245
  8
250
 62
    40
 10
-12.96428571428571
 20
29.0
 30
0.0
 40
3.0
  1
15.5
  0
ENDBLK
  5
2247
  8
0
  0
BLOCK
  8
0
  2
*U15
 70
     1
 10
0.0
 20
0.0
 30
0.0
  3
*U15
  1

  0
TEXT
  5
2249
  8
250
 62
    40
 10
-53.25
 20
36.0
 30
0.0
 40
3.0
  1
96.5
  0
ENDBLK
  5
224B
  8
0
  0
BLOCK
  8
0
  2
*U16
 70
     1
 10
0.0
 20
0.0
 30
0.0
  3
*U16
  1

  0
TEXT
  5
224D
  8
250
 62
    40
 10
-58.428571428571431
 20
29.0
 30
0.0
 40
3.0
  1
81
  0
ENDBLK
  5
224F
  8
0
  0
BLOCK
  8
0
  2
*U17
 70
     1
 10
0.0
 20
0.0
 30
0.0
  3
*U17
  1

  0
TEXT
  5
2251
  8
250
 62
    40
 10
-111.0
 20
-4.0714285714285818
 30
0.0
 40
3.0
  1
\U+2205
 50
90.0
  0
TEXT
  5
2252
  8
250
 62
    40
 10
-111.0
 20
-1.3571428571428681
 30
0.0
 40
3.0
  1
20
 50
90.0
  0
ENDBLK
  5
2254
  8
0
  0
BLOCK
  8
0
  2
*X18
 70
     1
 10
0.0
 20
0.0
 30
0.0
  3
*X18
  1

  0
LINE
  5
2256
  8
0
 62
     0
 10
-36.561796161082597
 20
-8.6540389011289136
 30
0.0
 11
-35.96566530835679
 21
-8.0579080484030996
 31
0.0
  0
LINE
  5
2257
  8
0
 62
     0
 10
-36.155187310941017
 20
-8.0453742882632753
 30
0.0
 11
-35.916374673686903
 21
-7.8065616510091607
 31
0.0
  0
LINE
  5
2258
  8
0
 62
     0
 10
-36.813142558476542
 20
-8.7033295357987992
 30
0.0
 11
-36.574329921222422
 21
-8.4645168985446801
 31
0.0
  0
LINE
  5
2259
  8
0
 62
     0
 10
-36.097395363296911
 20
-7.785526577895105
 30
0.0
 11
-35.92463951595245
 21
-7.6127707305506567
 31
0.0
  0
LINE
  5
225A
  8
0
 62
     0
 10
-37.016866840133282
 20
-8.7049980547314831
 30
0.0
 11
-36.834177631590592
 21
-8.5223088461887926
 31
0.0
  0
LINE
  5
225B
  8
0
 62
     0
 10
-36.111742233017203
 20
-7.5978176848913463
 30
0.0
 11
-35.9633090468229
 21
-7.4493844986970421
 31
0.0
  0
LINE
  5
225C
  8
0
 62
     0
 10
-37.21892260285734
 20
-8.7049980547314831
 30
0.0
 11
-37.03704394542882
 21
-8.5231193973029562
 31
0.0
  0
LINE
  5
225D
  8
0
 62
     0
 10
-36.159850112194789
 20
-7.4438698013448743
 30
0.0
 11
-36.023494488959301
 21
-7.3075141781093791
 31
0.0
  0
LINE
  5
225E
  8
0
 62
     0
 10
-37.420978365581398
 20
-8.7049980547314831
 30
0.0
 11
-37.239099708152871
 21
-8.5231193973029562
 31
0.0
  0
LINE
  5
225F
  8
0
 62
     0
 10
-36.231647542129132
 20
-7.313611468555151
 30
0.0
 11
-36.101235399199872
 21
-7.1831993256258988
 31
0.0
  0
LINE
  5
2260
  8
0
 62
     0
 10
-37.623034128305463
 20
-8.7049980547314831
 30
0.0
 11
-37.441155470876929
 21
-8.5231193973029562
 31
0.0
  0
LINE
  5
2261
  8
0
 62
     0
 10
-36.323320531051522
 20
-7.2032286947534976
 30
0.0
 11
-36.194712876102031
 21
-7.0746210398039926
 31
0.0
  0
LINE
  5
2262
  8
0
 62
     0
 10
-37.825089891029513
 20
-8.7049980547314831
 30
0.0
 11
-37.643211233600979
 21
-8.5231193973029491
 31
0.0
  0
LINE
  5
2263
  8
0
 62
     0
 10
-36.433829523479361
 20
-7.1116819244572858
 30
0.0
 11
-36.303392721483
 21
-6.981245122460912
 31
0.0
  0
LINE
  5
2264
  8
0
 62
     0
 10
-38.027145653753571
 20
-8.7049980547314902
 30
0.0
 11
-37.845266996325037
 21
-8.5231193973029633
 31
0.0
  0
LINE
  5
2265
  8
0
 62
     0
 10
-36.564228639231857
 20
-7.040025277485725
 30
0.0
 11
-36.427816492696273
 21
-6.9036131309501272
 31
0.0
  0
LINE
  5
2266
  8
0
 62
     0
 10
-38.229201416477629
 20
-8.7049980547314902
 30
0.0
 11
-38.047322759049102
 21
-8.5231193973029633
 31
0.0
  0
LINE
  5
2267
  8
0
 62
     0
 10
-36.718356699916811
 20
-6.9920975754466212
 30
0.0
 11
-36.569813457823592
 21
-6.8435543333533948
 31
0.0
  0
LINE
  5
2268
  8
0
 62
     0
 10
-38.43125717920168
 20
-8.7049980547314831
 30
0.0
 11
-38.249378521773153
 21
-8.5231193973029562
 31
0.0
  0
LINE
  5
2269
  8
0
 62
     0
 10
-36.906355320219383
 20
-6.9780404330251207
 30
0.0
 11
-36.733363953412862
 21
-6.8050490662186069
 31
0.0
  0
LINE
  5
226A
  8
0
 62
     0
 10
-38.633312941925738
 20
-8.7049980547314867
 30
0.0
 11
-38.451434284497218
 21
-8.5231193973029633
 31
0.0
  0
LINE
  5
226B
  8
0
 62
     0
 10
-37.075655236726767
 20
-6.9452845868084552
 30
0.0
 11
-36.927410169061282
 21
-6.7970395191429702
 31
0.0
  0
LINE
  5
226C
  8
0
 62
     0
 10
-38.835368704649788
 20
-8.7049980547314831
 30
0.0
 11
-38.653490047221268
 21
-8.5231193973029562
 31
0.0
  0
LINE
  5
226D
  8
0
 62
     0
 10
-39.03742446737386
 20
-8.7049980547314867
 30
0.0
 11
-38.855545809945333
 21
-8.5231193973029598
 31
0.0
  0
LINE
  5
226E
  8
0
 62
     0
 10
-39.239480230097897
 20
-8.7049980547314831
 30
0.0
 11
-39.05760157266937
 21
-8.5231193973029598
 31
0.0
  0
LINE
  5
226F
  8
0
 62
     0
 10
-39.441535992821947
 20
-8.7049980547314831
 30
0.0
 11
-39.259657335393428
 21
-8.5231193973029562
 31
0.0
  0
LINE
  5
2270
  8
0
 62
     0
 10
-39.643591755546012
 20
-8.7049980547314938
 30
0.0
 11
-39.461713098117492
 21
-8.5231193973029669
 31
0.0
  0
LINE
  5
2271
  8
0
 62
     0
 10
-39.84564751827007
 20
-8.7049980547314938
 30
0.0
 11
-39.663768860841543
 21
-8.5231193973029633
 31
0.0
  0
LINE
  5
2272
  8
0
 62
     0
 10
-40.047703280994128
 20
-8.7049980547314867
 30
0.0
 11
-39.865824623565601
 21
-8.5231193973029633
 31
0.0
  0
LINE
  5
2273
  8
0
 62
     0
 10
-40.249759043718178
 20
-8.7049980547314867
 30
0.0
 11
-40.067880386289659
 21
-8.5231193973029598
 31
0.0
  0
LINE
  5
2274
  8
0
 62
     0
 10
-40.451814806442243
 20
-8.7049980547314902
 30
0.0
 11
-40.269936149013709
 21
-8.5231193973029633
 31
0.0
  0
LINE
  5
2275
  8
0
 62
     0
 10
-40.649795573319679
 20
-8.7009230588848716
 30
0.0
 11
-40.471991911737767
 21
-8.5231193973029598
 31
0.0
  0
LINE
  5
2276
  8
0
 62
     0
 10
-40.820249070685229
 20
-8.6693207935263636
 30
0.0
 11
-40.666857789173598
 21
-8.5159295120147327
 31
0.0
  0
LINE
  5
2277
  8
0
 62
     0
 10
-40.96746624271217
 20
-8.6144822028292438
 30
0.0
 11
-40.828566164201177
 21
-8.4755821243182492
 31
0.0
  0
LINE
  5
2278
  8
0
 62
     0
 10
-41.09632221906697
 20
-8.5412824164599854
 30
0.0
 11
-40.964747602061529
 21
-8.4097077994545515
 31
0.0
  0
LINE
  5
2279
  8
0
 62
     0
 10
-41.209092983464572
 20
-8.4519974181335407
 30
0.0
 11
-41.080356053254327
 21
-8.3232604879232923
 31
0.0
  0
LINE
  5
227A
  8
0
 62
     0
 10
-41.306623394099333
 20
-8.3474720660442507
 30
0.0
 11
-41.177055717028693
 21
-8.2179043889736132
 31
0.0
  0
LINE
  5
227B
  8
0
 62
     0
 10
-41.388668297897603
 20
-8.2274612071184663
 30
0.0
 11
-41.254372697721742
 21
-8.0931656069426055
 31
0.0
  0
LINE
  5
227C
  8
0
 62
     0
 10
-40.340427141209922
 20
-6.9771642877067128
 30
0.0
 11
-40.197139293697447
 21
-6.833876440194266
 31
0.0
  0
LINE
  5
227D
  8
0
 62
     0
 10
-41.45379832360323
 20
-8.0905354701000434
 30
0.0
 11
-41.309394016612607
 21
-7.946131163109424
 31
0.0
  0
LINE
  5
227E
  8
0
 62
     0
 10
-40.542482903933958
 20
-6.9771642877067102
 30
0.0
 11
-40.360604241824582
 21
-6.7952856255973373
 31
0.0
  0
LINE
  5
227F
  8
0
 62
     0
 10
-41.498771133587567
 20
-7.9334525173603181
 30
0.0
 11
-41.334420839239257
 21
-7.7691022230120161
 31
0.0
  0
LINE
  5
2280
  8
0
 62
     0
 10
-40.774380145697137
 20
-7.0070057667458272
 30
0.0
 11
-40.562660512125198
 21
-6.7952861331738923
 31
0.0
  0
LINE
  5
2281
  8
0
 62
     0
 10
-41.516531571184842
 20
-7.7491571922335254
 30
0.0
 11
-41.304811937612897
 21
-7.5374375586615896
 31
0.0
  0
LINE
  5
2282
  8
0
 62
     0
 10
-41.488034863752489
 20
-7.5186047220771171
 30
0.0
 11
-40.793212982281609
 21
-6.8237828406062411
 31
0.0
  0
ENDBLK
  5
2284
  8
0
  0
BLOCK
  8
0
  2
*X19
 70
     1
 10
0.0
 20
0.0
 30
0.0
  3
*X19
  1

  0
LINE
  5
2286
  8
0
 62
     0
 10
-38.764606478890627
 20
-8.4321800662482644
 30
0.0
 11
-38.749619420142722
 21
-8.4171930075003445
 31
0.0
  0
LINE
  5
2287
  8
0
 62
     0
 10
-38.966662241614692
 20
-8.4321800662482662
 30
0.0
 11
-38.668388581222807
 21
-8.1339064058563935
 31
0.0
  0
LINE
  5
2288
  8
0
 62
     0
 10
-39.157494964791717
 20
-8.4209570267012488
 30
0.0
 11
-38.587157742302928
 21
-7.8506198042124558
 31
0.0
  0
LINE
  5
2289
  8
0
 62
     0
 10
-39.076263017319107
 20
-8.1376693165045921
 30
0.0
 11
-38.505926903383049
 21
-7.567333202568526
 31
0.0
  0
LINE
  5
228A
  8
0
 62
     0
 10
-38.995031069846512
 20
-7.854381606307931
 30
0.0
 11
-38.42469606446317
 21
-7.2840466009245901
 31
0.0
  0
LINE
  5
228B
  8
0
 62
     0
 10
-38.913799122373902
 20
-7.5710938961112637
 30
0.0
 11
-38.343465225543291
 21
-7.0007599992806462
 31
0.0
  0
LINE
  5
228C
  8
0
 62
     0
 10
-38.8325671749013
 20
-7.2878061859146044
 30
0.0
 11
-38.340046614584033
 21
-6.7952856255973302
 31
0.0
  0
LINE
  5
228D
  8
0
 62
     0
 10
-38.751335227428697
 20
-7.0045184757179442
 30
0.0
 11
-38.54210237730809
 21
-6.7952856255973302
 31
0.0
  0
LINE
  5
228E
  8
0
 62
     0
 10
-38.762952370766619
 20
-6.8140798563318077
 30
0.0
 11
-38.744158140032148
 21
-6.7952856255973373
 31
0.0
  0
ENDBLK
  5
2290
  8
0
  0
BLOCK
  8
0
  2
*X20
 70
     1
 10
0.0
 20
0.0
 30
0.0
  3
*X20
  1

  0
LINE
  5
2292
  8
0
 62
     0
 10
-37.457762423443938
 20
-8.3376705871459151
 30
0.0
 11
-37.28725392291647
 21
-8.1671620866184327
 31
0.0
  0
LINE
  5
2293
  8
0
 62
     0
 10
-37.751569549431942
 20
-8.4294219504098606
 30
0.0
 11
-37.206022298389833
 21
-7.8838746993677438
 31
0.0
  0
LINE
  5
2294
  8
0
 62
     0
 10
-37.665760295903063
 20
-8.1415569341569238
 30
0.0
 11
-37.124790673863188
 21
-7.6005873121170486
 31
0.0
  0
LINE
  5
2295
  8
0
 62
     0
 10
-37.941315694604718
 20
-8.4171123328585793
 30
0.0
 11
-37.727787167906897
 21
-8.2035838061607578
 31
0.0
  0
LINE
  5
2296
  8
0
 62
     0
 10
-37.574106732315443
 20
-7.847847607845245
 30
0.0
 11
-37.230863292548001
 21
-7.5046041680778037
 31
0.0
  0
LINE
  5
2297
  8
0
 62
     0
 10
-38.088185041691943
 20
-8.3619259172217468
 30
0.0
 11
-37.929373036768382
 21
-8.2031139122981784
 31
0.0
  0
LINE
  5
2298
  8
0
 62
     0
 10
-37.614797717381443
 20
-7.686482830187181
 30
0.0
 11
-37.432919055272059
 21
-7.5046041680778037
 31
0.0
  0
LINE
  5
2299
  8
0
 62
     0
 10
-38.206548061522412
 20
-8.2782331743281574
 30
0.0
 11
-38.01392502072239
 21
-8.0856101335281352
 31
0.0
  0
LINE
  5
229A
  8
0
 62
     0
 10
-37.167086004504817
 20
-7.0367153545865051
 30
0.0
 11
-37.148149599155879
 21
-7.0177789492375728
 31
0.0
  0
LINE
  5
229B
  8
0
 62
     0
 10
-38.300036884722779
 20
-8.1696662348044669
 30
0.0
 11
-37.968720442904058
 21
-7.8383497929857446
 31
0.0
  0
LINE
  5
229C
  8
0
 62
     0
 10
-37.419765674817207
 20
-7.0873392621748357
 30
0.0
 11
-37.196589787268209
 21
-6.8641633746258393
 31
0.0
  0
LINE
  5
229D
  8
0
 62
     0
 10
-38.367158510787831
 20
-8.0347320981454615
 30
0.0
 11
-37.887488542259618
 21
-7.5550621296172471
 31
0.0
  0
LINE
  5
229E
  8
0
 62
     0
 10
-37.53578335368627
 20
-7.0013011783198564
 30
0.0
 11
-37.399593850965438
 21
-6.8651116755990236
 31
0.0
  0
LINE
  5
229F
  8
0
 62
     0
 10
-38.399302565784971
 20
-7.864820390418557
 30
0.0
 11
-37.806256641615171
 21
-7.2717744662487496
 31
0.0
  0
LINE
  5
22A0
  8
0
 62
     0
 10
-38.370672310475292
 20
-7.6341343723848141
 30
0.0
 11
-37.546664872613512
 21
-6.8101269345230397
 31
0.0
  0
LINE
  5
22A1
  8
0
 62
     0
 10
-38.303591247653991
 20
-7.3649975468394606
 30
0.0
 11
-37.736778956404073
 21
-6.7981852555895506
 31
0.0
  0
ENDBLK
  5
22A3
  8
0
  0
BLOCK
  8
0
  2
*U21
 70
     1
 10
0.0
 20
0.0
 30
0.0
  3
*U21
  1

  0
TEXT
  5
22A5
  8
250
 62
    40
 10
13.201348705599081
 20
-4.1688295386289216
 30
0.0
 40
3.0
  1
MAX.\U+22058
 50
90.0
  0
ENDBLK
  5
22A7
  8
0
  0
BLOCK
  8
0
  2
*X22
 70
     1
 10
0.0
 20
0.0
 30
0.0
  3
*X22
  1

  0
LINE
  5
22AD
  8
0
 62
     0
 10
-36.561796161082597
 20
-8.6540389011289136
 30
0.0
 11
-35.96566530835679
 21
-8.0579080484030996
 31
0.0
  0
LINE
  5
22AE
  8
0
 62
     0
 10
-36.155187310941017
 20
-8.0453742882632753
 30
0.0
 11
-35.916374673686903
 21
-7.8065616510091607
 31
0.0
  0
LINE
  5
22AF
  8
0
 62
     0
 10
-36.813142558476542
 20
-8.7033295357987992
 30
0.0
 11
-36.574329921222422
 21
-8.4645168985446801
 31
0.0
  0
LINE
  5
22B0
  8
0
 62
     0
 10
-36.097395363296911
 20
-7.785526577895105
 30
0.0
 11
-35.92463951595245
 21
-7.6127707305506567
 31
0.0
  0
LINE
  5
22B1
  8
0
 62
     0
 10
-37.016866840133282
 20
-8.7049980547314831
 30
0.0
 11
-36.834177631590592
 21
-8.5223088461887926
 31
0.0
  0
LINE
  5
22B2
  8
0
 62
     0
 10
-36.111742233017203
 20
-7.5978176848913463
 30
0.0
 11
-35.9633090468229
 21
-7.4493844986970421
 31
0.0
  0
LINE
  5
22B3
  8
0
 62
     0
 10
-37.21892260285734
 20
-8.7049980547314831
 30
0.0
 11
-37.03704394542882
 21
-8.5231193973029562
 31
0.0
  0
LINE
  5
22B4
  8
0
 62
     0
 10
-36.159850112194789
 20
-7.4438698013448743
 30
0.0
 11
-36.023494488959301
 21
-7.3075141781093791
 31
0.0
  0
LINE
  5
22B5
  8
0
 62
     0
 10
-37.420978365581398
 20
-8.7049980547314831
 30
0.0
 11
-37.239099708152871
 21
-8.5231193973029562
 31
0.0
  0
LINE
  5
22B6
  8
0
 62
     0
 10
-36.231647542129132
 20
-7.313611468555151
 30
0.0
 11
-36.101235399199872
 21
-7.1831993256258988
 31
0.0
  0
LINE
  5
22B7
  8
0
 62
     0
 10
-37.623034128305463
 20
-8.7049980547314831
 30
0.0
 11
-37.441155470876929
 21
-8.5231193973029562
 31
0.0
  0
LINE
  5
22B8
  8
0
 62
     0
 10
-36.323320531051522
 20
-7.2032286947534976
 30
0.0
 11
-36.194712876102031
 21
-7.0746210398039926
 31
0.0
  0
LINE
  5
22B9
  8
0
 62
     0
 10
-37.825089891029513
 20
-8.7049980547314831
 30
0.0
 11
-37.643211233600979
 21
-8.5231193973029491
 31
0.0
  0
LINE
  5
22BA
  8
0
 62
     0
 10
-36.433829523479361
 20
-7.1116819244572858
 30
0.0
 11
-36.303392721483
 21
-6.981245122460912
 31
0.0
  0
LINE
  5
22BB
  8
0
 62
     0
 10
-38.027145653753571
 20
-8.7049980547314902
 30
0.0
 11
-37.845266996325037
 21
-8.5231193973029633
 31
0.0
  0
LINE
  5
22BC
  8
0
 62
     0
 10
-36.564228639231857
 20
-7.040025277485725
 30
0.0
 11
-36.427816492696273
 21
-6.9036131309501272
 31
0.0
  0
LINE
  5
22BD
  8
0
 62
     0
 10
-38.229201416477629
 20
-8.7049980547314902
 30
0.0
 11
-38.047322759049102
 21
-8.5231193973029633
 31
0.0
  0
LINE
  5
22BE
  8
0
 62
     0
 10
-36.718356699916811
 20
-6.9920975754466212
 30
0.0
 11
-36.569813457823592
 21
-6.8435543333533948
 31
0.0
  0
LINE
  5
22BF
  8
0
 62
     0
 10
-38.43125717920168
 20
-8.7049980547314831
 30
0.0
 11
-38.249378521773153
 21
-8.5231193973029562
 31
0.0
  0
LINE
  5
22C0
  8
0
 62
     0
 10
-36.906355320219383
 20
-6.9780404330251207
 30
0.0
 11
-36.733363953412862
 21
-6.8050490662186069
 31
0.0
  0
LINE
  5
22C1
  8
0
 62
     0
 10
-38.633312941925738
 20
-8.7049980547314867
 30
0.0
 11
-38.451434284497218
 21
-8.5231193973029633
 31
0.0
  0
LINE
  5
22C2
  8
0
 62
     0
 10
-37.075655236726767
 20
-6.9452845868084552
 30
0.0
 11
-36.927410169061282
 21
-6.7970395191429702
 31
0.0
  0
LINE
  5
22C3
  8
0
 62
     0
 10
-38.835368704649788
 20
-8.7049980547314831
 30
0.0
 11
-38.653490047221268
 21
-8.5231193973029562
 31
0.0
  0
LINE
  5
22C4
  8
0
 62
     0
 10
-39.03742446737386
 20
-8.7049980547314867
 30
0.0
 11
-38.855545809945333
 21
-8.5231193973029598
 31
0.0
  0
LINE
  5
22C5
  8
0
 62
     0
 10
-39.239480230097897
 20
-8.7049980547314831
 30
0.0
 11
-39.05760157266937
 21
-8.5231193973029598
 31
0.0
  0
LINE
  5
22C6
  8
0
 62
     0
 10
-39.441535992821947
 20
-8.7049980547314831
 30
0.0
 11
-39.259657335393428
 21
-8.5231193973029562
 31
0.0
  0
LINE
  5
22C7
  8
0
 62
     0
 10
-39.643591755546012
 20
-8.7049980547314938
 30
0.0
 11
-39.461713098117492
 21
-8.5231193973029669
 31
0.0
  0
LINE
  5
22C8
  8
0
 62
     0
 10
-39.84564751827007
 20
-8.7049980547314938
 30
0.0
 11
-39.663768860841543
 21
-8.5231193973029633
 31
0.0
  0
LINE
  5
22C9
  8
0
 62
     0
 10
-40.047703280994128
 20
-8.7049980547314867
 30
0.0
 11
-39.865824623565601
 21
-8.5231193973029633
 31
0.0
  0
LINE
  5
22CA
  8
0
 62
     0
 10
-40.249759043718178
 20
-8.7049980547314867
 30
0.0
 11
-40.067880386289659
 21
-8.5231193973029598
 31
0.0
  0
LINE
  5
22CB
  8
0
 62
     0
 10
-40.451814806442243
 20
-8.7049980547314902
 30
0.0
 11
-40.269936149013709
 21
-8.5231193973029633
 31
0.0
  0
LINE
  5
22CC
  8
0
 62
     0
 10
-40.649795573319679
 20
-8.7009230588848716
 30
0.0
 11
-40.471991911737767
 21
-8.5231193973029598
 31
0.0
  0
LINE
  5
22CD
  8
0
 62
     0
 10
-40.820249070685229
 20
-8.6693207935263636
 30
0.0
 11
-40.666857789173598
 21
-8.5159295120147327
 31
0.0
  0
LINE
  5
22CE
  8
0
 62
     0
 10
-40.96746624271217
 20
-8.6144822028292438
 30
0.0
 11
-40.828566164201177
 21
-8.4755821243182492
 31
0.0
  0
LINE
  5
22CF
  8
0
 62
     0
 10
-41.09632221906697
 20
-8.5412824164599854
 30
0.0
 11
-40.964747602061529
 21
-8.4097077994545515
 31
0.0
  0
LINE
  5
22D0
  8
0
 62
     0
 10
-41.209092983464572
 20
-8.4519974181335407
 30
0.0
 11
-41.080356053254327
 21
-8.3232604879232923
 31
0.0
  0
LINE
  5
22D1
  8
0
 62
     0
 10
-41.306623394099333
 20
-8.3474720660442507
 30
0.0
 11
-41.177055717028693
 21
-8.2179043889736132
 31
0.0
  0
LINE
  5
22D2
  8
0
 62
     0
 10
-41.388668297897603
 20
-8.2274612071184663
 30
0.0
 11
-41.254372697721742
 21
-8.0931656069426055
 31
0.0
  0
LINE
  5
22D3
  8
0
 62
     0
 10
-40.340427141209922
 20
-6.9771642877067128
 30
0.0
 11
-40.197139293697447
 21
-6.833876440194266
 31
0.0
  0
LINE
  5
22D4
  8
0
 62
     0
 10
-41.45379832360323
 20
-8.0905354701000434
 30
0.0
 11
-41.309394016612607
 21
-7.946131163109424
 31
0.0
  0
LINE
  5
22D5
  8
0
 62
     0
 10
-40.542482903933958
 20
-6.9771642877067102
 30
0.0
 11
-40.360604241824582
 21
-6.7952856255973373
 31
0.0
  0
LINE
  5
22D6
  8
0
 62
     0
 10
-41.498771133587567
 20
-7.9334525173603181
 30
0.0
 11
-41.334420839239257
 21
-7.7691022230120161
 31
0.0
  0
LINE
  5
22D7
  8
0
 62
     0
 10
-40.774380145697137
 20
-7.0070057667458272
 30
0.0
 11
-40.562660512125198
 21
-6.7952861331738923
 31
0.0
  0
LINE
  5
22D8
  8
0
 62
     0
 10
-41.516531571184842
 20
-7.7491571922335254
 30
0.0
 11
-41.304811937612897
 21
-7.5374375586615896
 31
0.0
  0
LINE
  5
22D9
  8
0
 62
     0
 10
-41.488034863752489
 20
-7.5186047220771171
 30
0.0
 11
-40.793212982281609
 21
-6.8237828406062411
 31
0.0
  0
ENDBLK
  5
22DB
  8
0
  0
BLOCK
  8
0
  2
*X23
 70
     1
 10
0.0
 20
0.0
 30
0.0
  3
*X23
  1

  0
LINE
  5
22DD
  8
0
 62
     0
 10
-38.764606478890627
 20
-8.4321800662482644
 30
0.0
 11
-38.749619420142722
 21
-8.4171930075003445
 31
0.0
  0
LINE
  5
22DE
  8
0
 62
     0
 10
-38.966662241614692
 20
-8.4321800662482662
 30
0.0
 11
-38.668388581222807
 21
-8.1339064058563935
 31
0.0
  0
LINE
  5
22DF
  8
0
 62
     0
 10
-39.157494964791717
 20
-8.4209570267012488
 30
0.0
 11
-38.587157742302928
 21
-7.8506198042124558
 31
0.0
  0
LINE
  5
22E0
  8
0
 62
     0
 10
-39.076263017319107
 20
-8.1376693165045921
 30
0.0
 11
-38.505926903383049
 21
-7.567333202568526
 31
0.0
  0
LINE
  5
22E1
  8
0
 62
     0
 10
-38.995031069846512
 20
-7.854381606307931
 30
0.0
 11
-38.42469606446317
 21
-7.2840466009245901
 31
0.0
  0
LINE
  5
22E2
  8
0
 62
     0
 10
-38.913799122373902
 20
-7.5710938961112637
 30
0.0
 11
-38.343465225543291
 21
-7.0007599992806462
 31
0.0
  0
LINE
  5
22E3
  8
0
 62
     0
 10
-38.8325671749013
 20
-7.2878061859146044
 30
0.0
 11
-38.340046614584033
 21
-6.7952856255973302
 31
0.0
  0
LINE
  5
22E4
  8
0
 62
     0
 10
-38.751335227428697
 20
-7.0045184757179442
 30
0.0
 11
-38.54210237730809
 21
-6.7952856255973302
 31
0.0
  0
LINE
  5
22E5
  8
0
 62
     0
 10
-38.762952370766619
 20
-6.8140798563318077
 30
0.0
 11
-38.744158140032148
 21
-6.7952856255973373
 31
0.0
  0
ENDBLK
  5
22E7
  8
0
  0
BLOCK
  8
0
  2
*X24
 70
     1
 10
0.0
 20
0.0
 30
0.0
  3
*X24
  1

  0
LINE
  5
22E9
  8
0
 62
     0
 10
-37.457762423443938
 20
-8.3376705871459151
 30
0.0
 11
-37.28725392291647
 21
-8.1671620866184327
 31
0.0
  0
LINE
  5
22EA
  8
0
 62
     0
 10
-37.751569549431942
 20
-8.4294219504098606
 30
0.0
 11
-37.206022298389833
 21
-7.8838746993677438
 31
0.0
  0
LINE
  5
22EB
  8
0
 62
     0
 10
-37.665760295903063
 20
-8.1415569341569238
 30
0.0
 11
-37.124790673863188
 21
-7.6005873121170486
 31
0.0
  0
LINE
  5
22EC
  8
0
 62
     0
 10
-37.941315694604718
 20
-8.4171123328585793
 30
0.0
 11
-37.727787167906897
 21
-8.2035838061607578
 31
0.0
  0
LINE
  5
22ED
  8
0
 62
     0
 10
-37.574106732315443
 20
-7.847847607845245
 30
0.0
 11
-37.230863292548001
 21
-7.5046041680778037
 31
0.0
  0
LINE
  5
22EE
  8
0
 62
     0
 10
-38.088185041691943
 20
-8.3619259172217468
 30
0.0
 11
-37.929373036768382
 21
-8.2031139122981784
 31
0.0
  0
LINE
  5
22EF
  8
0
 62
     0
 10
-37.614797717381443
 20
-7.686482830187181
 30
0.0
 11
-37.432919055272059
 21
-7.5046041680778037
 31
0.0
  0
LINE
  5
22F0
  8
0
 62
     0
 10
-38.206548061522412
 20
-8.2782331743281574
 30
0.0
 11
-38.01392502072239
 21
-8.0856101335281352
 31
0.0
  0
LINE
  5
22F1
  8
0
 62
     0
 10
-37.167086004504817
 20
-7.0367153545865051
 30
0.0
 11
-37.148149599155879
 21
-7.0177789492375728
 31
0.0
  0
LINE
  5
22F2
  8
0
 62
     0
 10
-38.300036884722779
 20
-8.1696662348044669
 30
0.0
 11
-37.968720442904058
 21
-7.8383497929857446
 31
0.0
  0
LINE
  5
22F3
  8
0
 62
     0
 10
-37.419765674817207
 20
-7.0873392621748357
 30
0.0
 11
-37.196589787268209
 21
-6.8641633746258393
 31
0.0
  0
LINE
  5
22F4
  8
0
 62
     0
 10
-38.367158510787831
 20
-8.0347320981454615
 30
0.0
 11
-37.887488542259618
 21
-7.5550621296172471
 31
0.0
  0
LINE
  5
22F5
  8
0
 62
     0
 10
-37.53578335368627
 20
-7.0013011783198564
 30
0.0
 11
-37.399593850965438
 21
-6.8651116755990236
 31
0.0
  0
LINE
  5
22F6
  8
0
 62
     0
 10
-38.399302565784971
 20
-7.864820390418557
 30
0.0
 11
-37.806256641615171
 21
-7.2717744662487496
 31
0.0
  0
LINE
  5
22F7
  8
0
 62
     0
 10
-38.370672310475292
 20
-7.6341343723848141
 30
0.0
 11
-37.546664872613512
 21
-6.8101269345230397
 31
0.0
  0
LINE
  5
22F8
  8
0
 62
     0
 10
-38.303591247653991
 20
-7.3649975468394606
 30
0.0
 11
-37.736778956404073
 21
-6.7981852555895506
 31
0.0
  0
ENDBLK
  5
22FA
  8
0
  0
ENDSEC
  0
SECTION
  2
ENTITIES
  0
TEXT
  5
15CC
  8
241
 10
-93.499999999999986
 20
49.000000000000021
 30
0.0
 40
5.0
  1
SL20-NBS8-80
  7
YOKO
 11
-93.499999999999986
 21
49.000000000000021
 31
0.0
 73
     1
  0
LINE
  5
20FE
  8
250
 10
-96.5
 20
8.6999999999999993
 30
0.0
 11
-96.5
 21
29.0
 31
0.0
  0
LINE
  5
20FF
  8
250
 10
-15.5
 20
9.5
 30
0.0
 11
-15.499999999999989
 21
29.0
 31
0.0
  0
LINE
  5
2100
  8
250
 10
-94.269999999999996
 20
28.0
 30
0.0
 11
-17.72999999999999
 21
28.0
 31
0.0
  0
LINE
  5
2105
  8
250
 10
-15.5
 20
9.5
 30
0.0
 11
-15.499999999999989
 21
29.0
 31
0.0
  0
LINE
  5
2106
  8
250
 10
0.0
 20
12.092893
 30
0.0
 11
0.0000000000000011
 21
29.0
 31
0.0
  0
LINE
  5
2107
  8
250
 10
-13.269999999999991
 20
28.0
 30
0.0
 11
-2.2299999999999991
 21
28.0
 31
0.0
  0
LINE
  5
210B
  8
250
 10
-96.5
 20
8.6999999999999993
 30
0.0
 11
-96.5
 21
36.0
 31
0.0
  0
LINE
  5
210C
  8
250
 10
0.0
 20
12.092893
 30
0.0
 11
0.0000000000000015
 21
36.0
 31
0.0
  0
LINE
  5
210D
  8
250
 10
-94.269999999999996
 20
35.0
 30
0.0
 11
-2.2299999999999969
 21
35.0
 31
0.0
  0
TEXT
  5
2111
  8
250
 10
-58.428571428571431
 20
29.0
 30
0.0
 40
3.0
  1
81
1001
ACAD
1000
MTEXTBEGIN
1070
    73
1070
     1
1070
    44
1040
1.0
1070
    74
1070
     0
1000
MTEXTEND
  0
LINE
  5
2112
  8
250
 10
-17.72999999999999
 20
28.371666666666659
 30
0.0
 11
-15.499999999999989
 21
28.0
 31
0.0
  0
LINE
  5
2113
  8
250
 10
-17.72999999999999
 20
27.62833333333333
 30
0.0
 11
-15.499999999999989
 21
28.0
 31
0.0
  0
LINE
  5
2114
  8
250
 10
-15.499999999999989
 20
28.0
 30
0.0
 11
-17.72999999999999
 21
28.0
 31
0.0
  0
LINE
  5
2115
  8
250
 10
-94.269999999999996
 20
27.62833333333333
 30
0.0
 11
-96.5
 21
28.0
 31
0.0
  0
LINE
  5
2116
  8
250
 10
-94.269999999999996
 20
28.371666666666659
 30
0.0
 11
-96.5
 21
28.0
 31
0.0
  0
LINE
  5
2117
  8
250
 10
-96.5
 20
28.0
 30
0.0
 11
-94.269999999999996
 21
28.0
 31
0.0
  0
TEXT
  5
2118
  8
250
 10
-12.96428571428571
 20
29.0
 30
0.0
 40
3.0
  1
15.5
1001
ACAD
1000
MTEXTBEGIN
1070
    73
1070
     1
1070
    44
1040
1.0
1070
    74
1070
     0
1000
MTEXTEND
  0
LINE
  5
2119
  8
250
 10
-2.2299999999999982
 20
28.371666666666659
 30
0.0
 11
0.000000000000001
 21
28.0
 31
0.0
  0
LINE
  5
211A
  8
250
 10
-2.2299999999999982
 20
27.62833333333333
 30
0.0
 11
0.000000000000001
 21
28.0
 31
0.0
  0
LINE
  5
211B
  8
250
 10
0.000000000000001
 20
28.0
 30
0.0
 11
-2.2299999999999982
 21
28.0
 31
0.0
  0
LINE
  5
211C
  8
250
 10
-13.269999999999991
 20
27.62833333333333
 30
0.0
 11
-15.499999999999989
 21
28.0
 31
0.0
  0
LINE
  5
211D
  8
250
 10
-13.269999999999991
 20
28.371666666666659
 30
0.0
 11
-15.499999999999989
 21
28.0
 31
0.0
  0
LINE
  5
211E
  8
250
 10
-15.499999999999989
 20
28.0
 30
0.0
 11
-13.269999999999991
 21
28.0
 31
0.0
  0
TEXT
  5
211F
  8
250
 10
-53.25
 20
36.0
 30
0.0
 40
3.0
  1
96.5
1001
ACAD
1000
MTEXTBEGIN
1070
    73
1070
     1
1070
    44
1040
1.0
1070
    74
1070
     0
1000
MTEXTEND
  0
LINE
  5
2120
  8
250
 10
-2.2299999999999969
 20
35.37166666666667
 30
0.0
 11
0.0000000000000014
 21
35.0
 31
0.0
  0
LINE
  5
2121
  8
250
 10
-2.2299999999999969
 20
34.62833333333333
 30
0.0
 11
0.0000000000000014
 21
35.0
 31
0.0
  0
LINE
  5
2122
  8
250
 10
0.0000000000000014
 20
35.0
 30
0.0
 11
-2.2299999999999969
 21
35.0
 31
0.0
  0
LINE
  5
2123
  8
250
 10
-94.269999999999996
 20
34.62833333333333
 30
0.0
 11
-96.5
 21
35.0
 31
0.0
  0
LINE
  5
2124
  8
250
 10
-94.269999999999996
 20
35.37166666666667
 30
0.0
 11
-96.5
 21
35.0
 31
0.0
  0
LINE
  5
2125
  8
250
 10
-96.5
 20
35.0
 30
0.0
 11
-94.269999999999996
 21
35.0
 31
0.0
  0
LINE
  5
2126
  8
250
 10
-87.0
 20
-10.0
 30
0.0
 11
-111.0
 21
-9.9999999999999911
 31
0.0
  0
LINE
  5
2127
  8
250
 10
-87.0
 20
10.0
 30
0.0
 11
-111.0
 21
10.0
 31
0.0
  0
LINE
  5
2128
  8
250
 10
-110.0
 20
-7.7699999999999907
 30
0.0
 11
-110.0
 21
7.7700000000000049
 31
0.0
  0
LINE
  5
212C
  8
250
 10
-0.4485280000000671
 20
-12.50000000000002
 30
0.0
 11
21.999999999999961
 21
-12.50000000000003
 31
0.0
  0
LINE
  5
212D
  8
250
 10
-0.4485280000000671
 20
12.50000000000005
 30
0.0
 11
21.999999999999972
 21
12.50000000000005
 31
0.0
  0
LINE
  5
212E
  8
250
 10
20.999999999999961
 20
-10.27000000000003
 30
0.0
 11
20.999999999999972
 21
10.270000000000049
 31
0.0
  0
LINE
  5
2132
  8
250
 10
0.5
 20
-4.0
 30
0.0
 11
14.99999999999997
 21
-4.0000000000000044
 31
0.0
  0
LINE
  5
2133
  8
250
 10
0.5
 20
4.0
 30
0.0
 11
14.99999999999997
 21
3.999999999999996
 31
0.0
  0
LINE
  5
2134
  8
250
 10
13.99999999999997
 20
-1.770000000000004
 30
0.0
 11
13.99999999999997
 21
1.7699999999999949
 31
0.0
  0
LINE
  5
2138
  8
250
 10
-35.0
 20
-4.5
 30
0.0
 11
-35.0
 21
-29.0
 31
0.0
  0
LINE
  5
2139
  8
250
 10
0.0
 20
-12.092893000000061
 30
0.0
 11
-0.0000000000000011
 21
-29.0
 31
0.0
  0
LINE
  5
213A
  8
250
 10
-32.77000000000001
 20
-28.0
 30
0.0
 11
-2.2299999999999991
 21
-28.0
 31
0.0
  0
TEXT
  5
213E
  8
250
 10
19.999999999999961
 20
-4.0714285714285596
 30
0.0
 40
3.0
  1
\U+2205
 50
90.0
1001
ACAD
1000
MTEXTBEGIN
1070
    73
1070
     1
1070
    44
1040
1.0
1070
    74
1070
     0
1000
MTEXTEND
  0
TEXT
  5
213F
  8
250
 10
19.999999999999961
 20
-1.3571428571428461
 30
0.0
 40
3.0
  1
25
 50
90.0
1001
ACAD
1000
MTEXTBEGIN
1070
    73
1070
     1
1070
    44
1040
1.0
1070
    74
1070
     0
1000
MTEXTEND
  0
LINE
  5
2140
  8
250
 10
20.628333333333298
 20
10.270000000000049
 30
0.0
 11
20.999999999999972
 21
12.50000000000005
 31
0.0
  0
LINE
  5
2141
  8
250
 10
21.371666666666631
 20
10.270000000000049
 30
0.0
 11
20.999999999999972
 21
12.50000000000005
 31
0.0
  0
LINE
  5
2142
  8
250
 10
20.999999999999972
 20
12.50000000000005
 30
0.0
 11
20.999999999999972
 21
10.270000000000049
 31
0.0
  0
LINE
  5
2143
  8
250
 10
21.371666666666631
 20
-10.27000000000003
 30
0.0
 11
20.999999999999961
 21
-12.50000000000003
 31
0.0
  0
LINE
  5
2144
  8
250
 10
20.628333333333298
 20
-10.27000000000003
 30
0.0
 11
20.999999999999961
 21
-12.50000000000003
 31
0.0
  0
LINE
  5
2145
  8
250
 10
20.999999999999961
 20
-12.50000000000003
 30
0.0
 11
20.999999999999961
 21
-10.27000000000003
 31
0.0
  0
LINE
  5
2146
  8
250
 10
13.6283333333333
 20
1.769999999999996
 30
0.0
 11
13.99999999999997
 21
3.999999999999996
 31
0.0
  0
LINE
  5
2147
  8
250
 10
14.37166666666664
 20
1.769999999999996
 30
0.0
 11
13.99999999999997
 21
3.999999999999996
 31
0.0
  0
LINE
  5
2148
  8
250
 10
13.99999999999997
 20
3.999999999999996
 30
0.0
 11
13.99999999999997
 21
1.769999999999996
 31
0.0
  0
LINE
  5
2149
  8
250
 10
14.37166666666664
 20
-1.7700000000000029
 30
0.0
 11
13.99999999999997
 21
-4.0000000000000018
 31
0.0
  0
LINE
  5
214A
  8
250
 10
13.6283333333333
 20
-1.7700000000000029
 30
0.0
 11
13.99999999999997
 21
-4.0000000000000018
 31
0.0
  0
LINE
  5
214B
  8
250
 10
13.99999999999997
 20
-4.0000000000000018
 30
0.0
 11
13.99999999999997
 21
-1.7700000000000029
 31
0.0
  0
TEXT
  5
214C
  8
250
 10
13.201348705599081
 20
-4.1688295386289216
 30
0.0
 40
3.0
  1
MAX.\U+22058
 50
90.0
  0
TEXT
  5
214D
  8
250
 10
-25.014285714285709
 20
-27.0
 30
0.0
 40
3.0
  1
26ü`42
1001
ACAD
1000
MTEXTBEGIN
1070
    73
1070
     1
1070
    44
1040
1.0
1070
    74
1070
     0
1000
MTEXTEND
  0
LINE
  5
214E
  8
250
 10
-2.2299999999999991
 20
-27.62833333333333
 30
0.0
 11
-0.000000000000001
 21
-28.0
 31
0.0
  0
LINE
  5
214F
  8
250
 10
-2.2299999999999991
 20
-28.371666666666659
 30
0.0
 11
-0.000000000000001
 21
-28.0
 31
0.0
  0
LINE
  5
2150
  8
250
 10
-0.000000000000001
 20
-28.0
 30
0.0
 11
-2.2299999999999991
 21
-28.0
 31
0.0
  0
LINE
  5
2151
  8
250
 10
-32.77000000000001
 20
-28.371666666666659
 30
0.0
 11
-35.0
 21
-28.0
 31
0.0
  0
LINE
  5
2152
  8
250
 10
-32.77000000000001
 20
-27.62833333333333
 30
0.0
 11
-35.0
 21
-28.0
 31
0.0
  0
LINE
  5
2153
  8
250
 10
-35.0
 20
-28.0
 30
0.0
 11
-32.77000000000001
 21
-28.0
 31
0.0
  0
TEXT
  5
2154
  8
250
 10
-111.0
 20
-4.0714285714285818
 30
0.0
 40
3.0
  1
\U+2205
 50
90.0
1001
ACAD
1000
MTEXTBEGIN
1070
    73
1070
     1
1070
    44
1040
1.0
1070
    74
1070
     0
1000
MTEXTEND
  0
TEXT
  5
2155
  8
250
 10
-111.0
 20
-1.3571428571428681
 30
0.0
 40
3.0
  1
20
 50
90.0
1001
ACAD
1000
MTEXTBEGIN
1070
    73
1070
     1
1070
    44
1040
1.0
1070
    74
1070
     0
1000
MTEXTEND
  0
LINE
  5
2156
  8
250
 10
-110.3716666666666
 20
7.7700000000000014
 30
0.0
 11
-110.0
 21
10.0
 31
0.0
  0
LINE
  5
2157
  8
250
 10
-109.6283333333333
 20
7.7700000000000014
 30
0.0
 11
-110.0
 21
10.0
 31
0.0
  0
LINE
  5
2158
  8
250
 10
-110.0
 20
10.0
 30
0.0
 11
-110.0
 21
7.7700000000000014
 31
0.0
  0
LINE
  5
2159
  8
250
 10
-109.6283333333333
 20
-7.7699999999999916
 30
0.0
 11
-110.0
 21
-9.9999999999999911
 31
0.0
  0
LINE
  5
215A
  8
250
 10
-110.3716666666666
 20
-7.7699999999999916
 30
0.0
 11
-110.0
 21
-9.9999999999999911
 31
0.0
  0
LINE
  5
215B
  8
250
 10
-110.0
 20
-9.9999999999999911
 30
0.0
 11
-110.0
 21
-7.7699999999999916
 31
0.0
  0
LINE
  5
215C
  8
245
 10
-98.306257623688666
 20
0.0
 30
0.0
 11
1.7624837724190441
 21
0.0
 31
0.0
  0
LINE
  5
215D
  8
240
 10
-10.100000000000019
 20
12.5
 30
0.0
 11
-0.948528000000067
 21
12.5
 31
0.0
  0
LINE
  5
215E
  8
241
 10
-4.0
 20
9.9970930000000067
 30
0.0
 11
-10.70000000000004
 21
9.9970930000000067
 31
0.0
  0
LINE
  5
215F
  8
241
 10
-4.0
 20
11.497093
 30
0.0
 11
-10.70000000000004
 21
11.497093
 31
0.0
  0
LINE
  5
2160
  8
241
 10
-4.0
 20
-1.5
 30
0.0
 11
-10.70000000000004
 21
-1.5
 31
0.0
  0
LINE
  5
2161
  8
241
 10
-4.0
 20
1.5
 30
0.0
 11
-10.70000000000004
 21
1.5
 31
0.0
  0
LINE
  5
2162
  8
246
 10
0.0
 20
4.0
 30
0.0
 11
-18.0
 21
4.0
 31
0.0
  0
LINE
  5
2163
  8
246
 10
-3.600000000000021
 20
6.25
 30
0.0
 11
-18.0
 21
4.7364989999999798
 31
0.0
  0
LINE
  5
2164
  8
241
 10
-4.0
 20
-11.497093
 30
0.0
 11
-10.70000000000004
 21
-11.497093
 31
0.0
  0
LINE
  5
2165
  8
241
 10
-4.0
 20
-9.9970930000000067
 30
0.0
 11
-10.70000000000004
 21
-9.9970930000000067
 31
0.0
  0
LINE
  5
2166
  8
240
 10
-10.100000000000019
 20
-12.5
 30
0.0
 11
-0.948528000000067
 21
-12.5
 31
0.0
  0
LINE
  5
2167
  8
246
 10
0.0
 20
-4.0
 30
0.0
 11
-18.0
 21
-4.0
 31
0.0
  0
LINE
  5
2168
  8
246
 10
-3.600000000000021
 20
-6.25
 30
0.0
 11
-18.0
 21
-4.7364990000000358
 31
0.0
  0
LINE
  5
2169
  8
242
 10
-21.499999999999989
 20
5.2678268764263709
 30
0.0
 11
-96.5
 21
-5.2678268764263763
 31
0.0
  0
LINE
  5
216A
  8
242
 10
-96.5
 20
5.2678268764263763
 30
0.0
 11
-21.499999999999989
 21
-5.2678268764263763
 31
0.0
  0
LINE
  5
216B
  8
241
 10
-21.499999999999989
 20
-5.2678268764263763
 30
0.0
 11
-96.5
 21
-5.2678268764263763
 31
0.0
  0
LINE
  5
216C
  8
241
 10
-21.499999999999989
 20
5.2678268764263763
 30
0.0
 11
-96.5
 21
5.2678268764263763
 31
0.0
  0
LINE
  5
216D
  8
240
 10
-86.5
 20
-10.0
 30
0.0
 11
-16.5
 21
-10.0
 31
0.0
  0
LINE
  5
216E
  8
240
 10
-86.5
 20
10.0
 30
0.0
 11
-16.5
 21
10.0
 31
0.0
  0
LINE
  5
216F
  8
240
 10
-96.200000000000003
 20
8.5
 30
0.0
 11
-88.0
 21
8.5000000000000018
 31
0.0
  0
LINE
  5
2170
  8
240
 10
-96.200000000000003
 20
-8.5
 30
0.0
 11
-88.0
 21
-8.5000000000000018
 31
0.0
  0
LINE
  5
2171
  8
240
 10
-96.5
 20
-8.1999999999999993
 30
0.0
 11
-96.5
 21
8.1999999999999993
 31
0.0
  0
LINE
  5
2172
  8
240
 10
-96.5
 20
-8.1999999999999993
 30
0.0
 11
-96.200000000000003
 21
-8.5
 31
0.0
  0
LINE
  5
2173
  8
240
 10
-96.5
 20
8.1999999999999993
 30
0.0
 11
-96.200000000000003
 21
8.5
 31
0.0
  0
LINE
  5
2174
  8
240
 10
-86.5
 20
-10.0
 30
0.0
 11
-88.0
 21
-8.5000000000000018
 31
0.0
  0
LINE
  5
2175
  8
240
 10
-86.5
 20
10.0
 30
0.0
 11
-88.0
 21
8.5000000000000018
 31
0.0
  0
TEXT
  5
2176
  8
247
 10
-35.241958541637182
 20
-8.4342102344031282
 30
0.0
 40
1.5
  1
SL20-NBS8-80
  7
YOKO
 11
-35.241958541637182
 21
-8.4342102344031282
 31
0.0
 73
     1
  0
LINE
  5
2177
  8
246
 10
-37.306624000000049
 20
-1.4433759999999991
 30
0.0
 11
-35.0
 21
-3.75
 31
0.0
  0
LINE
  5
2178
  8
246
 10
-35.0
 20
4.0
 30
0.0
 11
-35.0
 21
-4.0
 31
0.0
  0
LINE
  5
2179
  8
246
 10
-48.0
 20
-2.9000000000000341
 30
0.0
 11
-48.0
 21
2.8999999999999759
 31
0.0
  0
ARC
  5
217A
  8
246
 10
-47.0
 20
-2.9000000000000341
 30
0.0
 40
1.0
 50
180.0
 51
270.0
  0
ARC
  5
217B
  8
247
 10
-40.56167596914225
 20
-7.7501417352164808
 30
0.0
 40
0.7729774475097658
 50
90.0
 51
270.0
1001
ACAD
1000
ASC_BOUNDS
1002
{
1070
    19
1005
217F
1002
}
  0
LINE
  5
217C
  8
246
 10
-44.400000000000027
 20
-4.5
 30
0.0
 11
-35.5
 21
-4.5
 31
0.0
  0
LINE
  5
217D
  8
246
 10
-44.700000000000053
 20
-4.2000000000000437
 30
0.0
 11
-35.200000000000038
 21
-4.2000000000000437
 31
0.0
  0
ARC
  5
217E
  8
247
 10
-40.56167596914225
 20
-7.7501417352164808
 30
0.0
 40
0.9548561096191406
 50
90.0
 51
270.0
1001
ACAD
1000
ASC_BOUNDS
1002
{
1070
    19
1005
217F
1002
}
  0
INSERT
  5
217F
  8
247
  6
CONTINUOUS
  2
*X22
 10
0.0
 20
0.0
 30
0.0
1001
ACAD
1000
HATCH
1002
{
1070
    19
1000
ANSI31
1040
0.045
1040
6.2831853071795862
1000
ASC_BOUNDS
1070
     1
1070
     2
1070
    10
1005
21B9
1005
219F
1005
21A0
1005
21A4
1005
21A5
1005
217E
1005
217B
1005
21D7
1005
21D6
1005
21DA
1000
ASC_SEEDPOINT
1011
-95.426526070613207
1021
-0.0
1031
0.0
1021
-15.792493553301149
1031
0.0
1000
R14_HATCH_DATA
1000
217F
1011
1.0
1021
-0.0
1031
0.0
1021
0.0
1031
0.0
1011
0.0
1021
-0.0
1031
0.0
1021
1.0
1031
0.0
1011
0.0
1021
-0.0
1031
0.0
1021
0.0
1031
1.0
1040
0.0
1010
0.0
1020
0.0
1030
1.0
1000
ANSI31
1070
     0
1070
     1
1071
        1
1071
       33
1071
       10
1070
     1
1040
-40.186074009913717
1040
-6.7952856255973391
1040
-40.238224736232077
1040
-6.9771642877067164
1070
     1
1040
-40.561675969142243
1040
-6.7952856255973391
1040
-40.186074009913717
1040
-6.7952856255973391
1070
     1
1040
-40.561675969142243
1040
-6.9771642877067164
1040
-40.238224736232077
1040
-6.9771642877067164
1070
     2
1040
-40.56167596914225
1040
-7.7501417352164808
1040
0.7729774475097658
1040
1.5707963267948959
1040
4.7123889803846888
1070
     1
1070
     2
1040
-40.56167596914225
1040
-7.7501417352164808
1040
0.9548561096191406
1040
1.5707963267948959
1040
4.7123889803846888
1070
     1
1070
     1
1040
-40.561675969142243
1040
-8.704998054731492
1040
-36.869562474269181
1040
-8.704998054731492
1070
     1
1040
-40.561675969142243
1040
-8.5231193973029669
1040
-36.869562474269181
1040
-8.5231193973029669
1070
     2
1040
-36.869562474269209
1040
-7.7501417352164808
1040
0.9548561096191406
1040
4.7123889803846888
1040
8.1117806218165374
1070
     1
1070
     2
1040
-36.869562474269209
1040
-7.7501417352164808
1040
0.7729774475097658
1040
4.7123889803846888
1040
8.1005519157032833
1070
     1
1070
     1
1040
-37.058232060450841
1040
-7.0005377007926519
1040
-37.113005772609043
1040
-6.8268369866813252
1071
       10
1005
21DA
1005
21D6
1005
21D7
1005
217B
1005
217E
1005
21A5
1005
21A4
1005
21A0
1005
219F
1005
21B9
1070
     0
1070
     1
1040
6.2831853071795862
1040
0.045
1070
     0
1070
     1
1040
0.7853981633974478
1040
-95.426526070613207
1040
-15.792493553301149
1040
-0.101027881362028
1040
0.101027881362028
1070
     0
1071
        1
1040
-95.426526070613207
1040
-15.792493553301149
1040
0.0
1002
}
  0
LINE
  5
2180
  8
246
 10
-47.0
 20
-3.9000000000000341
 30
0.0
 11
-45.0
 21
-3.9000000000000341
 31
0.0
  0
LINE
  5
2181
  8
246
 10
-44.400000000000027
 20
-4.5
 30
0.0
 11
-45.0
 21
-3.9000000000000341
 31
0.0
  0
LINE
  5
2182
  8
247
 10
-38.011776677150053
 20
-7.9885038567985118
 30
0.0
 11
-37.766657963771152
 21
-7.1336782647574966
 31
0.0
1001
ACAD
1000
ASC_BOUNDS
1002
{
1070
    19
1005
21A3
1002
}
  0
LINE
  5
2183
  8
247
 10
-40.338023438399013
 20
-7.9850393985161299
 30
0.0
 11
-39.701369915843102
 21
-7.3483858759602398
 31
0.0
  0
LINE
  5
2184
  8
247
 10
-40.256792065392837
 20
-7.7017522627858721
 30
0.0
 11
-39.620141224061179
 21
-7.065101421454222
 31
0.0
  0
LINE
  5
2185
  8
247
 10
-40.419254811405189
 20
-8.2683265342463859
 30
0.0
 11
-39.649707128551739
 21
-7.4987788513928981
 31
0.0
  0
LINE
  5
2186
  8
247
 10
-40.466239110011372
 20
-8.4321800662482804
 30
0.0
 11
-40.049019566554527
 21
-6.9771642877072608
 31
0.0
  0
LINE
  5
2187
  8
247
 10
-38.753916874903958
 20
-8.4321800662482804
 30
0.0
 11
-38.284546605128568
 21
-6.7952856255973391
 31
0.0
  0
ARC
  5
2188
  8
247
 10
-36.842247715968433
 20
-7.872158641954762
 30
0.0
 40
1.5468475341796859
 50
155.20517736984041
 51
172.79482596205219
1001
ACAD
1000
ASC_BOUNDS
1002
{
1070
    19
1005
21A3
1002
}
  0
LINE
  5
2189
  8
247
 10
-39.64786289942495
 20
-7.9010461477142346
 30
0.0
 11
-39.051475093866102
 21
-7.3046583421553803
 31
0.0
  0
LINE
  5
218A
  8
247
 10
-39.718394609316029
 20
-7.7695220948812773
 30
0.0
 11
-39.067545684756212
 21
-7.118673170321447
 31
0.0
  0
ARC
  5
218B
  8
247
 10
-39.70577921010905
 20
-7.2317930413688254
 30
0.0
 40
0.2728103756904602
 50
261.6626016879294
 51
66.338155095189762
  0
ARC
  5
218C
  8
247
 10
-39.502868596095382
 20
-7.2499754144157
 30
0.0
 40
0.4546936511993409
 50
287.66957754739792
 51
90.236159842671555
  0
INSERT
  5
218D
  8
247
  6
CONTINUOUS
  2
*X23
 10
0.0
 20
0.0
 30
0.0
1001
ACAD
1000
HATCH
1002
{
1070
    19
1000
ANSI31
1040
0.045
1040
6.2831853071795862
1000
R14_HATCH_DATA
1000
218D
1011
1.0
1021
-0.0
1031
0.0
1021
0.0
1031
0.0
1011
0.0
1021
-0.0
1031
0.0
1021
1.0
1031
0.0
1011
0.0
1021
-0.0
1031
0.0
1021
0.0
1031
1.0
1040
0.0
1010
0.0
1020
0.0
1030
1.0
1000
ANSI31
1070
     0
1070
     0
1071
        1
1071
        7
1070
     0
1070
     1
1071
        6
1040
-38.284546605128568
1040
-6.7952856255973391
1040
-38.757562962550438
1040
-6.7952856255973391
1040
-38.814932194728172
1040
-6.9953466607535884
1040
-38.748705235499649
1040
-6.9953466607535884
1040
-39.160713139552399
1040
-8.4321800662482769
1040
-38.753916874903958
1040
-8.4321800662482769
1071
        0
1070
     0
1070
     1
1040
6.2831853071795862
1040
0.045
1070
     0
1070
     1
1040
0.7853981633974478
1040
-95.426526070613207
1040
-15.792493553301149
1040
-0.101027881362028
1040
0.101027881362028
1070
     0
1040
0.0134348504236232
1071
        1
1040
-38.709788624351027
1040
-7.5708715995965878
1040
0.0
1002
}
  0
POLYLINE
  5
218E
  8
247
 66
     1
 10
0.0
 20
0.0
 30
0.0
 70
     1
  0
VERTEX
  5
218F
  8
247
 10
-38.757562962550459
 20
-6.7952856255973391
 30
0.0
  0
VERTEX
  5
2190
  8
247
 10
-38.8149321947282
 20
-6.995346660753591
 30
0.0
  0
VERTEX
  5
2191
  8
247
 10
-38.748705235499678
 20
-6.995346660753591
 30
0.0
  0
VERTEX
  5
2192
  8
247
 10
-39.160713139552414
 20
-8.4321800662482804
 30
0.0
  0
VERTEX
  5
2193
  8
247
 10
-38.753916874903972
 20
-8.4321800662482804
 30
0.0
  0
VERTEX
  5
2194
  8
247
 10
-38.284546605128583
 20
-6.7952856255973391
 30
0.0
  0
SEQEND
  5
2195
  8
247
  0
POLYLINE
  5
2196
  8
247
 66
     1
 10
0.0
 20
0.0
 30
0.0
 70
     1
1001
HATCH_DISTANCE
1040
1.0
1001
HATCH_DISPLAY
1070
     0
1001
HATCH_TYPE
1070
     7
  0
VERTEX
  5
2197
  8
247
 10
-38.757562962550459
 20
-6.7952856255973391
 30
0.0
  0
VERTEX
  5
2198
  8
247
 10
-38.8149321947282
 20
-6.995346660753591
 30
0.0
  0
VERTEX
  5
2199
  8
247
 10
-38.748705235499678
 20
-6.995346660753591
 30
0.0
  0
VERTEX
  5
219A
  8
247
 10
-39.160713139552414
 20
-8.4321800662482804
 30
0.0
  0
VERTEX
  5
219B
  8
247
 10
-38.753916874903972
 20
-8.4321800662482804
 30
0.0
  0
VERTEX
  5
219C
  8
247
 10
-38.284546605128583
 20
-6.7952856255973391
 30
0.0
  0
SEQEND
  5
219D
  8
247
  0
LINE
  5
219E
  8
247
 10
-39.160713139552399
 20
-8.4321800662482804
 30
0.0
 11
-38.748705235499649
 21
-6.995346660753591
 31
0.0
  0
ARC
  5
219F
  8
247
 10
-36.869562474269209
 20
-7.7501417352164808
 30
0.0
 40
0.7729774475097658
 50
270.0
 51
104.1274364964119
1001
ACAD
1000
ASC_BOUNDS
1002
{
1070
    19
1005
217F
1002
}
  0
ARC
  5
21A0
  8
247
 10
-36.869562474269209
 20
-7.7501417352164808
 30
0.0
 40
0.9548561096191406
 50
270.0
 51
104.7707939660941
1001
ACAD
1000
ASC_BOUNDS
1002
{
1070
    19
1005
217F
1002
}
  0
LINE
  5
21A1
  8
247
 10
-37.36324686147622
 20
-8.4321800662482804
 30
0.0
 11
-37.097267857569967
 21
-7.5046041680778091
 31
0.0
1001
ACAD
1000
ASC_BOUNDS
1002
{
1070
    19
1005
21A3
1002
}
  0
LINE
  5
21A2
  8
247
 10
-37.679199925441068
 20
-7.6864828301871828
 30
0.0
 11
-37.627049199122709
 21
-7.5046041680778091
 31
0.0
1001
ACAD
1000
ASC_BOUNDS
1002
{
1070
    19
1005
21A3
1002
}
  0
INSERT
  5
21A3
  8
247
  6
CONTINUOUS
  2
*X24
 10
0.0
 20
0.0
 30
0.0
1001
ACAD
1000
HATCH
1002
{
1070
    19
1000
ANSI31
1040
0.045
1040
6.2831853071795862
1000
ASC_BOUNDS
1070
     1
1070
     2
1070
    15
1005
21B8
1005
21E3
1005
2188
1005
21B3
1005
21A7
1005
21A1
1005
21B5
1005
21A2
1005
21A8
1005
21A6
1005
21B4
1005
2182
1005
21B6
1005
21D2
1005
21B7
1000
ASC_SEEDPOINT
1011
-95.426526070613207
1021
-0.0
1031
0.0
1021
-15.792493553301149
1031
0.0
1000
R14_HATCH_DATA
1000
21A3
1011
1.0
1021
-0.0
1031
0.0
1021
0.0
1031
0.0
1011
0.0
1021
-0.0
1031
0.0
1021
1.0
1031
0.0
1011
0.0
1021
-0.0
1031
0.0
1021
0.0
1031
1.0
1040
0.0
1010
0.0
1020
0.0
1030
1.0
1000
ANSI31
1070
     0
1070
     1
1071
        1
1071
       33
1071
       15
1070
     1
1040
-37.144962254542641
1040
-7.0278867913688252
1040
-37.199735966700828
1040
-6.8541860772574967
1070
     2
1040
-36.869562474269209
1040
-7.7501417352164808
1040
0.7729795932769777
1040
1.935084649241253
1040
2.3132934059675971
1070
     1
1070
     2
1040
-37.583083287257487
1040
-7.1863233758414831
1040
0.1909725040197372
1040
0.0298472487257511
1040
2.8623120192823772
1070
     1
1070
     1
1040
-38.011776677150053
1040
-7.9885038567985118
1040
-37.766657963771152
1040
-7.1336782647574966
1070
     2
1040
-37.828202000636388
1040
-8.04114210142742
1040
0.1909723699092865
1040
2.862344739017606
1040
6.0039373926073969
1070
     1
1070
     1
1040
-37.644627324122709
1040
-8.0937803460563256
1040
-37.527835789698877
1040
-7.6864828301871828
1070
     1
1040
-37.679199925441068
1040
-7.6864828301871828
1040
-37.527835789698877
1040
-7.6864828301871828
1070
     1
1040
-37.679199925441068
1040
-7.6864828301871828
1040
-37.627049199122709
1040
-7.5046041680778091
1070
     1
1040
-37.627049199122709
1040
-7.5046041680778091
1040
-37.097267857569967
1040
-7.5046041680778091
1070
     1
1040
-37.36324686147622
1040
-8.4321800662482804
1040
-37.097267857569967
1040
-7.5046041680778091
1070
     1
1040
-37.469937840480121
1040
-8.3254959536994502
1040
-37.36324686147622
1040
-8.4321800662482804
1070
     2
1040
-37.80867380239421
1040
-7.8410810662711681
1040
0.5911056518554689
1040
2.8623356221950571
1040
5.3226236885737688
1070
     1
1070
     2
1040
-36.842247715968433
1040
-7.872158641954762
1040
1.5468475341796859
1040
2.7088413612455078
1040
3.0158386434483879
1070
     1
1070
     2
1040
-37.678293553370771
1040
-7.3863844109977306
1040
0.5910996437072754
1040
0.9327739783146629
1040
2.8623431914429061
1070
     1
1070
     2
1040
-36.869562474269209
1040
-7.7501417352164808
1040
0.954856538772583
1040
1.923870239659647
1040
2.0694663713693631
1070
     1
1071
       15
1005
21B7
1005
21D2
1005
21B6
1005
2182
1005
21B4
1005
21A6
1005
21A8
1005
21A2
1005
21B5
1005
21A1
1005
21A7
1005
21B3
1005
2188
1005
21E3
1005
21B8
1070
     0
1070
     1
1040
6.2831853071795862
1040
0.045
1070
     0
1070
     1
1040
0.7853981633974478
1040
-95.426526070613207
1040
-15.792493553301149
1040
-0.101027881362028
1040
0.101027881362028
1070
     0
1071
        1
1040
-95.426526070613207
1040
-15.792493553301149
1040
0.0
1002
}
  0
LINE
  5
21A4
  8
247
 10
-40.561675969142243
 20
-8.5231193973029669
 30
0.0
 11
-36.869562474269181
 21
-8.5231193973029669
 31
0.0
1001
ACAD
1000
ASC_BOUNDS
1002
{
1070
    19
1005
217F
1002
}
  0
LINE
  5
21A5
  8
247
 10
-40.561675969142243
 20
-8.704998054731492
 30
0.0
 11
-36.869562474269181
 21
-8.704998054731492
 31
0.0
1001
ACAD
1000
ASC_BOUNDS
1002
{
1070
    19
1005
217F
1002
}
  0
LINE
  5
21A6
  8
247
 10
-37.644627324122709
 20
-8.0937803460563256
 30
0.0
 11
-37.527835789698877
 21
-7.6864828301871828
 31
0.0
1001
ACAD
1000
ASC_BOUNDS
1002
{
1070
    19
1005
21A3
1002
}
  0
LINE
  5
21A7
  8
247
 10
-37.469937840480121
 20
-8.3254959536994502
 30
0.0
 11
-37.36324686147622
 21
-8.4321800662482804
 31
0.0
1001
ACAD
1000
ASC_BOUNDS
1002
{
1070
    19
1005
21A3
1002
}
  0
LINE
  5
21A8
  8
247
 10
-37.679199925441068
 20
-7.6864828301871828
 30
0.0
 11
-37.527835789698877
 21
-7.6864828301871828
 31
0.0
1001
ACAD
1000
ASC_BOUNDS
1002
{
1070
    19
1005
21A3
1002
}
  0
ARC
  5
21A9
  8
247
 10
-39.914388981837568
 20
-7.9593008233512466
 30
0.0
 40
0.2728181809186934
 50
261.66285421114878
 51
66.338192159110051
  0
LINE
  5
21AA
  8
247
 10
-40.466239110011372
 20
-8.4321800662482804
 30
0.0
 11
-39.711478367823887
 21
-8.4321800662482804
 31
0.0
  0
LINE
  5
21AB
  8
247
 10
-39.976941055234981
 20
-8.4321800662482804
 30
0.0
 11
-39.30958689132035
 21
-7.7648259023336781
 31
0.0
  0
LINE
  5
21AC
  8
247
 10
-39.804896935741588
 20
-7.7094183476121749
 30
0.0
 11
-39.953946906670637
 21
-8.2292358718771883
 31
0.0
  0
LINE
  5
21AD
  8
247
 10
-40.381052580683068
 20
-8.4321800662482804
 30
0.0
 11
-39.863833136672909
 21
-7.914960622238107
 31
0.0
  0
LINE
  5
21AE
  8
247
 10
-40.178996817959032
 20
-8.4321800662482804
 30
0.0
 11
-39.94506032413603
 21
-8.1982435724253122
 31
0.0
  0
ARC
  5
21AF
  8
247
 10
-39.711478367823887
 20
-7.9774900628532013
 30
0.0
 40
0.4546897888183594
 50
270.0
 51
40.329840654167242
  0
LINE
  5
21B0
  8
247
 10
-39.774885292510902
 20
-8.4321800662483142
 30
0.0
 11
-39.260698062095521
 21
-7.9179928358328979
 31
0.0
  0
LINE
  5
21B1
  8
247
 10
-39.53873899527953
 20
-8.3980895317409914
 30
0.0
 11
-39.290878898936143
 21
-8.150229435397577
 31
0.0
  0
LINE
  5
21B2
  8
247
 10
-39.160713139552399
 20
-8.4321800662482804
 30
0.0
 11
-38.753916874903958
 21
-8.4321800662482804
 31
0.0
  0
ARC
  5
21B3
  8
247
 10
-37.80867380239421
 20
-7.8410810662711681
 30
0.0
 40
0.5911056518554689
 50
163.99975070172931
 51
304.96387329163173
1001
ACAD
1000
ASC_BOUNDS
1002
{
1070
    19
1005
21A3
1002
}
  0
ARC
  5
21B4
  8
247
 10
-37.828202000636388
 20
-8.04114210142742
 30
0.0
 40
0.1909723699092865
 50
164.0002730571839
 51
344.00027305718379
1001
ACAD
1000
ASC_BOUNDS
1002
{
1070
    19
1005
21A3
1002
}
  0
LINE
  5
21B5
  8
247
 10
-37.627049199122709
 20
-7.5046041680778091
 30
0.0
 11
-37.097267857569967
 21
-7.5046041680778091
 31
0.0
1001
ACAD
1000
ASC_BOUNDS
1002
{
1070
    19
1005
21A3
1002
}
  0
ARC
  5
21B6
  8
247
 10
-37.583083287257487
 20
-7.1863233758414831
 30
0.0
 40
0.1909725040197372
 50
1.710121382062763
 51
163.99839835444851
1001
ACAD
1000
ASC_BOUNDS
1002
{
1070
    19
1005
21A3
1002
}
  0
LINE
  5
21B7
  8
247
 10
-37.144962254542641
 20
-7.0278867913688252
 30
0.0
 11
-37.199735966700828
 21
-6.8541860772574967
 31
0.0
1001
ACAD
1000
ASC_BOUNDS
1002
{
1070
    19
1005
21A3
1002
}
  0
ARC
  5
21B8
  8
247
 10
-36.869562474269209
 20
-7.7501417352164808
 30
0.0
 40
0.954856538772583
 50
110.22964506332001
 51
118.5716889237176
1001
ACAD
1000
ASC_BOUNDS
1002
{
1070
    19
1005
21A3
1002
}
  0
LINE
  5
21B9
  8
247
 10
-37.058232060450841
 20
-7.0005377007926519
 30
0.0
 11
-37.113005772609043
 21
-6.8268369866813252
 31
0.0
1001
ACAD
1000
ASC_BOUNDS
1002
{
1070
    19
1005
217F
1002
}
  0
POLYLINE
  5
21BA
  8
247
 66
     1
 10
0.0
 20
0.0
 30
0.0
 70
     1
  0
VERTEX
  5
21BB
  8
247
 10
-37.058232060450848
 20
-7.0005377007926519
 30
0.0
  0
VERTEX
  5
21BC
  8
247
 10
-37.11300577260905
 20
-6.8268369866813252
 30
0.0
  0
VERTEX
  5
21BD
  8
247
 10
-37.11300577260905
 20
-6.8268369866813252
 30
0.0
  0
VERTEX
  5
21BE
  8
247
 10
-37.058232060450848
 20
-7.0005377007926519
 30
0.0
  0
SEQEND
  5
21BF
  8
247
  0
POLYLINE
  5
21C0
  8
247
 66
     1
 10
0.0
 20
0.0
 30
0.0
 70
     1
1001
HATCH_DISTANCE
1040
1.0
1001
HATCH_DISPLAY
1070
     0
1001
HATCH_TYPE
1070
     7
  0
VERTEX
  5
21C1
  8
247
 10
-37.058232060450848
 20
-7.0005377007926519
 30
0.0
  0
VERTEX
  5
21C2
  8
247
 10
-37.11300577260905
 20
-6.8268369866813252
 30
0.0
  0
VERTEX
  5
21C3
  8
247
 10
-37.11300577260905
 20
-6.8268369866813252
 30
0.0
  0
VERTEX
  5
21C4
  8
247
 10
-37.058232060450848
 20
-7.0005377007926519
 30
0.0
  0
SEQEND
  5
21C5
  8
247
  0
POLYLINE
  5
21C6
  8
247
 66
     1
 10
0.0
 20
0.0
 30
0.0
 70
     1
  0
VERTEX
  5
21C7
  8
247
 10
-37.058232060450848
 20
-7.0005377007926519
 30
0.0
  0
VERTEX
  5
21C8
  8
247
 10
-37.11300577260905
 20
-6.8268369866813252
 30
0.0
  0
VERTEX
  5
21C9
  8
247
 10
-37.11300577260905
 20
-6.8268369866813252
 30
0.0
  0
VERTEX
  5
21CA
  8
247
 10
-37.058232060450848
 20
-7.0005377007926519
 30
0.0
  0
SEQEND
  5
21CB
  8
247
  0
POLYLINE
  5
21CC
  8
247
 66
     1
 10
0.0
 20
0.0
 30
0.0
 70
     1
1001
HATCH_DISTANCE
1040
1.0
1001
HATCH_DISPLAY
1070
     0
1001
HATCH_TYPE
1070
     7
  0
VERTEX
  5
21CD
  8
247
 10
-37.058232060450848
 20
-7.0005377007926519
 30
0.0
  0
VERTEX
  5
21CE
  8
247
 10
-37.11300577260905
 20
-6.8268369866813252
 30
0.0
  0
VERTEX
  5
21CF
  8
247
 10
-37.11300577260905
 20
-6.8268369866813252
 30
0.0
  0
VERTEX
  5
21D0
  8
247
 10
-37.058232060450848
 20
-7.0005377007926519
 30
0.0
  0
SEQEND
  5
21D1
  8
247
  0
ARC
  5
21D2
  8
247
 10
-36.869562474269209
 20
-7.7501417352164808
 30
0.0
 40
0.7729795932769777
 50
110.8721834020771
 51
132.54194893738671
1001
ACAD
1000
ASC_BOUNDS
1002
{
1070
    19
1005
21A3
1002
}
  0
LINE
  5
21D3
  8
247
 10
-40.091474858302277
 20
-6.7952856255973391
 30
0.0
 11
-39.504742731991549
 21
-6.7952856255974092
 31
0.0
  0
LINE
  5
21D4
  8
247
 10
-40.094329319380464
 20
-7.135177991325393
 30
0.0
 11
-39.754436953652437
 21
-6.7952856255974092
 31
0.0
  0
LINE
  5
21D5
  8
247
 10
-40.17556069238664
 20
-7.4184651270556499
 30
0.0
 11
-39.552381190928379
 21
-6.7952856255974092
 31
0.0
  0
LINE
  5
21D6
  8
247
 10
-40.561675969142243
 20
-6.7952856255973391
 30
0.0
 11
-40.186074009913717
 21
-6.7952856255973391
 31
0.0
1001
ACAD
1000
ASC_BOUNDS
1002
{
1070
    19
1005
217F
1002
}
  0
LINE
  5
21D7
  8
247
 10
-40.561675969142243
 20
-6.9771642877067164
 30
0.0
 11
-40.238224736232077
 21
-6.9771642877067164
 31
0.0
1001
ACAD
1000
ASC_BOUNDS
1002
{
1070
    19
1005
217F
1002
}
  0
LINE
  5
21D8
  8
247
 10
-40.143625584620963
 20
-6.9771642877067164
 30
0.0
 11
-40.049019566554527
 21
-6.9771642877072608
 31
0.0
  0
LINE
  5
21D9
  8
247
 10
-40.091474858302277
 20
-6.7952856255973391
 30
0.0
 11
-40.143625584620963
 21
-6.9771642877067164
 31
0.0
  0
LINE
  5
21DA
  8
247
 10
-40.186074009913717
 20
-6.7952856255973391
 30
0.0
 11
-40.238224736232077
 21
-6.9771642877067164
 31
0.0
1001
ACAD
1000
ASC_BOUNDS
1002
{
1070
    19
1005
217F
1002
}
  0
LINE
  5
21DB
  8
247
 10
-40.13837137848585
 20
-6.9771642877067492
 30
0.0
 11
-39.956492716376488
 21
-6.7952856255973737
 31
0.0
  0
LINE
  5
21DC
  8
247
 10
-38.757562962550438
 20
-6.7952856255973391
 30
0.0
 11
-38.284546605128568
 21
-6.7952856255973391
 31
0.0
  0
LINE
  5
21DD
  8
247
 10
-39.596289334768201
 20
-6.9819181361018066
 30
0.0
 11
-39.745336853677188
 21
-7.5017202425170462
 31
0.0
  0
LINE
  5
21DE
  8
247
 10
-39.557705052359253
 20
-7.0026652497523489
 30
0.0
 11
-39.37012856457865
 21
-6.8150887619717517
 31
0.0
  0
LINE
  5
21DF
  8
247
 10
-39.462105080670312
 20
-7.1091210407874179
 30
0.0
 11
-39.235315830544501
 21
-6.8823317906615991
 31
0.0
  0
LINE
  5
21E0
  8
247
 10
-39.438793400084997
 20
-7.287865122926152
 30
0.0
 11
-39.134437017545402
 21
-6.9835087403865579
 31
0.0
  0
LINE
  5
21E1
  8
247
 10
-38.814932194728172
 20
-6.995346660753591
 30
0.0
 11
-38.748705235499649
 21
-6.995346660753591
 31
0.0
  0
LINE
  5
21E2
  8
247
 10
-38.814932194728172
 20
-6.995346660753591
 30
0.0
 11
-38.757562962550438
 21
-6.7952856255973391
 31
0.0
  0
ARC
  5
21E3
  8
247
 10
-37.678293553370771
 20
-7.3863844109977306
 30
0.0
 40
0.5910996437072754
 50
53.444012197057567
 51
164.0001843876851
1001
ACAD
1000
ASC_BOUNDS
1002
{
1070
    19
1005
21A3
1002
}
  0
LINE
  5
21E4
  8
246
 10
-35.5
 20
-4.5
 30
0.0
 11
-35.0
 21
-4.0
 31
0.0
  0
ARC
  5
21E5
  8
246
 10
-47.0
 20
2.8999999999999759
 30
0.0
 40
1.0
 50
90.0
 51
180.0
  0
LINE
  5
21E6
  8
246
 10
-48.0
 20
-2.0
 30
0.0
 11
-39.5
 21
-2.0
 31
0.0
  0
LINE
  5
21E7
  8
246
 10
-48.0
 20
2.0
 30
0.0
 11
-39.5
 21
2.0
 31
0.0
  0
LINE
  5
21E8
  8
246
 10
-44.700000000000053
 20
4.1999999999999869
 30
0.0
 11
-35.200000000000038
 21
4.1999999999999869
 31
0.0
  0
LINE
  5
21E9
  8
246
 10
-44.400000000000027
 20
4.5
 30
0.0
 11
-35.5
 21
4.5
 31
0.0
  0
LINE
  5
21EA
  8
246
 10
-47.0
 20
3.8999999999999759
 30
0.0
 11
-45.0
 21
3.8999999999999759
 31
0.0
  0
LINE
  5
21EB
  8
246
 10
-44.400000000000027
 20
4.5
 30
0.0
 11
-45.0
 21
3.8999999999999759
 31
0.0
  0
LINE
  5
21EC
  8
246
 10
-39.5
 20
2.0
 30
0.0
 11
-39.17863200000005
 21
1.4433759999999429
 31
0.0
  0
LINE
  5
21ED
  8
246
 10
-39.5
 20
2.0
 30
0.0
 11
-39.5
 21
1.029999999999972
 31
0.0
  0
LINE
  5
21EE
  8
246
 10
-37.306624000000049
 20
1.4433759999999429
 30
0.0
 11
-35.0
 21
3.75
 31
0.0
  0
LINE
  5
21EF
  8
246
 10
-37.306624000000049
 20
1.4433759999999429
 30
0.0
 11
-37.306624000000049
 21
-1.4433759999999991
 31
0.0
  0
LINE
  5
21F0
  8
246
 10
-39.5
 20
-2.0
 30
0.0
 11
-39.17863200000005
 21
-1.4433759999999991
 31
0.0
  0
LINE
  5
21F1
  8
246
 10
-39.5
 20
-2.0
 30
0.0
 11
-39.5
 21
-1.0300000000000289
 31
0.0
  0
LINE
  5
21F2
  8
246
 10
-39.17863200000005
 20
1.4433759999999429
 30
0.0
 11
-39.17863200000005
 21
-1.4433759999999991
 31
0.0
  0
LINE
  5
21F3
  8
246
 10
-37.306624000000049
 20
0.7216879999999719
 30
0.0
 11
-39.17863200000005
 21
0.7216879999999719
 31
0.0
  0
LINE
  5
21F4
  8
246
 10
-37.306624000000049
 20
1.4433759999999429
 30
0.0
 11
-39.17863200000005
 21
1.4433759999999429
 31
0.0
  0
LINE
  5
21F5
  8
246
 10
-37.306624000000049
 20
-0.7216880000000288
 30
0.0
 11
-39.17863200000005
 21
-0.7216880000000288
 31
0.0
  0
LINE
  5
21F6
  8
246
 10
-37.306624000000049
 20
-1.4433759999999991
 30
0.0
 11
-39.17863200000005
 21
-1.4433759999999991
 31
0.0
  0
LINE
  5
21F7
  8
246
 10
-35.0
 20
4.0
 30
0.0
 11
-35.5
 21
4.5
 31
0.0
  0
LINE
  5
21F8
  8
241
 10
-10.70000000000004
 20
-9.8000000000000114
 30
0.0
 11
-10.70000000000004
 21
0.0
 31
0.0
  0
LINE
  5
21F9
  8
241
 10
-11.0
 20
-8.0
 30
0.0
 11
-11.0
 21
0.0
 31
0.0
  0
LINE
  5
21FA
  8
241
 10
-13.5
 20
-7.5
 30
0.0
 11
-13.5
 21
0.0
 31
0.0
  0
LINE
  5
21FB
  8
246
 10
-18.000000000000021
 20
-4.7364990000000358
 30
0.0
 11
-18.0
 21
4.7364989999999221
 31
0.0
  0
LINE
  5
21FC
  8
241
 10
-15.5
 20
9.0
 30
0.0
 11
-15.5
 21
-9.0
 31
0.0
  0
ARC
  5
21FD
  8
241
 10
-30.000000000000021
 20
0.0
 30
0.0
 40
10.00000000000002
 50
328.21165178285452
 51
31.788330617051589
  0
LINE
  5
21FE
  8
241
 10
-21.499999999999989
 20
-5.2678268764263763
 30
0.0
 11
-21.499999999999989
 21
5.2678268764263763
 31
0.0
  0
ARC
  5
21FF
  8
240
 10
-10.100000000000019
 20
-11.900000000000031
 30
0.0
 40
0.6
 50
180.0
 51
270.0
  0
LINE
  5
2200
  8
242
 10
-11.0
 20
-7.5
 30
0.0
 11
-13.5
 21
-7.5
 31
0.0
  0
LINE
  5
2201
  8
240
 10
-11.0
 20
-8.0
 30
0.0
 11
-14.5
 21
-8.0
 31
0.0
  0
LINE
  5
2202
  8
242
 10
-13.5
 20
-7.5
 30
0.0
 11
-14.0
 21
-8.0
 31
0.0
  0
ARC
  5
2203
  8
240
 10
-16.5
 20
-9.0
 30
0.0
 40
1.0
 50
270.0
 51
0.0
  0
ARC
  5
2204
  8
240
 10
-14.5
 20
-9.0
 30
0.0
 40
1.0
 50
89.999999999999986
 51
180.0
  0
LINE
  5
2205
  8
240
 10
-11.0
 20
-9.5
 30
0.0
 11
-11.0
 21
-8.0
 31
0.0
  0
LINE
  5
2206
  8
240
 10
-11.0
 20
-9.5
 30
0.0
 11
-10.70000000000004
 21
-9.8000000000000114
 31
0.0
  0
LINE
  5
2207
  8
240
 10
-10.70000000000004
 20
-11.900000000000031
 30
0.0
 11
-10.70000000000004
 21
-9.8000000000000114
 31
0.0
  0
LINE
  5
2208
  8
241
 10
-11.0
 20
8.0
 30
0.0
 11
-11.0
 21
0.0
 31
0.0
  0
LINE
  5
2209
  8
241
 10
-10.70000000000004
 20
9.7999999999999527
 30
0.0
 11
-10.70000000000004
 21
0.0
 31
0.0
  0
LINE
  5
220A
  8
241
 10
-13.5
 20
7.5
 30
0.0
 11
-13.5
 21
0.0
 31
0.0
  0
LINE
  5
220B
  8
242
 10
-11.0
 20
7.5
 30
0.0
 11
-13.5
 21
7.5
 31
0.0
  0
LINE
  5
220C
  8
240
 10
-11.0
 20
8.0000000000000018
 30
0.0
 11
-14.5
 21
8.0
 31
0.0
  0
ARC
  5
220D
  8
240
 10
-16.5
 20
9.0
 30
0.0
 40
1.0
 50
0.0
 51
90.0
  0
ARC
  5
220E
  8
240
 10
-14.5
 20
9.0
 30
0.0
 40
1.0
 50
180.0
 51
270.0
  0
LINE
  5
220F
  8
242
 10
-13.5
 20
7.5
 30
0.0
 11
-14.0
 21
8.0
 31
0.0
  0
LINE
  5
2210
  8
240
 10
-10.70000000000004
 20
9.7999999999999527
 30
0.0
 11
-10.70000000000004
 21
11.89999999999997
 31
0.0
  0
LINE
  5
2211
  8
240
 10
-11.0
 20
9.5
 30
0.0
 11
-10.70000000000004
 21
9.7999999999999527
 31
0.0
  0
LINE
  5
2212
  8
240
 10
-11.0
 20
9.5
 30
0.0
 11
-11.0
 21
8.0
 31
0.0
  0
ARC
  5
2213
  8
240
 10
-10.100000000000019
 20
11.89999999999997
 30
0.0
 40
0.6
 50
90.0
 51
180.0
  0
LINE
  5
2214
  8
241
 10
-0.948528000000067
 20
12.13812699999999
 30
0.0
 11
-0.948528000000067
 21
-12.185431000000049
 31
0.0
  0
LINE
  5
2215
  8
240
 10
0.0
 20
0.0
 30
0.0
 11
0.0
 21
-11.592893000000061
 31
0.0
  0
LINE
  5
2216
  8
240
 10
-0.5242640000000165
 20
-12.324264000000021
 30
0.0
 11
-0.1464460000000258
 21
-11.946447000000029
 31
0.0
  0
ARC
  5
2217
  8
240
 10
-0.948528000000067
 20
-11.900000000000031
 30
0.0
 40
0.6
 50
270.0
 51
315.00000000000023
  0
LINE
  5
2218
  8
241
 10
-4.0
 20
-11.497093
 30
0.0
 11
-4.0
 21
-9.9970930000000067
 31
0.0
  0
ARC
  5
2219
  8
240
 10
-0.5
 20
-11.592893000000061
 30
0.0
 40
0.5
 50
315.00000000000023
 51
0.0
  0
LINE
  5
221A
  8
246
 10
0.0
 20
-5.3262399999999834
 30
0.0
 11
-1.6000000000000221
 21
-6.25
 31
0.0
  0
LINE
  5
221B
  8
246
 10
-1.700000000000045
 20
-6.25
 30
0.0
 11
-1.6000000000000221
 21
-6.25
 31
0.0
  0
LINE
  5
221C
  8
246
 10
-1.700000000000045
 20
-5.25
 30
0.0
 11
-1.700000000000045
 21
-6.25
 31
0.0
  0
LINE
  5
221D
  8
246
 10
-3.600000000000021
 20
-5.25
 30
0.0
 11
-3.600000000000021
 21
-6.25
 31
0.0
  0
LINE
  5
221E
  8
246
 10
-3.600000000000021
 20
-5.25
 30
0.0
 11
-1.700000000000045
 21
-5.25
 31
0.0
  0
LINE
  5
221F
  8
240
 10
0.0
 20
0.0
 30
0.0
 11
0.0
 21
11.592893
 31
0.0
  0
LINE
  5
2220
  8
241
 10
-4.0
 20
-1.5
 30
0.0
 11
-4.0
 21
0.0
 31
0.0
  0
LINE
  5
2221
  8
241
 10
-4.0
 20
1.5
 30
0.0
 11
-4.0
 21
0.0
 31
0.0
  0
LINE
  5
2222
  8
246
 10
0.0
 20
5.3262389999999851
 30
0.0
 11
-1.6000000000000221
 21
6.25
 31
0.0
  0
LINE
  5
2223
  8
246
 10
-1.700000000000045
 20
5.25
 30
0.0
 11
-1.700000000000045
 21
6.25
 31
0.0
  0
LINE
  5
2224
  8
246
 10
-1.700000000000045
 20
6.25
 30
0.0
 11
-1.6000000000000221
 21
6.25
 31
0.0
  0
LINE
  5
2225
  8
246
 10
-3.600000000000021
 20
5.25
 30
0.0
 11
-3.600000000000021
 21
6.25
 31
0.0
  0
LINE
  5
2226
  8
246
 10
-3.600000000000021
 20
5.25
 30
0.0
 11
-1.700000000000045
 21
5.25
 31
0.0
  0
LINE
  5
2227
  8
241
 10
-4.0
 20
11.497093
 30
0.0
 11
-4.0
 21
9.9970930000000067
 31
0.0
  0
ARC
  5
2228
  8
240
 10
-0.948528000000067
 20
11.89999999999997
 30
0.0
 40
0.6
 50
44.999999999999751
 51
90.0
  0
ARC
  5
2229
  8
240
 10
-0.5
 20
11.592893
 30
0.0
 40
0.5
 50
0.0
 51
44.999999999999751
  0
LINE
  5
222A
  8
240
 10
-0.1464460000000258
 20
11.946446999999971
 30
0.0
 11
-0.5242640000000165
 21
12.324263999999969
 31
0.0
  0
VIEWPORT
  5
22
 67
     1
  8
0
 10
261.51769911504419
 20
148.5
 30
0.0
 40
523.0353982300885
 41
297.0
 68
     1
 69
     1
1001
ACAD
1000
MVIEW
1002
{
1070
    16
1010
0.0
1020
0.0
1030
0.0
1010
0.0
1020
0.0
1030
1.0
1040
0.0
1040
297.0
1040
261.51769911504419
1040
148.5
1040
50.0
1040
0.0
1040
0.0
1070
     0
1070
   100
1070
     1
1070
     1
1070
     0
1070
     0
1070
     0
1070
     0
1040
0.0
1040
0.0
1040
0.0
1040
1.0
1040
1.0
1040
10.0
1040
10.0
1070
     0
1002
{
1002
}
1002
}
1001
GENIUS_GENOBJ-N-SDF_13
1002
{
1000
OWNER
1000
GEN
1002
}
1001
GENIUS_GENODEF_13
1002
{
1000
HIER
1070
     0
1002
}
1002
{
1000
MANEDIT
1070
     0
1002
}
1002
{
1000
NOSEL
1070
     0
1002
}
1002
{
1000
BEHIND
1070
     0
1002
}
1002
{
1000
OTHER
1070
     0
1002
}
1002
{
1000
REACTOR
1002
}
1001
GENIUS_GENSCREG_15
1000
PF
1040
1.0
1000
DF
1040
1.0
1000
MIN
1011
0.0
1021
-0.0
1031
0.0
1021
0.0
1031
0.0
1000
MAX
1011
523.0353982300885
1021
-0.0
1031
0.0
1021
297.0
1031
0.0
1000
FLAGS
1070
     2
  0
ENDSEC
  0
EOF
