  0
SECTION
  2
HEADER
  9
$ACADVER
  1
AC1009
  9
$INSBASE
 10
0.0
 20
0.0
 30
0.0
  9
$EXTMIN
 10
-114.02508391809511
 20
-36.015013731998643
 30
-0.0000000349181948
  9
$EXTMAX
 10
22.00491501320505
 20
54.000550232827891
 30
0.0000000814935747
  9
$LIMMIN
 10
0.0
 20
0.0
  9
$LIMMAX
 10
297.0
 20
210.0
  9
$ORTHOMODE
 70
     0
  9
$REGENMODE
 70
     1
  9
$FILLMODE
 70
     1
  9
$QTEXTMODE
 70
     0
  9
$MIRRTEXT
 70
     1
  9
$DRAGMODE
 70
     2
  9
$LTSCALE
 40
10.0
  9
$OSMODE
 70
    39
  9
$ATTMODE
 70
     1
  9
$TEXTSIZE
 40
3.0
  9
$TRACEWID
 40
1.0
  9
$TEXTSTYLE
  7
YOKO
  9
$CLAYER
  8
240
  9
$CELTYPE
  6
BYLAYER
  9
$CECOLOR
 62
   256
  9
$DIMSCALE
 40
1.0
  9
$DIMASZ
 40
2.2299999999999991
  9
$DIMEXO
 40
0.5
  9
$DIMDLI
 40
2.5
  9
$DIMRND
 40
0.0
  9
$DIMDLE
 40
0.0
  9
$DIMEXE
 40
1.0
  9
$DIMTP
 40
0.0
  9
$DIMTM
 40
0.0
  9
$DIMTXT
 40
3.0
  9
$DIMCEN
 40
0.0
  9
$DIMTSZ
 40
0.0
  9
$DIMTOL
 70
     0
  9
$DIMLIM
 70
     0
  9
$DIMTIH
 70
     0
  9
$DIMTOH
 70
     0
  9
$DIMSE1
 70
     0
  9
$DIMSE2
 70
     0
  9
$DIMTAD
 70
     3
  9
$DIMZIN
 70
     8
  9
$DIMBLK
  1
OPEN
  9
$DIMASO
 70
     1
  9
$DIMSHO
 70
     1
  9
$DIMPOST
  1

  9
$DIMAPOST
  1

  9
$DIMALT
 70
     0
  9
$DIMALTD
 70
     2
  9
$DIMALTF
 40
25.399999999999999
  9
$DIMLFAC
 40
1.0
  9
$DIMTOFL
 70
     1
  9
$DIMTVP
 40
0.0
  9
$DIMTIX
 70
     0
  9
$DIMSOXD
 70
     0
  9
$DIMSAH
 70
     0
  9
$DIMBLK1
  1

  9
$DIMBLK2
  1

  9
$DIMSTYLE
  2
BIGT
  9
$DIMCLRD
 70
   256
  9
$DIMCLRE
 70
   256
  9
$DIMCLRT
 70
    40
  9
$DIMTFAC
 40
1.0
  9
$DIMGAP
 40
1.0
  9
$LUNITS
 70
     2
  9
$LUPREC
 70
     3
  9
$SKETCHINC
 40
1.0
  9
$FILLETRAD
 40
0.5
  9
$AUNITS
 70
     0
  9
$AUPREC
 70
     3
  9
$MENU
  1
.
  9
$ELEVATION
 40
0.0
  9
$PELEVATION
 40
0.0
  9
$THICKNESS
 40
0.0
  9
$LIMCHECK
 70
     0
  9
$BLIPMODE
 70
     0
  9
$CHAMFERA
 40
0.5
  9
$CHAMFERB
 40
0.5
  9
$SKPOLY
 70
     0
  9
$TDCREATE
 40
2452180.6834450932
  9
$TDUPDATE
 40
2456315.6675180788
  9
$TDINDWG
 40
0.0980231829
  9
$TDUSRTIMER
 40
0.0980229977
  9
$USRTIMER
 70
     1
  9
$ANGBASE
 50
0.0
  9
$ANGDIR
 70
     0
  9
$PDMODE
 70
    35
  9
$PDSIZE
 40
2.0
  9
$PLINEWID
 40
0.0
  9
$COORDS
 70
     0
  9
$SPLFRAME
 70
     0
  9
$SPLINETYPE
 70
     6
  9
$SPLINESEGS
 70
     8
  9
$ATTDIA
 70
     1
  9
$ATTREQ
 70
     1
  9
$HANDLING
 70
     1
  9
$HANDSEED
  5
227F
  9
$SURFTAB1
 70
     6
  9
$SURFTAB2
 70
     6
  9
$SURFTYPE
 70
     6
  9
$SURFU
 70
     6
  9
$SURFV
 70
     6
  9
$UCSNAME
  2

  9
$UCSORG
 10
0.0
 20
0.0
 30
0.0
  9
$UCSXDIR
 10
1.0
 20
0.0
 30
0.0
  9
$UCSYDIR
 10
0.0
 20
1.0
 30
0.0
  9
$PUCSNAME
  2

  9
$PUCSORG
 10
0.0
 20
0.0
 30
0.0
  9
$PUCSXDIR
 10
1.0
 20
0.0
 30
0.0
  9
$PUCSYDIR
 10
0.0
 20
1.0
 30
0.0
  9
$USERI1
 70
     1
  9
$USERI2
 70
     0
  9
$USERI3
 70
     0
  9
$USERI4
 70
     0
  9
$USERI5
 70
     0
  9
$USERR1
 40
0.0
  9
$USERR2
 40
0.0
  9
$USERR3
 40
0.0
  9
$USERR4
 40
0.0
  9
$USERR5
 40
0.0
  9
$WORLDVIEW
 70
     1
  9
$SHADEDGE
 70
     3
  9
$SHADEDIF
 70
    70
  9
$TILEMODE
 70
     1
  9
$MAXACTVP
 70
    16
  9
$PLIMCHECK
 70
     0
  9
$PEXTMIN
 10
1.0000000000000000E+020
 20
1.0000000000000000E+020
 30
1.0000000000000000E+020
  9
$PEXTMAX
 10
-1.0000000000000000E+020
 20
-1.0000000000000000E+020
 30
-1.0000000000000000E+020
  9
$PLIMMIN
 10
0.0
 20
0.0
  9
$PLIMMAX
 10
420.0
 20
297.0
  9
$UNITMODE
 70
     0
  9
$VISRETAIN
 70
     0
  9
$PLINEGEN
 70
     0
  9
$PSLTSCALE
 70
     1
  0
ENDSEC
  0
SECTION
  2
TABLES
  0
TABLE
  2
VPORT
 70
     7
  0
VPORT
  2
*ACTIVE
 70
     0
 10
0.0
 20
0.0
 11
1.0
 21
1.0
 12
-46.010084452445021
 22
8.9927682504146276
 13
0.0
 23
0.0
 14
7.0
 24
7.0
 15
7.0
 25
7.0
 16
0.0
 26
0.0
 36
1.0
 17
0.0
 27
0.0
 37
0.0
 40
93.581499135928851
 41
1.4600431965442759
 42
50.0
 43
0.0
 44
0.0
 50
0.0
 51
0.0
 71
     0
 72
  2000
 73
     1
 74
     0
 75
     0
 76
     1
 77
     0
 78
     0
  0
ENDTAB
  0
TABLE
  2
LTYPE
 70
    13
  0
LTYPE
  2
CONTINUOUS
 70
     0
  3
Solid line
 72
    65
 73
     0
 40
0.0
  0
LTYPE
  2
CENTER2
 70
     0
  3
___ _ ___ _ ___ _ ___ _ ___ _ ___ _ ___ _ ___ _
 72
    65
 73
     4
 40
1.125
 49
0.75
 49
-0.125
 49
0.125
 49
-0.125
  0
LTYPE
  2
PHANTOM2
 70
     0
  3
___ _ _ ___ _ _ ___ _ _ ___ _ _ ___ _ _ ___ _ _
 72
    65
 73
     6
 40
1.25
 49
0.625
 49
-0.125
 49
0.125
 49
-0.125
 49
0.125
 49
-0.125
  0
LTYPE
  2
HIDDEN2
 70
     0
  3
_ _ _ _ _ _ _ _ _ _ _ _ _ _ _ _ _ _ _ _ _ _ _ _
 72
    65
 73
     2
 40
0.1875
 49
0.125
 49
-0.0625
  0
LTYPE
  2
AMCONSTR
 70
     0
  3
_______________________
 72
    65
 73
     2
 40
9999.0
 49
9999.0
 49
0.0
  0
LTYPE
  2
AM_ISO02W050
 70
     0
  3
__ __ __ __ __ __ __ __ __ __ __ __ __ __ __
 72
    65
 73
     2
 40
7.5
 49
6.0
 49
-1.5
  0
LTYPE
  2
HIDDEN
 70
     0
  3
Hidden __ __ __ __ __ __ __ __ __ __ __ __ __ _
 72
    65
 73
     2
 40
9.5249999999999986
 49
6.3499999999999988
 49
-3.1749999999999989
  0
LTYPE
  2
CENTER
 70
     0
  3
____ _ ____ _ ____ _ ____ _ ____ _ ____ _ ____ 
 72
    65
 73
     4
 40
2.0
 49
1.25
 49
-0.25
 49
0.25
 49
-0.25
  0
LTYPE
  2
ACJISTGB
 70
     0
  3
__ . . __ . .
 72
    65
 73
     6
 40
9.0
 49
4.0
 49
-1.0
 49
1.0
 49
-1.0
 49
1.0
 49
-1.0
  0
LTYPE
  2
ACJISTGL
 70
     0
  3
_ _ _ _ _
 72
    65
 73
     2
 40
3.0
 49
2.0
 49
-1.0
  0
LTYPE
  2
ACISOWELD
 70
     0
  3
_ _ _ _ _
 72
    65
 73
     2
 40
2.0
 49
2.0
 49
-1.0
  0
LTYPE
  2
ACISOTGB
 70
     0
  3
__ . . __ . .
 72
    65
 73
     6
 40
9.0
 49
4.0
 49
-1.0
 49
1.0
 49
-1.0
 49
1.0
 49
-1.0
  0
LTYPE
  2
ACISOTGL
 70
     0
  3
_ _ _ _ _
 72
    65
 73
     2
 40
3.0
 49
2.0
 49
-1.0
  0
ENDTAB
  0
TABLE
  2
LAYER
 70
    10
  0
LAYER
  2
0
 70
     0
 62
     7
  6
CONTINUOUS
  0
LAYER
  2
240
 70
     0
 62
     4
  6
CONTINUOUS
  0
LAYER
  2
241
 70
     0
 62
   211
  6
CONTINUOUS
  0
LAYER
  2
242
 70
     0
 62
     3
  6
CONTINUOUS
  0
LAYER
  2
245
 70
     0
 62
     2
  6
CENTER2
  0
LAYER
  2
246
 70
     0
 62
     3
  6
PHANTOM2
  0
LAYER
  2
247
 70
     0
 62
    60
  6
CONTINUOUS
  0
LAYER
  2
250
 70
     0
 62
     3
  6
CONTINUOUS
  0
LAYER
  2
DEFPOINTS
 70
     0
 62
     7
  6
CONTINUOUS
  0
ENDTAB
  0
TABLE
  2
STYLE
 70
     6
  0
STYLE
  2
STANDARD
 70
     0
 40
0.0
 41
1.0
 50
0.0
 71
     0
 42
3.0
  3
romans.shx
  4
BIGFONT.SHX
  0
STYLE
  2
YOKO
 70
     0
 40
0.0
 41
1.0
 50
0.0
 71
     0
 42
3.0
  3
romans.shx
  4
extfont.shx
  0
STYLE
  2
ACJISGDT
 70
     0
 40
0.0
 41
1.0
 50
0.0
 71
     0
 42
3.0
  3
amgdt.shx
  4
extfont.shx
  0
STYLE
  2
ACJISTS
 70
     0
 40
1.0
 41
1.0
 50
0.0
 71
     0
 42
3.0
  3
amgdt.shx
  4
extfont.shx
  0
STYLE
  2
ACISOTS
 70
     0
 40
1.0
 41
1.0
 50
0.0
 71
     0
 42
3.0
  3
amgdt.shx
  4
extfont.shx
  0
STYLE
  2
ACISOGDT
 70
     0
 40
0.0
 41
1.0
 50
0.0
 71
     0
 42
3.0
  3
amgdt.shx
  4
extfont.shx
  0
ENDTAB
  0
TABLE
  2
VIEW
 70
     0
  0
ENDTAB
  0
TABLE
  2
UCS
 70
     0
  0
ENDTAB
  0
TABLE
  2
APPID
 70
    31
  0
APPID
  2
ACAD
 70
     0
  0
APPID
  2
GLOBAL
 70
     0
  0
APPID
  2
DETAIL
 70
     0
  0
APPID
  2
GRPNAME
 70
     0
  0
APPID
  2
GPARA
 70
     0
  0
APPID
  2
ITEMNAME
 70
     0
  0
APPID
  2
HATCH_TYPE
 70
     0
  0
APPID
  2
HATCH_DISPLAY
 70
     0
  0
APPID
  2
HATCH_DISTANCE
 70
     0
  0
APPID
  2
MCAD_NO_VIS
 70
     0
  0
APPID
  2
ACAD_TEMP_GRAPHIC
 70
     0
  0
APPID
  2
ACATTRIBSERVICES
 70
     0
  0
APPID
  2
GENIUS_GENSCREG_15
 70
     0
  0
APPID
  2
GENIUS_GENODEF_13
 70
     0
  0
APPID
  2
GENIUS_GENOBJ-N-SDF_13
 70
     0
  0
APPID
  2
GENIUS_GENREC_14
 70
     0
  0
APPID
  2
GENIUS_GENOBJ-N-REC_13
 70
     0
  0
APPID
  2
GENIUS_GENDIMSH_14
 70
     0
  0
APPID
  2
GENIUS_GENOBJ-N-DIM_13
 70
     0
  0
APPID
  2
GENIUS_GENDIM_13
 70
     0
  0
APPID
  2
GENIUS_GENDTOL_13
 70
     0
  0
APPID
  2
GENIUS_GENOLIS_13
 70
     0
  0
APPID
  2
GENIUS_GENOENT_13
 70
     0
  0
APPID
  2
GENIUS_GENOBJ-F-FEM_13
 70
     0
  0
APPID
  2
GENIUS_GENOREF_13
 70
     0
  0
APPID
  2
GENIUS_GEFFEM_13
 70
     0
  0
APPID
  2
GENIUS_GEFFEMP_13
 70
     0
  0
APPID
  2
AD_DRAW
 70
     0
  0
APPID
  2
DESIGNERASSEMBLIES
 70
     0
  0
APPID
  2
ACADM_DIM_EDIT
 70
     0
  0
APPID
  2
AMDT_DM_ADJ
 70
     0
  0
ENDTAB
  0
TABLE
  2
DIMSTYLE
 70
    24
  0
DIMSTYLE
  2
STANDARD
 70
     0
  3

  4

  5

  6

  7

 40
1.0
 41
2.0
 42
2.0
 43
3.75
 44
2.0
 45
0.0
 46
0.0
 47
0.0
 48
0.0
140
4.0
141
0.09
142
0.0
143
25.399999999999999
144
1.0
145
0.0
146
1.0
147
1.0
 71
     0
 72
     0
 73
     1
 74
     1
 75
     0
 76
     0
 77
     0
 78
     8
170
     0
171
     2
172
     0
173
     1
174
     0
175
     0
176
   256
177
   256
178
   256
  0
DIMSTYLE
  2
BIGT
 70
     0
  3

  4

  5
OPEN
  6

  7

 40
1.0
 41
2.2299999999999991
 42
0.5
 43
7.0
 44
1.0
 45
0.0
 46
0.0
 47
0.0
 48
0.01
140
2.7999999999999989
141
0.0
142
0.0
143
25.399999999999999
144
1.0
145
0.0
146
1.0
147
1.0
 71
     0
 72
     0
 73
     0
 74
     0
 75
     0
 76
     0
 77
     3
 78
     9
170
     0
171
     2
172
     1
173
     0
174
     1
175
     0
176
   256
177
   256
178
    40
  0
DIMSTYLE
  2
BIGT$0
 70
     0
  3

  4

  5
OPEN
  6

  7

 40
1.0
 41
2.2299999999999991
 42
0.5
 43
7.0
 44
1.0
 45
0.0
 46
0.0
 47
0.0
 48
0.01
140
2.7999999999999989
141
0.0
142
0.0
143
25.399999999999999
144
1.0
145
0.0
146
1.0
147
1.0
 71
     0
 72
     0
 73
     0
 74
     0
 75
     0
 76
     0
 77
     3
 78
     9
170
     0
171
     2
172
     1
173
     0
174
     0
175
     0
176
   256
177
   256
178
    40
  0
DIMSTYLE
  2
BIGT$2
 70
     0
  3

  4

  5
OPEN
  6

  7

 40
1.0
 41
2.2299999999999991
 42
0.5
 43
7.0
 44
1.0
 45
0.0
 46
0.0
 47
0.0
 48
0.01
140
2.7999999999999989
141
0.0
142
0.0
143
25.399999999999999
144
1.0
145
0.0
146
1.0
147
1.0
 71
     0
 72
     0
 73
     0
 74
     0
 75
     0
 76
     0
 77
     3
 78
     9
170
     0
171
     2
172
     1
173
     0
174
     0
175
     0
176
   256
177
   256
178
    40
  0
DIMSTYLE
  2
BIGT$3
 70
     0
  3

  4

  5
OPEN
  6

  7

 40
1.0
 41
2.2299999999999991
 42
0.5
 43
2.5
 44
1.0
 45
0.0
 46
0.0
 47
0.0
 48
0.01
140
2.7999999999999989
141
0.0
142
0.0
143
25.399999999999999
144
1.0
145
0.0
146
1.0
147
1.0
 71
     0
 72
     0
 73
     0
 74
     0
 75
     0
 76
     0
 77
     3
 78
     9
170
     0
171
     2
172
     1
173
     0
174
     0
175
     0
176
   256
177
   256
178
    40
  0
DIMSTYLE
  2
BIGT$4
 70
     0
  3

  4

  5
OPEN
  6

  7

 40
1.0
 41
2.2299999999999991
 42
0.5
 43
2.5
 44
1.0
 45
0.0
 46
0.0
 47
0.0
 48
0.01
140
2.7999999999999989
141
0.0
142
0.0
143
25.399999999999999
144
1.0
145
0.0
146
1.0
147
1.0
 71
     0
 72
     0
 73
     0
 74
     0
 75
     0
 76
     0
 77
     3
 78
     9
170
     0
171
     2
172
     1
173
     0
174
     0
175
     0
176
   256
177
   256
178
    40
  0
DIMSTYLE
  2
BIGT$6
 70
     0
  3

  4

  5
OPEN
  6

  7

 40
1.0
 41
2.2299999999999991
 42
0.5
 43
2.5
 44
1.0
 45
0.0
 46
0.0
 47
0.0
 48
0.01
140
2.7999999999999989
141
0.0
142
0.0
143
25.399999999999999
144
1.0
145
0.0
146
1.0
147
1.0
 71
     0
 72
     0
 73
     0
 74
     0
 75
     0
 76
     0
 77
     3
 78
     9
170
     0
171
     2
172
     1
173
     0
174
     0
175
     0
176
   256
177
   256
178
    40
  0
DIMSTYLE
  2
BIGT$7
 70
     0
  3

  4

  5
OPEN
  6

  7

 40
0.0
 41
2.2299999999999991
 42
0.5
 43
7.0
 44
1.0
 45
0.0
 46
0.0
 47
0.0
 48
0.01
140
2.7999999999999989
141
0.0
142
0.0
143
25.399999999999999
144
1.0
145
0.0
146
1.0
147
1.0
 71
     0
 72
     0
 73
     0
 74
     0
 75
     0
 76
     0
 77
     3
 78
     9
170
     0
171
     2
172
     0
173
     0
174
     0
175
     0
176
   256
177
   256
178
    40
  0
DIMSTYLE
  2
BIGT$SF
 70
     0
  3

  4

  5
OPEN
  6

  7

 40
1.0
 41
2.2299999999999991
 42
0.5
 43
7.0
 44
1.0
 45
0.0
 46
0.0
 47
0.0
 48
0.0
140
2.7999999999999989
141
0.0
142
0.0
143
25.399999999999999
144
1.0
145
0.0
146
1.0
147
1.0
 71
     0
 72
     0
 73
     0
 74
     0
 75
     0
 76
     0
 77
     3
 78
     9
170
     0
171
     2
172
     1
173
     0
174
     0
175
     0
176
   256
177
   256
178
    40
  0
DIMSTYLE
  2
BIGT$SH
 70
     0
  3

  4

  5
OPEN
  6

  7

 40
1.0
 41
2.2299999999999991
 42
0.5
 43
7.0
 44
1.0
 45
0.0
 46
0.0
 47
0.0
 48
0.0
140
2.7999999999999989
141
0.0
142
0.0
143
25.399999999999999
144
1.0
145
0.0
146
1.0
147
1.0
 71
     0
 72
     0
 73
     0
 74
     0
 75
     0
 76
     0
 77
     3
 78
     9
170
     0
171
     2
172
     1
173
     0
174
     0
175
     0
176
   256
177
   256
178
    40
  0
DIMSTYLE
  2
AM_ISO
 70
     0
  3

  4
"
  5

  6

  7

 40
1.0
 41
2.5
 42
1.0
 43
10.0
 44
1.0
 45
0.0
 46
0.0
 47
0.1
 48
0.1
140
3.5
141
0.0
142
0.0
143
0.0393701
144
1.0
145
0.0
146
0.71
147
1.5
 71
     0
 72
     0
 73
     0
 74
     0
 75
     0
 76
     0
 77
     1
 78
     8
170
     0
171
     2
172
     1
173
     0
174
     0
175
     0
176
   256
177
   256
178
     2
  0
DIMSTYLE
  2
AM_ISO$3
 70
     0
  3

  4
"
  5

  6

  7

 40
1.0
 41
2.5
 42
1.0
 43
10.0
 44
1.0
 45
0.0
 46
0.0
 47
0.1
 48
0.1
140
3.5
141
0.0
142
0.0
143
0.0393701
144
1.0
145
0.0
146
0.71
147
1.5
 71
     0
 72
     0
 73
     0
 74
     1
 75
     0
 76
     0
 77
     1
 78
     8
170
     0
171
     2
172
     0
173
     0
174
     0
175
     0
176
   256
177
   256
178
     2
  0
DIMSTYLE
  2
AM_ISO$4
 70
     0
  3

  4
"
  5

  6

  7

 40
1.0
 41
2.5
 42
1.0
 43
10.0
 44
1.0
 45
0.0
 46
0.0
 47
0.1
 48
0.1
140
3.5
141
0.0
142
0.0
143
0.0393701
144
1.0
145
0.0
146
0.71
147
1.5
 71
     0
 72
     0
 73
     0
 74
     1
 75
     0
 76
     0
 77
     1
 78
     8
170
     0
171
     2
172
     0
173
     0
174
     0
175
     0
176
   256
177
   256
178
     2
  0
DIMSTYLE
  2
AM_ISO$6
 70
     0
  3

  4
"
  5

  6

  7

 40
1.0
 41
2.5
 42
1.0
 43
10.0
 44
1.0
 45
0.0
 46
0.0
 47
0.1
 48
0.1
140
3.5
141
0.0
142
0.0
143
0.0393701
144
1.0
145
0.0
146
0.71
147
1.5
 71
     0
 72
     0
 73
     0
 74
     0
 75
     0
 76
     0
 77
     0
 78
     8
170
     0
171
     2
172
     1
173
     0
174
     0
175
     0
176
   256
177
   256
178
     2
  0
DIMSTYLE
  2
AM_ISO$7
 70
     0
  3

  4
"
  5

  6

  7

 40
1.0
 41
2.5
 42
1.0
 43
10.0
 44
1.0
 45
0.0
 46
0.0
 47
0.1
 48
0.1
140
5.0
141
0.0
142
0.0
143
0.0393701
144
1.0
145
0.0
146
0.71
147
1.5
 71
     0
 72
     0
 73
     0
 74
     0
 75
     0
 76
     0
 77
     1
 78
     8
170
     0
171
     2
172
     1
173
     0
174
     0
175
     0
176
   256
177
   256
178
     2
  0
DIMSTYLE
  2
AM_ISO$SF
 70
     0
  3

  4
"
  5

  6

  7

 40
1.0
 41
2.5
 42
1.0
 43
10.0
 44
1.0
 45
0.0
 46
0.0
 47
0.1
 48
0.1
140
3.5
141
0.0
142
0.0
143
0.0393701
144
1.0
145
0.0
146
0.71
147
1.5
 71
     0
 72
     0
 73
     0
 74
     0
 75
     1
 76
     1
 77
     1
 78
     8
170
     0
171
     2
172
     1
173
     0
174
     0
175
     0
176
   256
177
   256
178
     2
  0
DIMSTYLE
  2
AM_ISO$SH
 70
     0
  3

  4
"
  5

  6
GENAXEH
  7

 40
1.0
 41
2.5
 42
1.0
 43
10.0
 44
1.0
 45
0.0
 46
0.0
 47
0.1
 48
0.1
140
3.5
141
0.0
142
0.0
143
0.0393701
144
2.0
145
0.0
146
0.71
147
1.5
 71
     0
 72
     0
 73
     0
 74
     0
 75
     1
 76
     1
 77
     1
 78
     8
170
     0
171
     2
172
     1
173
     1
174
     0
175
     0
176
   256
177
   256
178
     2
  0
DIMSTYLE
  2
TECHNICAL_OSAKA
 70
     0
  3

  4
"
  5
OPEN30
  6

  7

 40
1.0
 41
2.5
 42
1.0
 43
10.0
 44
1.0
 45
0.0
 46
0.0
 47
0.1
 48
0.1
140
2.7999999999999989
141
0.0
142
0.0
143
0.0393701
144
1.0
145
0.0
146
0.71
147
1.5
 71
     0
 72
     0
 73
     0
 74
     0
 75
     0
 76
     0
 77
     3
 78
     8
170
     0
171
     2
172
     1
173
     0
174
     0
175
     0
176
   256
177
   256
178
    40
  0
DIMSTYLE
  2
TECHNICAL_OSAKA$3
 70
     0
  3

  4
"
  5
OPEN30
  6

  7

 40
1.0
 41
2.5
 42
1.0
 43
10.0
 44
1.0
 45
0.0
 46
0.0
 47
0.1
 48
0.1
140
2.7999999999999989
141
0.0
142
0.0
143
0.0393701
144
1.0
145
0.0
146
0.71
147
1.5
 71
     0
 72
     0
 73
     0
 74
     1
 75
     0
 76
     0
 77
     3
 78
     8
170
     0
171
     2
172
     0
173
     0
174
     0
175
     0
176
   256
177
   256
178
    40
  0
DIMSTYLE
  2
TECHNICAL_OSAKA$4
 70
     0
  3

  4
"
  5
OPEN30
  6

  7

 40
1.0
 41
2.5
 42
1.0
 43
10.0
 44
1.0
 45
0.0
 46
0.0
 47
0.1
 48
0.1
140
2.7999999999999989
141
0.0
142
0.0
143
0.0393701
144
1.0
145
0.0
146
0.71
147
1.5
 71
     0
 72
     0
 73
     0
 74
     1
 75
     0
 76
     0
 77
     3
 78
     8
170
     0
171
     2
172
     0
173
     0
174
     0
175
     0
176
   256
177
   256
178
    40
  0
DIMSTYLE
  2
TECHNICAL_OSAKA$6
 70
     0
  3

  4
"
  5
OPEN30
  6

  7

 40
1.0
 41
2.5
 42
1.0
 43
10.0
 44
1.0
 45
0.0
 46
0.0
 47
0.1
 48
0.1
140
2.7999999999999989
141
0.0
142
0.0
143
0.0393701
144
1.0
145
0.0
146
0.71
147
1.5
 71
     0
 72
     0
 73
     0
 74
     0
 75
     0
 76
     0
 77
     0
 78
     8
170
     0
171
     2
172
     1
173
     0
174
     0
175
     0
176
   256
177
   256
178
    40
  0
DIMSTYLE
  2
TECHNICAL_OSAKA$7
 70
     0
  3

  4
"
  5
OPEN30
  6

  7

 40
1.0
 41
2.5
 42
1.0
 43
10.0
 44
1.0
 45
0.0
 46
0.0
 47
0.1
 48
0.1
140
2.7999999999999989
141
0.0
142
0.0
143
0.0393701
144
1.0
145
0.0
146
0.71
147
1.5
 71
     0
 72
     0
 73
     0
 74
     0
 75
     0
 76
     0
 77
     3
 78
     8
170
     0
171
     2
172
     1
173
     0
174
     0
175
     0
176
   256
177
   256
178
    40
  0
DIMSTYLE
  2
TECHNICAL_OSAKA$SF
 70
     0
  3

  4
"
  5
OPEN30
  6
OPEN30
  7
OPEN30
 40
1.0
 41
2.5
 42
1.0
 43
10.0
 44
1.0
 45
0.0
 46
0.0
 47
0.1
 48
0.1
140
3.5
141
0.0
142
0.0
143
0.0393701
144
1.0
145
0.0
146
0.71
147
1.5
 71
     0
 72
     0
 73
     0
 74
     0
 75
     1
 76
     1
 77
     3
 78
     8
170
     0
171
     2
172
     1
173
     0
174
     0
175
     0
176
   256
177
   256
178
    40
  0
DIMSTYLE
  2
TECHNICAL_OSAKA$SH
 70
     0
  3

  4
"
  5
OPEN30
  6
GENAXEH
  7
OPEN30
 40
1.0
 41
2.5
 42
1.0
 43
10.0
 44
1.0
 45
0.0
 46
0.0
 47
0.1
 48
0.1
140
3.5
141
0.0
142
0.0
143
0.0393701
144
2.0
145
0.0
146
0.71
147
1.5
 71
     0
 72
     0
 73
     0
 74
     0
 75
     1
 76
     1
 77
     3
 78
     8
170
     0
171
     2
172
     1
173
     1
174
     0
175
     0
176
   256
177
   256
178
    40
  0
ENDTAB
  0
ENDSEC
  0
SECTION
  2
BLOCKS
  0
BLOCK
  8
0
  2
$MODEL_SPACE
 70
     0
 10
0.0
 20
0.0
 30
0.0
  3
$MODEL_SPACE
  1

  0
ENDBLK
  5
1C
  8
0
  0
BLOCK
 67
     1
  8
0
  2
$PAPER_SPACE
 70
     0
 10
0.0
 20
0.0
 30
0.0
  3
$PAPER_SPACE
  1

  0
ENDBLK
  5
19
 67
     1
  8
0
  0
BLOCK
  8
0
  2
_OPEN
 70
     0
 10
0.0
 20
0.0
 30
0.0
  3
_OPEN
  1

  0
LINE
  5
2015
  8
0
  6
BYBLOCK
 62
     0
 10
-1.0
 20
0.1666666666666666
 30
0.0
 11
0.0
 21
0.0
 31
0.0
  0
LINE
  5
2016
  8
0
  6
BYBLOCK
 62
     0
 10
-1.0
 20
-0.1666666666666666
 30
0.0
 11
0.0
 21
0.0
 31
0.0
  0
LINE
  5
2017
  8
0
  6
BYBLOCK
 62
     0
 10
0.0
 20
0.0
 30
0.0
 11
-1.0
 21
0.0
 31
0.0
  0
ENDBLK
  5
2018
  8
0
  0
BLOCK
  8
0
  2
GENAXEH
 70
     0
 10
0.0
 20
0.0
 30
0.0
  3
GENAXEH
  1

  0
LINE
  5
2040
  8
0
 10
-1.0
 20
0.0
 30
0.0
 11
1.0
 21
0.0
 31
0.0
  0
ENDBLK
  5
2041
  8
0
  0
BLOCK
  8
0
  2
_OPEN30
 70
     0
 10
0.0
 20
0.0
 30
0.0
  3
_OPEN30
  1

  0
LINE
  5
2065
  8
0
  6
BYBLOCK
 62
     0
 10
-1.0
 20
0.26794919
 30
0.0
 11
0.0
 21
0.0
 31
0.0
  0
LINE
  5
2066
  8
0
  6
BYBLOCK
 62
     0
 10
0.0
 20
0.0
 30
0.0
 11
-1.0
 21
-0.26794919
 31
0.0
  0
LINE
  5
2067
  8
0
  6
BYBLOCK
 62
     0
 10
0.0
 20
0.0
 30
0.0
 11
-1.0
 21
0.0
 31
0.0
  0
ENDBLK
  5
2068
  8
0
  0
BLOCK
  8
0
  2
*U12
 70
     1
 10
0.0
 20
0.0
 30
0.0
  3
*U12
  1

  0
TEXT
  5
21C0
  8
250
 62
    40
 10
-27.514285714285709
 20
-34.0
 30
0.0
 40
3.0
  1
35ü`45
  0
ENDBLK
  5
21C2
  8
0
  0
BLOCK
  8
0
  2
*U13
 70
     1
 10
0.0
 20
0.0
 30
0.0
  3
*U13
  1

  0
TEXT
  5
21C4
  8
250
 62
    40
 10
19.999999999999989
 20
-4.0714285714285463
 30
0.0
 40
3.0
  1
\U+2205
 50
90.0
  0
TEXT
  5
21C5
  8
250
 62
    40
 10
19.999999999999989
 20
-1.357142857142831
 30
0.0
 40
3.0
  1
30
 50
90.0
  0
ENDBLK
  5
21C7
  8
0
  0
BLOCK
  8
0
  2
*U14
 70
     1
 10
0.0
 20
0.0
 30
0.0
  3
*U14
  1

  0
TEXT
  5
21C9
  8
250
 62
    40
 10
-12.071428571428569
 20
29.0
 30
0.0
 40
3.0
  1
18
  0
ENDBLK
  5
21CB
  8
0
  0
BLOCK
  8
0
  2
*U15
 70
     1
 10
0.0
 20
0.0
 30
0.0
  3
*U15
  1

  0
TEXT
  5
21CD
  8
250
 62
    40
 10
-51.857142857142861
 20
36.0
 30
0.0
 40
3.0
  1
98
  0
ENDBLK
  5
21CF
  8
0
  0
BLOCK
  8
0
  2
*U16
 70
     1
 10
0.0
 20
0.0
 30
0.0
  3
*U16
  1

  0
TEXT
  5
21D1
  8
250
 62
    40
 10
-60.857142857142861
 20
29.0
 30
0.0
 40
3.0
  1
80
  0
ENDBLK
  5
21D3
  8
0
  0
BLOCK
  8
0
  2
*U17
 70
     1
 10
0.0
 20
0.0
 30
0.0
  3
*U17
  1

  0
TEXT
  5
21D5
  8
250
 62
    40
 10
-111.0
 20
-4.0714285714285792
 30
0.0
 40
3.0
  1
\U+2205
 50
90.0
  0
TEXT
  5
21D6
  8
250
 62
    40
 10
-111.0
 20
-1.3571428571428641
 30
0.0
 40
3.0
  1
20
 50
90.0
  0
ENDBLK
  5
21D8
  8
0
  0
BLOCK
  8
0
  2
*X18
 70
     1
 10
0.0
 20
0.0
 30
0.0
  3
*X18
  1

  0
LINE
  5
21DA
  8
0
 62
     0
 10
-40.844485844994423
 20
-8.9369317686618075
 30
0.0
 11
-40.248354992268617
 21
-8.3408009159360148
 31
0.0
  0
LINE
  5
21DB
  8
0
 62
     0
 10
-40.437876994852857
 20
-8.3282671557961905
 30
0.0
 11
-40.199064357598743
 21
-8.0894545185420696
 31
0.0
  0
LINE
  5
21DC
  8
0
 62
     0
 10
-41.095832242388369
 20
-8.9862224033316949
 30
0.0
 11
-40.857019605134241
 21
-8.7474097660775652
 31
0.0
  0
LINE
  5
21DD
  8
0
 62
     0
 10
-40.380085047208738
 20
-8.0684194454280203
 30
0.0
 11
-40.20732919986429
 21
-7.8956635980835648
 31
0.0
  0
LINE
  5
21DE
  8
0
 62
     0
 10
-41.299556524045123
 20
-8.9878909222643912
 30
0.0
 11
-41.116867315502418
 21
-8.8052017137216865
 31
0.0
  0
LINE
  5
21DF
  8
0
 62
     0
 10
-40.394431916929037
 20
-7.8807105524242607
 30
0.0
 11
-40.24599873073474
 21
-7.7322773662299582
 31
0.0
  0
LINE
  5
21E0
  8
0
 62
     0
 10
-41.501612286769181
 20
-8.9878909222643983
 30
0.0
 11
-41.319733629340661
 21
-8.8060122648358785
 31
0.0
  0
LINE
  5
21E1
  8
0
 62
     0
 10
-40.44253979610663
 20
-7.7267626688777886
 30
0.0
 11
-40.30618417287112
 21
-7.5904070456422872
 31
0.0
  0
LINE
  5
21E2
  8
0
 62
     0
 10
-41.703668049493231
 20
-8.9878909222643983
 30
0.0
 11
-41.521789392064697
 21
-8.8060122648358714
 31
0.0
  0
LINE
  5
21E3
  8
0
 62
     0
 10
-40.514337226040951
 20
-7.5965043360880591
 30
0.0
 11
-40.383925083111698
 21
-7.4660921931588069
 31
0.0
  0
LINE
  5
21E4
  8
0
 62
     0
 10
-41.905723812217289
 20
-8.9878909222643912
 30
0.0
 11
-41.723845154788769
 21
-8.8060122648358714
 31
0.0
  0
LINE
  5
21E5
  8
0
 62
     0
 10
-40.606010214963362
 20
-7.4861215622864057
 30
0.0
 11
-40.47740256001385
 21
-7.3575139073369007
 31
0.0
  0
LINE
  5
21E6
  8
0
 62
     0
 10
-42.10777957494134
 20
-8.9878909222643912
 30
0.0
 11
-41.925900917512827
 21
-8.8060122648358714
 31
0.0
  0
LINE
  5
21E7
  8
0
 62
     0
 10
-40.716519207391201
 20
-7.3945747919901867
 30
0.0
 11
-40.586082405394819
 21
-7.2641379899938201
 31
0.0
  0
LINE
  5
21E8
  8
0
 62
     0
 10
-42.309835337665412
 20
-8.9878909222643983
 30
0.0
 11
-42.127956680236878
 21
-8.8060122648358714
 31
0.0
  0
LINE
  5
21E9
  8
0
 62
     0
 10
-40.846918323143683
 20
-7.322918145018618
 30
0.0
 11
-40.710506176608099
 21
-7.1865059984830282
 31
0.0
  0
LINE
  5
21EA
  8
0
 62
     0
 10
-42.511891100389462
 20
-8.9878909222643912
 30
0.0
 11
-42.33001244296095
 21
-8.8060122648358785
 31
0.0
  0
LINE
  5
21EB
  8
0
 62
     0
 10
-41.001046383828637
 20
-7.2749904429795151
 30
0.0
 11
-40.852503141735411
 21
-7.1264472008862887
 31
0.0
  0
LINE
  5
21EC
  8
0
 62
     0
 10
-42.71394686311352
 20
-8.9878909222643912
 30
0.0
 11
-42.532068205684993
 21
-8.8060122648358714
 31
0.0
  0
LINE
  5
21ED
  8
0
 62
     0
 10
-41.189045004131181
 20
-7.2609333005580146
 30
0.0
 11
-41.016053637324667
 21
-7.0879419337515008
 31
0.0
  0
LINE
  5
21EE
  8
0
 62
     0
 10
-42.916002625837557
 20
-8.9878909222643912
 30
0.0
 11
-42.734123968409037
 21
-8.8060122648358714
 31
0.0
  0
LINE
  5
21EF
  8
0
 62
     0
 10
-41.358344920638586
 20
-7.2281774543413633
 30
0.0
 11
-41.210099852973087
 21
-7.0799323866758641
 31
0.0
  0
LINE
  5
21F0
  8
0
 62
     0
 10
-43.118058388561607
 20
-8.9878909222643912
 30
0.0
 11
-42.936179731133102
 21
-8.8060122648358714
 31
0.0
  0
LINE
  5
21F1
  8
0
 62
     0
 10
-43.320114151285679
 20
-8.9878909222643948
 30
0.0
 11
-43.138235493857152
 21
-8.8060122648358714
 31
0.0
  0
LINE
  5
21F2
  8
0
 62
     0
 10
-43.522169914009737
 20
-8.9878909222643912
 30
0.0
 11
-43.34029125658121
 21
-8.8060122648358679
 31
0.0
  0
LINE
  5
21F3
  8
0
 62
     0
 10
-43.724225676733788
 20
-8.9878909222643877
 30
0.0
 11
-43.542347019305268
 21
-8.8060122648358714
 31
0.0
  0
LINE
  5
21F4
  8
0
 62
     0
 10
-43.926281439457853
 20
-8.9878909222643948
 30
0.0
 11
-43.744402782029319
 21
-8.8060122648358732
 31
0.0
  0
LINE
  5
21F5
  8
0
 62
     0
 10
-44.128337202181903
 20
-8.9878909222643983
 30
0.0
 11
-43.946458544753384
 21
-8.8060122648358732
 31
0.0
  0
LINE
  5
21F6
  8
0
 62
     0
 10
-44.330392964905968
 20
-8.9878909222643948
 30
0.0
 11
-44.148514307477441
 21
-8.8060122648358714
 31
0.0
  0
LINE
  5
21F7
  8
0
 62
     0
 10
-44.532448727630019
 20
-8.9878909222643948
 30
0.0
 11
-44.350570070201499
 21
-8.8060122648358732
 31
0.0
  0
LINE
  5
21F8
  8
0
 62
     0
 10
-44.734504490354077
 20
-8.9878909222643983
 30
0.0
 11
-44.55262583292555
 21
-8.8060122648358821
 31
0.0
  0
LINE
  5
21F9
  8
0
 62
     0
 10
-44.932485257231512
 20
-8.9838159264177762
 30
0.0
 11
-44.754681595649608
 21
-8.8060122648358785
 31
0.0
  0
LINE
  5
21FA
  8
0
 62
     0
 10
-45.102938754597069
 20
-8.9522136610592753
 30
0.0
 11
-44.949547473085417
 21
-8.7988223795476372
 31
0.0
  0
LINE
  5
21FB
  8
0
 62
     0
 10
-45.250155926624011
 20
-8.897375070362159
 30
0.0
 11
-45.111255848113018
 21
-8.7584749918511591
 31
0.0
  0
LINE
  5
21FC
  8
0
 62
     0
 10
-45.37901190297881
 20
-8.8241752839928971
 30
0.0
 11
-45.247437285973369
 21
-8.6926006669874596
 31
0.0
  0
LINE
  5
21FD
  8
0
 62
     0
 10
-45.49178266737642
 20
-8.7348902856664488
 30
0.0
 11
-45.363045737166168
 21
-8.6061533554562004
 31
0.0
  0
LINE
  5
21FE
  8
0
 62
     0
 10
-45.589313078011187
 20
-8.6303649335771588
 30
0.0
 11
-45.459745400940548
 21
-8.5007972565065302
 31
0.0
  0
LINE
  5
21FF
  8
0
 62
     0
 10
-45.671357981809457
 20
-8.5103540746513762
 30
0.0
 11
-45.537062381633604
 21
-8.3760584744755135
 31
0.0
  0
LINE
  5
2200
  8
0
 62
     0
 10
-44.623116825121748
 20
-7.2600571552396183
 30
0.0
 11
-44.479828977609301
 21
-7.1167693077271599
 31
0.0
  0
LINE
  5
2201
  8
0
 62
     0
 10
-45.736488007515092
 20
-8.373428337632955
 30
0.0
 11
-45.592083700524483
 21
-8.2290240306423357
 31
0.0
  0
LINE
  5
2202
  8
0
 62
     0
 10
-44.825172587845799
 20
-7.2600571552396138
 30
0.0
 11
-44.64329392573643
 21
-7.0781784931302454
 31
0.0
  0
LINE
  5
2203
  8
0
 62
     0
 10
-45.781460817499422
 20
-8.2163453848932342
 30
0.0
 11
-45.617110523151119
 21
-8.0519950905449331
 31
0.0
  0
LINE
  5
2204
  8
0
 62
     0
 10
-45.057069829608949
 20
-7.2898986342787131
 30
0.0
 11
-44.845350196037032
 21
-7.0781790007067888
 31
0.0
  0
LINE
  5
2205
  8
0
 62
     0
 10
-45.799221255096683
 20
-8.0320500597664442
 30
0.0
 11
-45.587501621524773
 21
-7.820330426194519
 31
0.0
  0
LINE
  5
2206
  8
0
 62
     0
 10
-45.770724547664337
 20
-7.8014975896100429
 30
0.0
 11
-45.075902666193429
 21
-7.106675708139135
 31
0.0
  0
ENDBLK
  5
2208
  8
0
  0
BLOCK
  8
0
  2
*X19
 70
     1
 10
0.0
 20
0.0
 30
0.0
  3
*X19
  1

  0
LINE
  5
220A
  8
0
 62
     0
 10
-43.047296162802468
 20
-8.7150729337811796
 30
0.0
 11
-43.032309104054512
 21
-8.7000858750332242
 31
0.0
  0
LINE
  5
220B
  8
0
 62
     0
 10
-43.249351925526518
 20
-8.7150729337811761
 30
0.0
 11
-42.951078265134619
 21
-8.4167992733892802
 31
0.0
  0
LINE
  5
220C
  8
0
 62
     0
 10
-43.440184648703521
 20
-8.7038498942341214
 30
0.0
 11
-42.86984742621474
 21
-8.1335126717453434
 31
0.0
  0
LINE
  5
220D
  8
0
 62
     0
 10
-43.358952701230912
 20
-8.4205621840374647
 30
0.0
 11
-42.788616587294861
 21
-7.8502260701014057
 31
0.0
  0
LINE
  5
220E
  8
0
 62
     0
 10
-43.277720753758317
 20
-8.1372744738408045
 30
0.0
 11
-42.707385748374968
 21
-7.5669394684574618
 31
0.0
  0
LINE
  5
220F
  8
0
 62
     0
 10
-43.196488806285707
 20
-7.8539867636441443
 30
0.0
 11
-42.626154909455089
 21
-7.283652866813525
 31
0.0
  0
LINE
  5
2210
  8
0
 62
     0
 10
-43.115256858813112
 20
-7.5706990534474841
 30
0.0
 11
-42.622736298495873
 21
-7.0781784931302383
 31
0.0
  0
LINE
  5
2211
  8
0
 62
     0
 10
-43.034024911340509
 20
-7.2874113432508381
 30
0.0
 11
-42.824792061219917
 21
-7.0781784931302454
 31
0.0
  0
LINE
  5
2212
  8
0
 62
     0
 10
-43.045642054678432
 20
-7.0969727238647016
 30
0.0
 11
-43.026847823943982
 21
-7.0781784931302454
 31
0.0
  0
ENDBLK
  5
2214
  8
0
  0
BLOCK
  8
0
  2
*X20
 70
     1
 10
0.0
 20
0.0
 30
0.0
  3
*X20
  1

  0
LINE
  5
2216
  8
0
 62
     0
 10
-41.740452107355772
 20
-8.6205634546788232
 30
0.0
 11
-41.569943606828303
 21
-8.4500549541513479
 31
0.0
  0
LINE
  5
2217
  8
0
 62
     0
 10
-42.034259233343782
 20
-8.7123148179427616
 30
0.0
 11
-41.488711982301673
 21
-8.1667675669006528
 31
0.0
  0
LINE
  5
2218
  8
0
 62
     0
 10
-41.94844997981486
 20
-8.4244498016897893
 30
0.0
 11
-41.407480357775022
 21
-7.8834801796499496
 31
0.0
  0
LINE
  5
2219
  8
0
 62
     0
 10
-42.224005378516551
 20
-8.7000052003914803
 30
0.0
 11
-42.010476851818758
 21
-8.4864766736936943
 31
0.0
  0
LINE
  5
221A
  8
0
 62
     0
 10
-41.856796416227283
 20
-8.130740475378154
 30
0.0
 11
-41.513552976459827
 21
-7.7874970356107118
 31
0.0
  0
LINE
  5
221B
  8
0
 62
     0
 10
-42.370874725603777
 20
-8.6448187847546478
 30
0.0
 11
-42.212062720680208
 21
-8.4860067798310794
 31
0.0
  0
LINE
  5
221C
  8
0
 62
     0
 10
-41.897487401293262
 20
-7.9693756977200891
 30
0.0
 11
-41.715608739183871
 21
-7.7874970356107118
 31
0.0
  0
LINE
  5
221D
  8
0
 62
     0
 10
-42.489237745434231
 20
-8.5611260418610584
 30
0.0
 11
-42.296614704634202
 21
-8.3685030010610291
 31
0.0
  0
LINE
  5
221E
  8
0
 62
     0
 10
-41.449775688416622
 20
-7.319608222119391
 30
0.0
 11
-41.430839283067698
 21
-7.3006718167704738
 31
0.0
  0
LINE
  5
221F
  8
0
 62
     0
 10
-42.582726568634598
 20
-8.4525591023373678
 30
0.0
 11
-42.251410126815877
 21
-8.1212426605186465
 31
0.0
  0
LINE
  5
2220
  8
0
 62
     0
 10
-41.702455358729019
 20
-7.3702321297077367
 30
0.0
 11
-41.479279471180007
 21
-7.1470562421587331
 31
0.0
  0
LINE
  5
2221
  8
0
 62
     0
 10
-42.649848194699643
 20
-8.3176249656783625
 30
0.0
 11
-42.17017822617143
 21
-7.8379549971501481
 31
0.0
  0
LINE
  5
2222
  8
0
 62
     0
 10
-41.818473037598118
 20
-7.2841940458527707
 30
0.0
 11
-41.682283534877278
 21
-7.1480045431319317
 31
0.0
  0
LINE
  5
2223
  8
0
 62
     0
 10
-42.681992249696798
 20
-8.1477132579514517
 30
0.0
 11
-42.088946325526997
 21
-7.5546673337816577
 31
0.0
  0
LINE
  5
2224
  8
0
 62
     0
 10
-42.653361994387133
 20
-7.9170272399177222
 30
0.0
 11
-41.829354556525352
 21
-7.0930198020559478
 31
0.0
  0
LINE
  5
2225
  8
0
 62
     0
 10
-42.58628093156581
 20
-7.6478904143723616
 30
0.0
 11
-42.019468640315907
 21
-7.0810781231224587
 31
0.0
  0
ENDBLK
  5
2227
  8
0
  0
BLOCK
  8
0
  2
*U21
 70
     1
 10
0.0
 20
0.0
 30
0.0
  3
*U21
  1

  0
TEXT
  5
2229
  8
250
 62
    40
 10
12.77464379319485
 20
-8.6983785629617891
 30
0.0
 40
3.0
  1
MAX.\U+220510
 50
90.0
  0
ENDBLK
  5
222B
  8
0
  0
BLOCK
  8
0
  2
*X22
 70
     1
 10
0.0
 20
0.0
 30
0.0
  3
*X22
  1

  0
LINE
  5
2231
  8
0
 62
     0
 10
-40.844485844994423
 20
-8.9369317686618075
 30
0.0
 11
-40.248354992268617
 21
-8.3408009159360148
 31
0.0
  0
LINE
  5
2232
  8
0
 62
     0
 10
-40.437876994852857
 20
-8.3282671557961905
 30
0.0
 11
-40.199064357598743
 21
-8.0894545185420696
 31
0.0
  0
LINE
  5
2233
  8
0
 62
     0
 10
-41.095832242388369
 20
-8.9862224033316949
 30
0.0
 11
-40.857019605134241
 21
-8.7474097660775652
 31
0.0
  0
LINE
  5
2234
  8
0
 62
     0
 10
-40.380085047208738
 20
-8.0684194454280203
 30
0.0
 11
-40.20732919986429
 21
-7.8956635980835648
 31
0.0
  0
LINE
  5
2235
  8
0
 62
     0
 10
-41.299556524045123
 20
-8.9878909222643912
 30
0.0
 11
-41.116867315502418
 21
-8.8052017137216865
 31
0.0
  0
LINE
  5
2236
  8
0
 62
     0
 10
-40.394431916929037
 20
-7.8807105524242607
 30
0.0
 11
-40.24599873073474
 21
-7.7322773662299582
 31
0.0
  0
LINE
  5
2237
  8
0
 62
     0
 10
-41.501612286769181
 20
-8.9878909222643983
 30
0.0
 11
-41.319733629340661
 21
-8.8060122648358785
 31
0.0
  0
LINE
  5
2238
  8
0
 62
     0
 10
-40.44253979610663
 20
-7.7267626688777886
 30
0.0
 11
-40.30618417287112
 21
-7.5904070456422872
 31
0.0
  0
LINE
  5
2239
  8
0
 62
     0
 10
-41.703668049493231
 20
-8.9878909222643983
 30
0.0
 11
-41.521789392064697
 21
-8.8060122648358714
 31
0.0
  0
LINE
  5
223A
  8
0
 62
     0
 10
-40.514337226040951
 20
-7.5965043360880591
 30
0.0
 11
-40.383925083111698
 21
-7.4660921931588069
 31
0.0
  0
LINE
  5
223B
  8
0
 62
     0
 10
-41.905723812217289
 20
-8.9878909222643912
 30
0.0
 11
-41.723845154788769
 21
-8.8060122648358714
 31
0.0
  0
LINE
  5
223C
  8
0
 62
     0
 10
-40.606010214963362
 20
-7.4861215622864057
 30
0.0
 11
-40.47740256001385
 21
-7.3575139073369007
 31
0.0
  0
LINE
  5
223D
  8
0
 62
     0
 10
-42.10777957494134
 20
-8.9878909222643912
 30
0.0
 11
-41.925900917512827
 21
-8.8060122648358714
 31
0.0
  0
LINE
  5
223E
  8
0
 62
     0
 10
-40.716519207391201
 20
-7.3945747919901867
 30
0.0
 11
-40.586082405394819
 21
-7.2641379899938201
 31
0.0
  0
LINE
  5
223F
  8
0
 62
     0
 10
-42.309835337665412
 20
-8.9878909222643983
 30
0.0
 11
-42.127956680236878
 21
-8.8060122648358714
 31
0.0
  0
LINE
  5
2240
  8
0
 62
     0
 10
-40.846918323143683
 20
-7.322918145018618
 30
0.0
 11
-40.710506176608099
 21
-7.1865059984830282
 31
0.0
  0
LINE
  5
2241
  8
0
 62
     0
 10
-42.511891100389462
 20
-8.9878909222643912
 30
0.0
 11
-42.33001244296095
 21
-8.8060122648358785
 31
0.0
  0
LINE
  5
2242
  8
0
 62
     0
 10
-41.001046383828637
 20
-7.2749904429795151
 30
0.0
 11
-40.852503141735411
 21
-7.1264472008862887
 31
0.0
  0
LINE
  5
2243
  8
0
 62
     0
 10
-42.71394686311352
 20
-8.9878909222643912
 30
0.0
 11
-42.532068205684993
 21
-8.8060122648358714
 31
0.0
  0
LINE
  5
2244
  8
0
 62
     0
 10
-41.189045004131181
 20
-7.2609333005580146
 30
0.0
 11
-41.016053637324667
 21
-7.0879419337515008
 31
0.0
  0
LINE
  5
2245
  8
0
 62
     0
 10
-42.916002625837557
 20
-8.9878909222643912
 30
0.0
 11
-42.734123968409037
 21
-8.8060122648358714
 31
0.0
  0
LINE
  5
2246
  8
0
 62
     0
 10
-41.358344920638586
 20
-7.2281774543413633
 30
0.0
 11
-41.210099852973087
 21
-7.0799323866758641
 31
0.0
  0
LINE
  5
2247
  8
0
 62
     0
 10
-43.118058388561607
 20
-8.9878909222643912
 30
0.0
 11
-42.936179731133102
 21
-8.8060122648358714
 31
0.0
  0
LINE
  5
2248
  8
0
 62
     0
 10
-43.320114151285679
 20
-8.9878909222643948
 30
0.0
 11
-43.138235493857152
 21
-8.8060122648358714
 31
0.0
  0
LINE
  5
2249
  8
0
 62
     0
 10
-43.522169914009737
 20
-8.9878909222643912
 30
0.0
 11
-43.34029125658121
 21
-8.8060122648358679
 31
0.0
  0
LINE
  5
224A
  8
0
 62
     0
 10
-43.724225676733788
 20
-8.9878909222643877
 30
0.0
 11
-43.542347019305268
 21
-8.8060122648358714
 31
0.0
  0
LINE
  5
224B
  8
0
 62
     0
 10
-43.926281439457853
 20
-8.9878909222643948
 30
0.0
 11
-43.744402782029319
 21
-8.8060122648358732
 31
0.0
  0
LINE
  5
224C
  8
0
 62
     0
 10
-44.128337202181903
 20
-8.9878909222643983
 30
0.0
 11
-43.946458544753384
 21
-8.8060122648358732
 31
0.0
  0
LINE
  5
224D
  8
0
 62
     0
 10
-44.330392964905968
 20
-8.9878909222643948
 30
0.0
 11
-44.148514307477441
 21
-8.8060122648358714
 31
0.0
  0
LINE
  5
224E
  8
0
 62
     0
 10
-44.532448727630019
 20
-8.9878909222643948
 30
0.0
 11
-44.350570070201499
 21
-8.8060122648358732
 31
0.0
  0
LINE
  5
224F
  8
0
 62
     0
 10
-44.734504490354077
 20
-8.9878909222643983
 30
0.0
 11
-44.55262583292555
 21
-8.8060122648358821
 31
0.0
  0
LINE
  5
2250
  8
0
 62
     0
 10
-44.932485257231512
 20
-8.9838159264177762
 30
0.0
 11
-44.754681595649608
 21
-8.8060122648358785
 31
0.0
  0
LINE
  5
2251
  8
0
 62
     0
 10
-45.102938754597069
 20
-8.9522136610592753
 30
0.0
 11
-44.949547473085417
 21
-8.7988223795476372
 31
0.0
  0
LINE
  5
2252
  8
0
 62
     0
 10
-45.250155926624011
 20
-8.897375070362159
 30
0.0
 11
-45.111255848113018
 21
-8.7584749918511591
 31
0.0
  0
LINE
  5
2253
  8
0
 62
     0
 10
-45.37901190297881
 20
-8.8241752839928971
 30
0.0
 11
-45.247437285973369
 21
-8.6926006669874596
 31
0.0
  0
LINE
  5
2254
  8
0
 62
     0
 10
-45.49178266737642
 20
-8.7348902856664488
 30
0.0
 11
-45.363045737166168
 21
-8.6061533554562004
 31
0.0
  0
LINE
  5
2255
  8
0
 62
     0
 10
-45.589313078011187
 20
-8.6303649335771588
 30
0.0
 11
-45.459745400940548
 21
-8.5007972565065302
 31
0.0
  0
LINE
  5
2256
  8
0
 62
     0
 10
-45.671357981809457
 20
-8.5103540746513762
 30
0.0
 11
-45.537062381633604
 21
-8.3760584744755135
 31
0.0
  0
LINE
  5
2257
  8
0
 62
     0
 10
-44.623116825121748
 20
-7.2600571552396183
 30
0.0
 11
-44.479828977609301
 21
-7.1167693077271599
 31
0.0
  0
LINE
  5
2258
  8
0
 62
     0
 10
-45.736488007515092
 20
-8.373428337632955
 30
0.0
 11
-45.592083700524483
 21
-8.2290240306423357
 31
0.0
  0
LINE
  5
2259
  8
0
 62
     0
 10
-44.825172587845799
 20
-7.2600571552396138
 30
0.0
 11
-44.64329392573643
 21
-7.0781784931302454
 31
0.0
  0
LINE
  5
225A
  8
0
 62
     0
 10
-45.781460817499422
 20
-8.2163453848932342
 30
0.0
 11
-45.617110523151119
 21
-8.0519950905449331
 31
0.0
  0
LINE
  5
225B
  8
0
 62
     0
 10
-45.057069829608949
 20
-7.2898986342787131
 30
0.0
 11
-44.845350196037032
 21
-7.0781790007067888
 31
0.0
  0
LINE
  5
225C
  8
0
 62
     0
 10
-45.799221255096683
 20
-8.0320500597664442
 30
0.0
 11
-45.587501621524773
 21
-7.820330426194519
 31
0.0
  0
LINE
  5
225D
  8
0
 62
     0
 10
-45.770724547664337
 20
-7.8014975896100429
 30
0.0
 11
-45.075902666193429
 21
-7.106675708139135
 31
0.0
  0
ENDBLK
  5
225F
  8
0
  0
BLOCK
  8
0
  2
*X23
 70
     1
 10
0.0
 20
0.0
 30
0.0
  3
*X23
  1

  0
LINE
  5
2261
  8
0
 62
     0
 10
-43.047296162802468
 20
-8.7150729337811796
 30
0.0
 11
-43.032309104054512
 21
-8.7000858750332242
 31
0.0
  0
LINE
  5
2262
  8
0
 62
     0
 10
-43.249351925526518
 20
-8.7150729337811761
 30
0.0
 11
-42.951078265134619
 21
-8.4167992733892802
 31
0.0
  0
LINE
  5
2263
  8
0
 62
     0
 10
-43.440184648703521
 20
-8.7038498942341214
 30
0.0
 11
-42.86984742621474
 21
-8.1335126717453434
 31
0.0
  0
LINE
  5
2264
  8
0
 62
     0
 10
-43.358952701230912
 20
-8.4205621840374647
 30
0.0
 11
-42.788616587294861
 21
-7.8502260701014057
 31
0.0
  0
LINE
  5
2265
  8
0
 62
     0
 10
-43.277720753758317
 20
-8.1372744738408045
 30
0.0
 11
-42.707385748374968
 21
-7.5669394684574618
 31
0.0
  0
LINE
  5
2266
  8
0
 62
     0
 10
-43.196488806285707
 20
-7.8539867636441443
 30
0.0
 11
-42.626154909455089
 21
-7.283652866813525
 31
0.0
  0
LINE
  5
2267
  8
0
 62
     0
 10
-43.115256858813112
 20
-7.5706990534474841
 30
0.0
 11
-42.622736298495873
 21
-7.0781784931302383
 31
0.0
  0
LINE
  5
2268
  8
0
 62
     0
 10
-43.034024911340509
 20
-7.2874113432508381
 30
0.0
 11
-42.824792061219917
 21
-7.0781784931302454
 31
0.0
  0
LINE
  5
2269
  8
0
 62
     0
 10
-43.045642054678432
 20
-7.0969727238647016
 30
0.0
 11
-43.026847823943982
 21
-7.0781784931302454
 31
0.0
  0
ENDBLK
  5
226B
  8
0
  0
BLOCK
  8
0
  2
*X24
 70
     1
 10
0.0
 20
0.0
 30
0.0
  3
*X24
  1

  0
LINE
  5
226D
  8
0
 62
     0
 10
-41.740452107355772
 20
-8.6205634546788232
 30
0.0
 11
-41.569943606828303
 21
-8.4500549541513479
 31
0.0
  0
LINE
  5
226E
  8
0
 62
     0
 10
-42.034259233343782
 20
-8.7123148179427616
 30
0.0
 11
-41.488711982301673
 21
-8.1667675669006528
 31
0.0
  0
LINE
  5
226F
  8
0
 62
     0
 10
-41.94844997981486
 20
-8.4244498016897893
 30
0.0
 11
-41.407480357775022
 21
-7.8834801796499496
 31
0.0
  0
LINE
  5
2270
  8
0
 62
     0
 10
-42.224005378516551
 20
-8.7000052003914803
 30
0.0
 11
-42.010476851818758
 21
-8.4864766736936943
 31
0.0
  0
LINE
  5
2271
  8
0
 62
     0
 10
-41.856796416227283
 20
-8.130740475378154
 30
0.0
 11
-41.513552976459827
 21
-7.7874970356107118
 31
0.0
  0
LINE
  5
2272
  8
0
 62
     0
 10
-42.370874725603777
 20
-8.6448187847546478
 30
0.0
 11
-42.212062720680208
 21
-8.4860067798310794
 31
0.0
  0
LINE
  5
2273
  8
0
 62
     0
 10
-41.897487401293262
 20
-7.9693756977200891
 30
0.0
 11
-41.715608739183871
 21
-7.7874970356107118
 31
0.0
  0
LINE
  5
2274
  8
0
 62
     0
 10
-42.489237745434231
 20
-8.5611260418610584
 30
0.0
 11
-42.296614704634202
 21
-8.3685030010610291
 31
0.0
  0
LINE
  5
2275
  8
0
 62
     0
 10
-41.449775688416622
 20
-7.319608222119391
 30
0.0
 11
-41.430839283067698
 21
-7.3006718167704738
 31
0.0
  0
LINE
  5
2276
  8
0
 62
     0
 10
-42.582726568634598
 20
-8.4525591023373678
 30
0.0
 11
-42.251410126815877
 21
-8.1212426605186465
 31
0.0
  0
LINE
  5
2277
  8
0
 62
     0
 10
-41.702455358729019
 20
-7.3702321297077367
 30
0.0
 11
-41.479279471180007
 21
-7.1470562421587331
 31
0.0
  0
LINE
  5
2278
  8
0
 62
     0
 10
-42.649848194699643
 20
-8.3176249656783625
 30
0.0
 11
-42.17017822617143
 21
-7.8379549971501481
 31
0.0
  0
LINE
  5
2279
  8
0
 62
     0
 10
-41.818473037598118
 20
-7.2841940458527707
 30
0.0
 11
-41.682283534877278
 21
-7.1480045431319317
 31
0.0
  0
LINE
  5
227A
  8
0
 62
     0
 10
-42.681992249696798
 20
-8.1477132579514517
 30
0.0
 11
-42.088946325526997
 21
-7.5546673337816577
 31
0.0
  0
LINE
  5
227B
  8
0
 62
     0
 10
-42.653361994387133
 20
-7.9170272399177222
 30
0.0
 11
-41.829354556525352
 21
-7.0930198020559478
 31
0.0
  0
LINE
  5
227C
  8
0
 62
     0
 10
-42.58628093156581
 20
-7.6478904143723616
 30
0.0
 11
-42.019468640315907
 21
-7.0810781231224587
 31
0.0
  0
ENDBLK
  5
227E
  8
0
  0
ENDSEC
  0
SECTION
  2
ENTITIES
  0
TEXT
  5
13C1
  8
241
 10
-95.0
 20
48.999999999999979
 30
0.0
 40
5.0
  1
SL20-NBS10-80
  7
YOKO
 11
-95.0
 21
48.999999999999979
 31
0.0
 73
     1
  0
LINE
  5
207B
  8
250
 10
-98.0
 20
8.5
 30
0.0
 11
-98.0
 21
29.0
 31
0.0
  0
LINE
  5
207C
  8
250
 10
-18.000000000000011
 20
10.5
 30
0.0
 11
-18.000000000000011
 21
29.0
 31
0.0
  0
LINE
  5
207D
  8
250
 10
-95.769999999999996
 20
28.0
 30
0.0
 11
-20.230000000000011
 21
28.0
 31
0.0
  0
LINE
  5
2082
  8
250
 10
-98.0
 20
8.5
 30
0.0
 11
-98.0
 21
36.0
 31
0.0
  0
LINE
  5
2083
  8
250
 10
0.0
 20
14.351472000000051
 30
0.0
 11
0.0000000000000014
 21
36.0
 31
0.0
  0
LINE
  5
2084
  8
250
 10
-95.769999999999996
 20
35.0
 30
0.0
 11
-2.2299999999999969
 21
35.0
 31
0.0
  0
LINE
  5
2088
  8
250
 10
-18.000000000000011
 20
10.5
 30
0.0
 11
-18.000000000000011
 21
29.0
 31
0.0
  0
LINE
  5
2089
  8
250
 10
0.0
 20
14.351472000000051
 30
0.0
 11
0.0000000000000009
 21
29.0
 31
0.0
  0
LINE
  5
208A
  8
250
 10
-15.77000000000001
 20
28.0
 30
0.0
 11
-2.2299999999999991
 21
28.0
 31
0.0
  0
LINE
  5
208E
  8
250
 10
-89.000000000000028
 20
-9.9999999999999876
 30
0.0
 11
-111.0
 21
-9.9999999999999805
 31
0.0
  0
LINE
  5
208F
  8
250
 10
-89.000000000000028
 20
9.9999999999999947
 30
0.0
 11
-111.0
 21
10.0
 31
0.0
  0
LINE
  5
2090
  8
250
 10
-110.0
 20
-7.76999999999998
 30
0.0
 11
-110.0
 21
7.7700000000000014
 31
0.0
  0
LINE
  5
2094
  8
250
 10
-40.0
 20
-5.5
 30
0.0
 11
-40.0
 21
-36.0
 31
0.0
  0
LINE
  5
2095
  8
250
 10
0.0
 20
-14.351471999999941
 30
0.0
 11
-0.0000000000000014
 21
-36.0
 31
0.0
  0
LINE
  5
2096
  8
250
 10
-37.77000000000001
 20
-35.0
 30
0.0
 11
-2.23
 21
-35.0
 31
0.0
  0
LINE
  5
209A
  8
250
 10
-0.6899499999999535
 20
-14.99999999999994
 30
0.0
 11
21.999999999999989
 21
-14.99999999999995
 31
0.0
  0
LINE
  5
209B
  8
250
 10
-0.6899499999999535
 20
15.0
 30
0.0
 11
22.0
 21
14.999999999999989
 31
0.0
  0
LINE
  5
209C
  8
250
 10
20.999999999999989
 20
-12.76999999999995
 30
0.0
 11
21.0
 21
12.769999999999991
 31
0.0
  0
LINE
  5
20A0
  8
250
 10
0.5
 20
-5.0
 30
0.0
 11
15.0
 21
-5.0000000000000044
 31
0.0
  0
LINE
  5
20A1
  8
250
 10
0.5
 20
5.0
 30
0.0
 11
15.0
 21
4.9999999999999947
 31
0.0
  0
LINE
  5
20A2
  8
250
 10
14.0
 20
-2.770000000000004
 30
0.0
 11
14.0
 21
2.769999999999996
 31
0.0
  0
LINE
  5
20A6
  8
250
 10
-95.769999999999996
 20
27.62833333333333
 30
0.0
 11
-98.0
 21
28.0
 31
0.0
  0
LINE
  5
20A7
  8
250
 10
-95.769999999999996
 20
28.371666666666659
 30
0.0
 11
-98.0
 21
28.0
 31
0.0
  0
LINE
  5
20A8
  8
250
 10
-98.0
 20
28.0
 30
0.0
 11
-95.769999999999996
 21
28.0
 31
0.0
  0
LINE
  5
20A9
  8
250
 10
-95.769999999999996
 20
34.62833333333333
 30
0.0
 11
-98.0
 21
35.0
 31
0.0
  0
LINE
  5
20AA
  8
250
 10
-95.769999999999996
 20
35.37166666666667
 30
0.0
 11
-98.0
 21
35.0
 31
0.0
  0
LINE
  5
20AB
  8
250
 10
-98.0
 20
35.0
 30
0.0
 11
-95.769999999999996
 21
35.0
 31
0.0
  0
TEXT
  5
20AC
  8
250
 10
-60.857142857142861
 20
29.0
 30
0.0
 40
3.0
  1
80
1001
ACAD
1000
MTEXTBEGIN
1070
    73
1070
     1
1070
    44
1040
1.0
1070
    74
1070
     0
1000
MTEXTEND
  0
TEXT
  5
20AD
  8
250
 10
-51.857142857142861
 20
36.0
 30
0.0
 40
3.0
  1
98
1001
ACAD
1000
MTEXTBEGIN
1070
    73
1070
     1
1070
    44
1040
1.0
1070
    74
1070
     0
1000
MTEXTEND
  0
TEXT
  5
20AE
  8
250
 10
-12.071428571428569
 20
29.0
 30
0.0
 40
3.0
  1
18
1001
ACAD
1000
MTEXTBEGIN
1070
    73
1070
     1
1070
    44
1040
1.0
1070
    74
1070
     0
1000
MTEXTEND
  0
LINE
  5
20AF
  8
250
 10
-15.77000000000001
 20
27.62833333333333
 30
0.0
 11
-18.000000000000011
 21
28.0
 31
0.0
  0
LINE
  5
20B0
  8
250
 10
-15.77000000000001
 20
28.371666666666659
 30
0.0
 11
-18.000000000000011
 21
28.0
 31
0.0
  0
LINE
  5
20B1
  8
250
 10
-18.000000000000011
 20
28.0
 30
0.0
 11
-15.77000000000001
 21
28.0
 31
0.0
  0
LINE
  5
20B2
  8
250
 10
-20.230000000000011
 20
28.371666666666659
 30
0.0
 11
-18.000000000000011
 21
28.0
 31
0.0
  0
LINE
  5
20B3
  8
250
 10
-20.230000000000011
 20
27.62833333333333
 30
0.0
 11
-18.000000000000011
 21
28.0
 31
0.0
  0
LINE
  5
20B4
  8
250
 10
-18.000000000000011
 20
28.0
 30
0.0
 11
-20.230000000000011
 21
28.0
 31
0.0
  0
LINE
  5
20B5
  8
250
 10
-2.2299999999999982
 20
28.371666666666659
 30
0.0
 11
0.0000000000000009
 21
28.0
 31
0.0
  0
LINE
  5
20B6
  8
250
 10
-2.2299999999999982
 20
27.62833333333333
 30
0.0
 11
0.0000000000000009
 21
28.0
 31
0.0
  0
LINE
  5
20B7
  8
250
 10
0.0000000000000009
 20
28.0
 30
0.0
 11
-2.2299999999999982
 21
28.0
 31
0.0
  0
LINE
  5
20B8
  8
250
 10
-2.2299999999999969
 20
35.37166666666667
 30
0.0
 11
0.0000000000000013
 21
35.0
 31
0.0
  0
LINE
  5
20B9
  8
250
 10
-2.2299999999999969
 20
34.62833333333333
 30
0.0
 11
0.0000000000000013
 21
35.0
 31
0.0
  0
LINE
  5
20BA
  8
250
 10
0.0000000000000013
 20
35.0
 30
0.0
 11
-2.2299999999999969
 21
35.0
 31
0.0
  0
LINE
  5
20BB
  8
250
 10
-109.6283333333333
 20
-7.7699999999999809
 30
0.0
 11
-110.0
 21
-9.9999999999999805
 31
0.0
  0
LINE
  5
20BC
  8
250
 10
-110.3716666666666
 20
-7.7699999999999809
 30
0.0
 11
-110.0
 21
-9.9999999999999805
 31
0.0
  0
LINE
  5
20BD
  8
250
 10
-110.0
 20
-9.9999999999999805
 30
0.0
 11
-110.0
 21
-7.7699999999999809
 31
0.0
  0
TEXT
  5
20BE
  8
250
 10
-111.0
 20
-4.0714285714285792
 30
0.0
 40
3.0
  1
\U+2205
 50
90.0
1001
ACAD
1000
MTEXTBEGIN
1070
    73
1070
     1
1070
    44
1040
1.0
1070
    74
1070
     0
1000
MTEXTEND
  0
TEXT
  5
20BF
  8
250
 10
-111.0
 20
-1.3571428571428641
 30
0.0
 40
3.0
  1
20
 50
90.0
1001
ACAD
1000
MTEXTBEGIN
1070
    73
1070
     1
1070
    44
1040
1.0
1070
    74
1070
     0
1000
MTEXTEND
  0
LINE
  5
20C0
  8
250
 10
-110.3716666666666
 20
7.7700000000000014
 30
0.0
 11
-110.0
 21
10.0
 31
0.0
  0
LINE
  5
20C1
  8
250
 10
-109.6283333333333
 20
7.7700000000000014
 30
0.0
 11
-110.0
 21
10.0
 31
0.0
  0
LINE
  5
20C2
  8
250
 10
-110.0
 20
10.0
 30
0.0
 11
-110.0
 21
7.7700000000000014
 31
0.0
  0
LINE
  5
20C3
  8
250
 10
21.371666666666648
 20
-12.76999999999995
 30
0.0
 11
20.999999999999989
 21
-14.99999999999995
 31
0.0
  0
LINE
  5
20C4
  8
250
 10
20.62833333333332
 20
-12.76999999999995
 30
0.0
 11
20.999999999999989
 21
-14.99999999999995
 31
0.0
  0
LINE
  5
20C5
  8
250
 10
20.999999999999989
 20
-14.99999999999995
 30
0.0
 11
20.999999999999989
 21
-12.76999999999995
 31
0.0
  0
TEXT
  5
20C6
  8
250
 10
12.77464379319485
 20
-8.6983785629617891
 30
0.0
 40
3.0
  1
MAX.\U+220510
 50
90.0
  0
TEXT
  5
20C7
  8
250
 10
19.999999999999989
 20
-4.0714285714285463
 30
0.0
 40
3.0
  1
\U+2205
 50
90.0
1001
ACAD
1000
MTEXTBEGIN
1070
    73
1070
     1
1070
    44
1040
1.0
1070
    74
1070
     0
1000
MTEXTEND
  0
TEXT
  5
20C8
  8
250
 10
19.999999999999989
 20
-1.357142857142831
 30
0.0
 40
3.0
  1
30
 50
90.0
1001
ACAD
1000
MTEXTBEGIN
1070
    73
1070
     1
1070
    44
1040
1.0
1070
    74
1070
     0
1000
MTEXTEND
  0
LINE
  5
20C9
  8
250
 10
14.371666666666661
 20
-2.7700000000000049
 30
0.0
 11
14.0
 21
-5.0000000000000044
 31
0.0
  0
LINE
  5
20CA
  8
250
 10
13.62833333333333
 20
-2.7700000000000049
 30
0.0
 11
14.0
 21
-5.0000000000000044
 31
0.0
  0
LINE
  5
20CB
  8
250
 10
14.0
 20
-5.0000000000000044
 30
0.0
 11
14.0
 21
-2.7700000000000049
 31
0.0
  0
LINE
  5
20CC
  8
250
 10
13.62833333333333
 20
2.769999999999996
 30
0.0
 11
14.0
 21
4.9999999999999947
 31
0.0
  0
LINE
  5
20CD
  8
250
 10
14.371666666666661
 20
2.769999999999996
 30
0.0
 11
14.0
 21
4.9999999999999947
 31
0.0
  0
LINE
  5
20CE
  8
250
 10
14.0
 20
4.9999999999999947
 30
0.0
 11
14.0
 21
2.769999999999996
 31
0.0
  0
LINE
  5
20CF
  8
250
 10
20.62833333333333
 20
12.769999999999991
 30
0.0
 11
21.0
 21
14.999999999999989
 31
0.0
  0
LINE
  5
20D0
  8
250
 10
21.37166666666667
 20
12.769999999999991
 30
0.0
 11
21.0
 21
14.999999999999989
 31
0.0
  0
LINE
  5
20D1
  8
250
 10
21.0
 20
14.999999999999989
 30
0.0
 11
21.0
 21
12.769999999999991
 31
0.0
  0
LINE
  5
20D2
  8
250
 10
-37.77000000000001
 20
-35.37166666666667
 30
0.0
 11
-40.0
 21
-35.0
 31
0.0
  0
LINE
  5
20D3
  8
250
 10
-37.77000000000001
 20
-34.62833333333333
 30
0.0
 11
-40.0
 21
-35.0
 31
0.0
  0
LINE
  5
20D4
  8
250
 10
-40.0
 20
-35.0
 30
0.0
 11
-37.77000000000001
 21
-35.0
 31
0.0
  0
TEXT
  5
20D5
  8
250
 10
-27.514285714285709
 20
-34.0
 30
0.0
 40
3.0
  1
35ü`45
1001
ACAD
1000
MTEXTBEGIN
1070
    73
1070
     1
1070
    44
1040
1.0
1070
    74
1070
     0
1000
MTEXTEND
  0
LINE
  5
20D6
  8
250
 10
-2.23
 20
-34.62833333333333
 30
0.0
 11
-0.0000000000000013
 21
-35.0
 31
0.0
  0
LINE
  5
20D7
  8
250
 10
-2.23
 20
-35.37166666666667
 30
0.0
 11
-0.0000000000000013
 21
-35.0
 31
0.0
  0
LINE
  5
20D8
  8
250
 10
-0.0000000000000013
 20
-35.0
 30
0.0
 11
-2.23
 21
-35.0
 31
0.0
  0
LINE
  5
20D9
  8
245
 10
1.910872413295351
 20
0.0
 30
0.0
 11
-99.253250159291554
 21
0.0
 31
0.0
  0
LINE
  5
20DA
  8
240
 10
-11.45000000000004
 20
15.0
 30
0.0
 11
-1.1899499999999521
 21
15.0
 31
0.0
  0
LINE
  5
20DB
  8
246
 10
-4.600000000000021
 20
7.0
 30
0.0
 11
-2.5
 21
7.0
 31
0.0
  0
LINE
  5
20DC
  8
246
 10
-4.600000000000021
 20
-7.0
 30
0.0
 11
-2.5
 21
-7.0
 31
0.0
  0
LINE
  5
20DD
  8
240
 10
-11.45000000000004
 20
-15.0
 30
0.0
 11
-1.1899499999999521
 21
-15.0
 31
0.0
  0
LINE
  5
20DE
  8
246
 10
-27.0
 20
-5.0
 30
0.0
 11
0.0
 21
-5.0
 31
0.0
  0
LINE
  5
20DF
  8
246
 10
-27.0
 20
5.0
 30
0.0
 11
0.0
 21
5.0
 31
0.0
  0
LINE
  5
20E0
  8
241
 10
-12.5
 20
0.0
 30
0.0
 11
-12.5
 21
10.5
 31
0.0
  0
LINE
  5
20E1
  8
241
 10
-12.14999999999997
 20
0.0
 30
0.0
 11
-12.14999999999997
 21
11.600000000000019
 31
0.0
  0
LINE
  5
20E2
  8
242
 10
-15.0
 20
10.0
 30
0.0
 11
-15.5
 21
10.5
 31
0.0
  0
ARC
  5
20E3
  8
240
 10
-17.500000000000011
 20
10.0
 30
0.0
 40
0.5
 50
90.0
 51
180.0
  0
LINE
  5
20E4
  8
242
 10
-23.0
 20
5.2000000000000446
 30
0.0
 11
-98.0
 21
-5.19999999999993
 31
0.0
  0
LINE
  5
20E5
  8
242
 10
-98.0
 20
5.2000000000000428
 30
0.0
 11
-23.00000159733424
 21
-5.2000025383270092
 31
0.0
  0
LINE
  5
20E6
  8
241
 10
-23.0
 20
-5.1999999999999309
 30
0.0
 11
-98.0
 21
-5.19999999999993
 31
0.0
  0
LINE
  5
20E7
  8
241
 10
-23.0
 20
5.2000000000000437
 30
0.0
 11
-98.0
 21
5.2000000000000428
 31
0.0
  0
LINE
  5
20E8
  8
240
 10
-88.500000000000043
 20
-9.9999999999999876
 30
0.0
 11
-19.500000000000039
 21
-10.0
 31
0.0
  0
LINE
  5
20E9
  8
240
 10
-88.500000000000043
 20
9.9999999999999947
 30
0.0
 11
-19.500000000000039
 21
10.0
 31
0.0
  0
LINE
  5
20EA
  8
240
 10
-97.5
 20
8.5
 30
0.0
 11
-90.000000000000014
 21
8.5
 31
0.0
  0
LINE
  5
20EB
  8
240
 10
-97.5
 20
-8.5
 30
0.0
 11
-90.000000000000057
 21
-8.5
 31
0.0
  0
LINE
  5
20EC
  8
240
 10
-98.0
 20
-8.0
 30
0.0
 11
-98.0
 21
8.0
 31
0.0
  0
LINE
  5
20ED
  8
240
 10
-98.0
 20
-8.0
 30
0.0
 11
-97.5
 21
-8.5
 31
0.0
  0
LINE
  5
20EE
  8
240
 10
-97.5
 20
8.5
 30
0.0
 11
-98.0
 21
8.0
 31
0.0
  0
LINE
  5
20EF
  8
240
 10
-88.500000000000043
 20
-9.9999999999999876
 30
0.0
 11
-90.000000000000057
 21
-8.5
 31
0.0
  0
LINE
  5
20F0
  8
240
 10
-88.500000000000043
 20
9.9999999999999947
 30
0.0
 11
-90.000000000000014
 21
8.5
 31
0.0
  0
TEXT
  5
20F1
  8
247
 10
-39.658664426251512
 20
-8.8341577111514766
 30
0.0
 40
1.5
  1
SL20-NBS10-80
  7
YOKO
 11
-39.658664426251512
 21
-8.8341577111514766
 31
0.0
 73
     1
  0
LINE
  5
20F2
  8
246
 10
-56.0
 20
2.5
 30
0.0
 11
-46.0
 21
2.5
 31
0.0
  0
LINE
  5
20F3
  8
246
 10
-56.0
 20
-2.5
 30
0.0
 11
-46.0
 21
-2.5
 31
0.0
  0
LINE
  5
20F4
  8
246
 10
-51.600000000000009
 20
-5.1999999999999309
 30
0.0
 11
-40.14999999999997
 21
-5.1999999999999309
 31
0.0
  0
LINE
  5
20F5
  8
246
 10
-51.25
 20
-5.5
 30
0.0
 11
-40.499999999999993
 21
-5.5
 31
0.0
  0
LINE
  5
20F6
  8
246
 10
-51.600000000000009
 20
5.2000000000000437
 30
0.0
 11
-40.14999999999997
 21
5.2000000000000437
 31
0.0
  0
LINE
  5
20F7
  8
246
 10
-51.25
 20
5.5
 30
0.0
 11
-40.499999999999993
 21
5.5
 31
0.0
  0
LINE
  5
20F8
  8
246
 10
-56.0
 20
3.75
 30
0.0
 11
-56.0
 21
-3.75
 31
0.0
  0
ARC
  5
20F9
  8
246
 10
-55.0
 20
-3.75
 30
0.0
 40
1.0
 50
180.0
 51
270.0
  0
LINE
  5
20FA
  8
246
 10
-52.0
 20
-4.75
 30
0.0
 11
-51.25
 21
-5.5
 31
0.0
  0
LINE
  5
20FB
  8
246
 10
-55.0
 20
-4.75
 30
0.0
 11
-52.0
 21
-4.75
 31
0.0
  0
ARC
  5
20FC
  8
246
 10
-55.0
 20
3.75
 30
0.0
 40
1.0
 50
90.0
 51
180.0
  0
LINE
  5
20FD
  8
246
 10
-52.0
 20
4.75
 30
0.0
 11
-51.25
 21
5.5
 31
0.0
  0
LINE
  5
20FE
  8
246
 10
-55.0
 20
4.75
 30
0.0
 11
-52.0
 21
4.75
 31
0.0
  0
LINE
  5
20FF
  8
246
 10
-40.0
 20
5.0
 30
0.0
 11
-40.0
 21
-5.0
 31
0.0
  0
LINE
  5
2100
  8
246
 10
-45.556624999999933
 20
-1.732050999999954
 30
0.0
 11
-45.556624999999933
 21
1.7320510000000691
 31
0.0
  0
LINE
  5
2101
  8
246
 10
-43.01794900000003
 20
-1.732050999999954
 30
0.0
 11
-43.01794900000003
 21
1.7320510000000691
 31
0.0
  0
ARC
  5
2102
  8
247
 10
-41.152252158181049
 20
-8.0330346027493889
 30
0.0
 40
0.9548561096191406
 50
270.0
 51
104.7707939660941
1001
ACAD
1000
ASC_BOUNDS
1002
{
1070
    19
1005
2104
1002
}
  0
ARC
  5
2103
  8
247
 10
-41.152252158181049
 20
-8.0330346027493889
 30
0.0
 40
0.7729774475097658
 50
270.0
 51
104.1274364964119
1001
ACAD
1000
ASC_BOUNDS
1002
{
1070
    19
1005
2104
1002
}
  0
INSERT
  5
2104
  8
247
  6
CONTINUOUS
  2
*X22
 10
0.0
 20
0.0
 30
0.0
1001
ACAD
1000
HATCH
1002
{
1070
    19
1000
ANSI31
1040
0.045
1040
6.2831853071795862
1000
ASC_BOUNDS
1070
     1
1070
     2
1070
    10
1005
213C
1005
2103
1005
2102
1005
2111
1005
2110
1005
2113
1005
2114
1005
2118
1005
2119
1005
2115
1000
ASC_SEEDPOINT
1011
-99.709215754525047
1021
-0.0
1031
-0.0
1021
-16.075386420834061
1031
0.0
1000
R14_HATCH_DATA
1000
2104
1011
1.0
1021
-0.0
1031
-0.0
1021
0.0
1031
0.0
1011
0.0
1021
-0.0
1031
-0.0
1021
1.0
1031
0.0
1011
0.0
1021
-0.0
1031
-0.0
1021
0.0
1031
1.0
1040
0.0
1010
0.0
1020
0.0
1030
1.0
1000
ANSI31
1070
     0
1070
     1
1071
        1
1071
       33
1071
       10
1070
     1
1040
-44.468763693825558
1040
-7.0781784931302454
1040
-44.52091442014391
1040
-7.26005715523962
1070
     1
1040
-44.844365653054062
1040
-7.0781784931302454
1040
-44.468763693825558
1040
-7.0781784931302454
1070
     1
1040
-44.844365653054062
1040
-7.26005715523962
1040
-44.52091442014391
1040
-7.26005715523962
1070
     2
1040
-44.844365653054098
1040
-8.0330346027493889
1040
0.7729774475097658
1040
1.5707963267948959
1040
4.7123889803846888
1070
     1
1070
     2
1040
-44.844365653054098
1040
-8.0330346027493889
1040
0.9548561096191406
1040
1.5707963267948959
1040
4.7123889803846888
1070
     1
1070
     1
1040
-44.844365653054062
1040
-8.9878909222643966
1040
-41.152252158181021
1040
-8.9878909222643966
1070
     1
1040
-44.844365653054062
1040
-8.8060122648358732
1040
-41.152252158181021
1040
-8.8060122648358732
1070
     2
1040
-41.152252158181049
1040
-8.0330346027493889
1040
0.9548561096191406
1040
4.7123889803846888
1040
8.1117806218165374
1070
     1
1070
     2
1040
-41.152252158181049
1040
-8.0330346027493889
1040
0.7729774475097658
1040
4.7123889803846888
1040
8.1005519157032833
1070
     1
1070
     1
1040
-41.340921744362667
1040
-7.2834305683255574
1040
-41.395695456520862
1040
-7.1097298542142271
1071
       10
1005
2115
1005
2119
1005
2118
1005
2114
1005
2113
1005
2110
1005
2111
1005
2102
1005
2103
1005
213C
1070
     0
1070
     1
1040
6.2831853071795862
1040
0.045
1070
     0
1070
     1
1040
0.7853981633974478
1040
-99.709215754525047
1040
-16.075386420834061
1040
-0.101027881362028
1040
0.101027881362028
1070
     0
1071
        1
1040
-99.709215754525047
1040
-16.075386420834061
1040
0.0
1002
}
  0
LINE
  5
2105
  8
246
 10
-43.01794900000003
 20
-1.732050999999954
 30
0.0
 11
-40.0
 21
-4.75
 31
0.0
  0
LINE
  5
2106
  8
247
 10
-44.461686501870851
 20
-8.7150729337811832
 30
0.0
 11
-44.22775000804787
 21
-8.4811364399582185
 31
0.0
  0
LINE
  5
2107
  8
247
 10
-44.663742264594909
 20
-8.7150729337811832
 30
0.0
 11
-44.146522820584742
 21
-8.1978534897710116
 31
0.0
  0
LINE
  5
2108
  8
247
 10
-44.748928793923213
 20
-8.7150729337811832
 30
0.0
 11
-43.994168051735699
 21
-8.7150729337811832
 31
0.0
  0
LINE
  5
2109
  8
247
 10
-44.421061062397683
 20
-7.2600571552396529
 30
0.0
 11
-44.239182400288307
 21
-7.07817849313028
 31
0.0
  0
LINE
  5
210A
  8
247
 10
-44.458250376298459
 20
-7.7013579945885571
 30
0.0
 11
-43.83507087484022
 21
-7.0781784931303111
 31
0.0
  0
LINE
  5
210B
  8
247
 10
-44.37701900329229
 20
-7.4180708588582993
 30
0.0
 11
-44.037126637564278
 21
-7.0781784931303111
 31
0.0
  0
LINE
  5
210C
  8
247
 10
-44.374164542214118
 20
-7.0781784931302454
 30
0.0
 11
-43.787432415903382
 21
-7.0781784931303111
 31
0.0
  0
LINE
  5
210D
  8
247
 10
-44.53948174930467
 20
-7.9846451303187802
 30
0.0
 11
-43.902830907973019
 21
-7.3479942889871239
 31
0.0
  0
LINE
  5
210E
  8
247
 10
-44.620713122310839
 20
-8.2679322660490353
 30
0.0
 11
-43.984059599754943
 21
-7.6312787434931471
 31
0.0
  0
LINE
  5
210F
  8
247
 10
-44.701944495317022
 20
-8.5512194017792904
 30
0.0
 11
-43.932396812463573
 21
-7.7816717189258053
 31
0.0
  0
LINE
  5
2110
  8
247
 10
-44.844365653054062
 20
-8.9878909222643966
 30
0.0
 11
-41.152252158181021
 21
-8.9878909222643966
 31
0.0
1001
ACAD
1000
ASC_BOUNDS
1002
{
1070
    19
1005
2104
1002
}
  0
LINE
  5
2111
  8
247
 10
-44.844365653054062
 20
-8.8060122648358732
 30
0.0
 11
-41.152252158181021
 21
-8.8060122648358732
 31
0.0
1001
ACAD
1000
ASC_BOUNDS
1002
{
1070
    19
1005
2104
1002
}
  0
LINE
  5
2112
  8
247
 10
-44.748928793923213
 20
-8.7150729337811832
 30
0.0
 11
-44.331709250466382
 21
-7.2600571552401663
 31
0.0
  0
ARC
  5
2113
  8
247
 10
-44.844365653054098
 20
-8.0330346027493889
 30
0.0
 40
0.9548561096191406
 50
90.0
 51
270.0
1001
ACAD
1000
ASC_BOUNDS
1002
{
1070
    19
1005
2104
1002
}
  0
ARC
  5
2114
  8
247
 10
-44.844365653054098
 20
-8.0330346027493889
 30
0.0
 40
0.7729774475097658
 50
90.0
 51
270.0
1001
ACAD
1000
ASC_BOUNDS
1002
{
1070
    19
1005
2104
1002
}
  0
LINE
  5
2115
  8
247
 10
-44.468763693825558
 20
-7.0781784931302454
 30
0.0
 11
-44.52091442014391
 21
-7.26005715523962
 31
0.0
1001
ACAD
1000
ASC_BOUNDS
1002
{
1070
    19
1005
2104
1002
}
  0
LINE
  5
2116
  8
247
 10
-44.374164542214118
 20
-7.0781784931302454
 30
0.0
 11
-44.426315268532782
 21
-7.26005715523962
 31
0.0
  0
LINE
  5
2117
  8
247
 10
-44.426315268532782
 20
-7.26005715523962
 30
0.0
 11
-44.331709250466382
 21
-7.2600571552401663
 31
0.0
  0
LINE
  5
2118
  8
247
 10
-44.844365653054062
 20
-7.26005715523962
 30
0.0
 11
-44.52091442014391
 21
-7.26005715523962
 31
0.0
1001
ACAD
1000
ASC_BOUNDS
1002
{
1070
    19
1005
2104
1002
}
  0
LINE
  5
2119
  8
247
 10
-44.844365653054062
 20
-7.0781784931302454
 30
0.0
 11
-44.468763693825558
 21
-7.0781784931302454
 31
0.0
1001
ACAD
1000
ASC_BOUNDS
1002
{
1070
    19
1005
2104
1002
}
  0
LINE
  5
211A
  8
247
 10
-41.645936545388068
 20
-8.7150729337811832
 30
0.0
 11
-41.379957541481808
 21
-7.7874970356107127
 31
0.0
1001
ACAD
1000
ASC_BOUNDS
1002
{
1070
    19
1005
2167
1002
}
  0
LINE
  5
211B
  8
247
 10
-41.752627524391961
 20
-8.6083888212323565
 30
0.0
 11
-41.645936545388068
 21
-8.7150729337811832
 31
0.0
1001
ACAD
1000
ASC_BOUNDS
1002
{
1070
    19
1005
2167
1002
}
  0
ARC
  5
211C
  8
247
 10
-41.152252158181049
 20
-8.0330346027493889
 30
0.0
 40
0.7729795932769777
 50
110.8721834020771
 51
132.54194893738679
1001
ACAD
1000
ASC_BOUNDS
1002
{
1070
    19
1005
2167
1002
}
  0
ARC
  5
211D
  8
247
 10
-41.152252158181049
 20
-8.0330346027493889
 30
0.0
 40
0.954856538772583
 50
110.22964506332001
 51
118.5716889237176
1001
ACAD
1000
ASC_BOUNDS
1002
{
1070
    19
1005
2167
1002
}
  0
LINE
  5
211E
  8
247
 10
-41.427651938454467
 20
-7.3107796589017271
 30
0.0
 11
-41.482425650612647
 21
-7.1370789447904031
 31
0.0
1001
ACAD
1000
ASC_BOUNDS
1002
{
1070
    19
1005
2167
1002
}
  0
ARC
  5
211F
  8
247
 10
-41.865772971169321
 20
-7.4692162433743876
 30
0.0
 40
0.1909725040197372
 50
1.7101213820627601
 51
163.99839835444851
1001
ACAD
1000
ASC_BOUNDS
1002
{
1070
    19
1005
2167
1002
}
  0
LINE
  5
2120
  8
247
 10
-41.961889609352902
 20
-7.96937569772009
 30
0.0
 11
-41.909738883034542
 21
-7.7874970356107127
 31
0.0
1001
ACAD
1000
ASC_BOUNDS
1002
{
1070
    19
1005
2167
1002
}
  0
LINE
  5
2121
  8
247
 10
-41.909738883034542
 20
-7.7874970356107127
 30
0.0
 11
-41.379957541481808
 21
-7.7874970356107127
 31
0.0
1001
ACAD
1000
ASC_BOUNDS
1002
{
1070
    19
1005
2167
1002
}
  0
LINE
  5
2122
  8
247
 10
-41.961889609352902
 20
-7.96937569772009
 30
0.0
 11
-41.810525473610717
 21
-7.96937569772009
 31
0.0
1001
ACAD
1000
ASC_BOUNDS
1002
{
1070
    19
1005
2167
1002
}
  0
LINE
  5
2123
  8
247
 10
-41.927317008034542
 20
-8.3766732135892301
 30
0.0
 11
-41.810525473610717
 21
-7.96937569772009
 31
0.0
1001
ACAD
1000
ASC_BOUNDS
1002
{
1070
    19
1005
2167
1002
}
  0
POLYLINE
  5
2124
  8
247
 66
     1
 10
0.0
 20
0.0
 30
0.0
 70
     1
1001
HATCH_DISTANCE
1040
1.0
1001
HATCH_DISPLAY
1070
     0
1001
HATCH_TYPE
1070
     7
  0
VERTEX
  5
2125
  8
247
 10
-41.340921744362667
 20
-7.2834305683255574
 30
0.0
  0
VERTEX
  5
2126
  8
247
 10
-41.39569545652089
 20
-7.1097298542142271
 30
0.0
  0
VERTEX
  5
2127
  8
247
 10
-41.39569545652089
 20
-7.1097298542142271
 30
0.0
  0
VERTEX
  5
2128
  8
247
 10
-41.340921744362667
 20
-7.2834305683255574
 30
0.0
  0
SEQEND
  5
2129
  8
247
  0
POLYLINE
  5
212A
  8
247
 66
     1
 10
0.0
 20
0.0
 30
0.0
 70
     1
  0
VERTEX
  5
212B
  8
247
 10
-41.340921744362667
 20
-7.2834305683255574
 30
0.0
  0
VERTEX
  5
212C
  8
247
 10
-41.39569545652089
 20
-7.1097298542142271
 30
0.0
  0
VERTEX
  5
212D
  8
247
 10
-41.39569545652089
 20
-7.1097298542142271
 30
0.0
  0
VERTEX
  5
212E
  8
247
 10
-41.340921744362667
 20
-7.2834305683255574
 30
0.0
  0
SEQEND
  5
212F
  8
247
  0
POLYLINE
  5
2130
  8
247
 66
     1
 10
0.0
 20
0.0
 30
0.0
 70
     1
1001
HATCH_DISTANCE
1040
1.0
1001
HATCH_DISPLAY
1070
     0
1001
HATCH_TYPE
1070
     7
  0
VERTEX
  5
2131
  8
247
 10
-41.340921744362667
 20
-7.2834305683255574
 30
0.0
  0
VERTEX
  5
2132
  8
247
 10
-41.39569545652089
 20
-7.1097298542142271
 30
0.0
  0
VERTEX
  5
2133
  8
247
 10
-41.39569545652089
 20
-7.1097298542142271
 30
0.0
  0
VERTEX
  5
2134
  8
247
 10
-41.340921744362667
 20
-7.2834305683255574
 30
0.0
  0
SEQEND
  5
2135
  8
247
  0
POLYLINE
  5
2136
  8
247
 66
     1
 10
0.0
 20
0.0
 30
0.0
 70
     1
  0
VERTEX
  5
2137
  8
247
 10
-41.340921744362667
 20
-7.2834305683255574
 30
0.0
  0
VERTEX
  5
2138
  8
247
 10
-41.39569545652089
 20
-7.1097298542142271
 30
0.0
  0
VERTEX
  5
2139
  8
247
 10
-41.39569545652089
 20
-7.1097298542142271
 30
0.0
  0
VERTEX
  5
213A
  8
247
 10
-41.340921744362667
 20
-7.2834305683255574
 30
0.0
  0
SEQEND
  5
213B
  8
247
  0
LINE
  5
213C
  8
247
 10
-41.340921744362667
 20
-7.2834305683255574
 30
0.0
 11
-41.395695456520862
 21
-7.1097298542142271
 31
0.0
1001
ACAD
1000
ASC_BOUNDS
1002
{
1070
    19
1005
2104
1002
}
  0
LINE
  5
213D
  8
247
 10
-43.443402823464211
 20
-8.7150729337811832
 30
0.0
 11
-43.031394919411483
 21
-7.2782395282864947
 31
0.0
  0
POLYLINE
  5
213E
  8
247
 66
     1
 10
0.0
 20
0.0
 30
0.0
 70
     1
1001
HATCH_DISTANCE
1040
1.0
1001
HATCH_DISPLAY
1070
     0
1001
HATCH_TYPE
1070
     7
  0
VERTEX
  5
213F
  8
247
 10
-43.040252646462299
 20
-7.0781784931302454
 30
0.0
  0
VERTEX
  5
2140
  8
247
 10
-43.097621878640027
 20
-7.2782395282864947
 30
0.0
  0
VERTEX
  5
2141
  8
247
 10
-43.031394919411497
 20
-7.2782395282864947
 30
0.0
  0
VERTEX
  5
2142
  8
247
 10
-43.443402823464247
 20
-8.7150729337811832
 30
0.0
  0
VERTEX
  5
2143
  8
247
 10
-43.036606558815812
 20
-8.7150729337811832
 30
0.0
  0
VERTEX
  5
2144
  8
247
 10
-42.567236289040402
 20
-7.0781784931302454
 30
0.0
  0
SEQEND
  5
2145
  8
247
  0
POLYLINE
  5
2146
  8
247
 66
     1
 10
0.0
 20
0.0
 30
0.0
 70
     1
  0
VERTEX
  5
2147
  8
247
 10
-43.040252646462299
 20
-7.0781784931302454
 30
0.0
  0
VERTEX
  5
2148
  8
247
 10
-43.097621878640027
 20
-7.2782395282864947
 30
0.0
  0
VERTEX
  5
2149
  8
247
 10
-43.031394919411497
 20
-7.2782395282864947
 30
0.0
  0
VERTEX
  5
214A
  8
247
 10
-43.443402823464247
 20
-8.7150729337811832
 30
0.0
  0
VERTEX
  5
214B
  8
247
 10
-43.036606558815812
 20
-8.7150729337811832
 30
0.0
  0
VERTEX
  5
214C
  8
247
 10
-42.567236289040402
 20
-7.0781784931302454
 30
0.0
  0
SEQEND
  5
214D
  8
247
  0
INSERT
  5
214E
  8
247
  6
CONTINUOUS
  2
*X23
 10
0.0
 20
0.0
 30
0.0
1001
ACAD
1000
HATCH
1002
{
1070
    19
1000
ANSI31
1040
0.045
1040
6.2831853071795862
1000
R14_HATCH_DATA
1000
214E
1011
1.0
1021
-0.0
1031
-0.0
1021
0.0
1031
0.0
1011
0.0
1021
-0.0
1031
-0.0
1021
1.0
1031
0.0
1011
0.0
1021
-0.0
1031
-0.0
1021
0.0
1031
1.0
1040
0.0
1010
0.0
1020
0.0
1030
1.0
1000
ANSI31
1070
     0
1070
     0
1071
        1
1071
        7
1070
     0
1070
     1
1071
        6
1040
-42.567236289040387
1040
-7.0781784931302409
1040
-43.040252646462257
1040
-7.0781784931302409
1040
-43.097621878639998
1040
-7.278239528286492
1040
-43.031394919411483
1040
-7.278239528286492
1040
-43.443402823464211
1040
-8.7150729337811832
1040
-43.036606558815777
1040
-8.7150729337811832
1071
        0
1070
     0
1070
     1
1040
6.2831853071795862
1040
0.045
1070
     0
1070
     1
1040
0.7853981633974478
1040
-99.709215754525047
1040
-16.075386420834061
1040
-0.101027881362028
1040
0.101027881362028
1070
     0
1040
0.0134348504236232
1071
        1
1040
-42.992478308262861
1040
-7.8537644671294951
1040
0.0
1002
}
  0
ARC
  5
214F
  8
247
 10
-43.99416805173572
 20
-8.2603829303861058
 30
0.0
 40
0.4546897888183594
 50
270.0
 51
40.329840654167278
  0
LINE
  5
2150
  8
247
 10
-43.821428679191357
 20
-8.6809823992738995
 30
0.0
 11
-43.573568582847948
 21
-8.4331223029304834
 31
0.0
  0
LINE
  5
2151
  8
247
 10
-44.057574976422721
 20
-8.7150729337812205
 30
0.0
 11
-43.543387746007348
 21
-8.2008857033658042
 31
0.0
  0
LINE
  5
2152
  8
247
 10
-44.259630739146822
 20
-8.7150729337811832
 30
0.0
 11
-43.592276575232177
 21
-8.0477187698665826
 31
0.0
  0
LINE
  5
2153
  8
247
 10
-43.036606558815777
 20
-8.7150729337811832
 30
0.0
 11
-42.567236289040387
 21
-7.0781784931302454
 31
0.0
  0
LINE
  5
2154
  8
247
 10
-43.443402823464211
 20
-8.7150729337811832
 30
0.0
 11
-43.036606558815777
 21
-8.7150729337811832
 31
0.0
  0
LINE
  5
2155
  8
247
 10
-43.040252646462257
 20
-7.0781784931302454
 30
0.0
 11
-42.567236289040387
 21
-7.0781784931302454
 31
0.0
  0
LINE
  5
2156
  8
247
 10
-43.721483083996823
 20
-7.5707579904590583
 30
0.0
 11
-43.417126701457242
 21
-7.2664016079194642
 31
0.0
  0
ARC
  5
2157
  8
247
 10
-43.785558280007201
 20
-7.5328682819486072
 30
0.0
 40
0.4546936511993409
 50
287.66957754739792
 51
90.236159842671555
  0
LINE
  5
2158
  8
247
 10
-44.001084293227862
 20
-8.0524149624141828
 30
0.0
 11
-43.350235368668031
 21
-7.4015660378543524
 31
0.0
  0
LINE
  5
2159
  8
247
 10
-43.930552583336777
 20
-8.1839390152471427
 30
0.0
 11
-43.334164777777929
 21
-7.5875512096882849
 31
0.0
  0
LINE
  5
215A
  8
247
 10
-43.744794764582153
 20
-7.3920139083203242
 30
0.0
 11
-43.518005514456327
 21
-7.1652246581945054
 31
0.0
  0
LINE
  5
215B
  8
247
 10
-43.840394736271072
 20
-7.2855581172852553
 30
0.0
 11
-43.652818248490483
 21
-7.0979816295046572
 31
0.0
  0
LINE
  5
215C
  8
247
 10
-43.878979018680027
 20
-7.2648110036347111
 30
0.0
 11
-44.028026537589028
 21
-7.7846131100499498
 31
0.0
  0
ARC
  5
215D
  8
247
 10
-43.98846889402089
 20
-7.5146859089017299
 30
0.0
 40
0.2728103756904602
 50
261.6626016879294
 51
66.338155095189762
  0
LINE
  5
215E
  8
247
 10
-43.097621878639998
 20
-7.2782395282864947
 30
0.0
 11
-43.040252646462257
 21
-7.0781784931302454
 31
0.0
  0
LINE
  5
215F
  8
247
 10
-43.097621878639998
 20
-7.2782395282864947
 30
0.0
 11
-43.031394919411483
 21
-7.2782395282864947
 31
0.0
  0
ARC
  5
2160
  8
247
 10
-41.12493739988026
 20
-8.1550515094876683
 30
0.0
 40
1.5468475341796859
 50
155.20517736984041
 51
172.79482596205219
1001
ACAD
1000
ASC_BOUNDS
1002
{
1070
    19
1005
2167
1002
}
  0
LINE
  5
2161
  8
247
 10
-44.087586619653422
 20
-7.9923112151450812
 30
0.0
 11
-44.236636590582457
 21
-8.5121287394100928
 31
0.0
  0
ARC
  5
2162
  8
247
 10
-44.197078665749409
 20
-8.2421936908841502
 30
0.0
 40
0.2728181809186934
 50
261.66285421114878
 51
66.338192159110051
  0
ARC
  5
2163
  8
247
 10
-42.09136348630603
 20
-8.1239739338040753
 30
0.0
 40
0.5911056518554689
 50
163.99975070172931
 51
304.96387329163173
1001
ACAD
1000
ASC_BOUNDS
1002
{
1070
    19
1005
2167
1002
}
  0
ARC
  5
2164
  8
247
 10
-41.960983237282612
 20
-7.6692772785306369
 30
0.0
 40
0.5910996437072754
 50
53.444012197057553
 51
164.0001843876851
1001
ACAD
1000
ASC_BOUNDS
1002
{
1070
    19
1005
2167
1002
}
  0
LINE
  5
2165
  8
247
 10
-42.294466361061879
 20
-8.271396724331419
 30
0.0
 11
-42.049347647682993
 21
-7.4165711322904011
 31
0.0
1001
ACAD
1000
ASC_BOUNDS
1002
{
1070
    19
1005
2167
1002
}
  0
ARC
  5
2166
  8
247
 10
-42.110891684548207
 20
-8.3240349689603246
 30
0.0
 40
0.1909723699092865
 50
164.0002730571839
 51
344.00027305718379
1001
ACAD
1000
ASC_BOUNDS
1002
{
1070
    19
1005
2167
1002
}
  0
INSERT
  5
2167
  8
247
  6
CONTINUOUS
  2
*X24
 10
0.0
 20
0.0
 30
0.0
1001
ACAD
1000
HATCH
1002
{
1070
    19
1000
ANSI31
1040
0.045
1040
6.2831853071795862
1000
ASC_BOUNDS
1070
     1
1070
     2
1070
    15
1005
211D
1005
2164
1005
2160
1005
2163
1005
211B
1005
211A
1005
2121
1005
2120
1005
2122
1005
2123
1005
2166
1005
2165
1005
211F
1005
211C
1005
211E
1000
ASC_SEEDPOINT
1011
-99.709215754525047
1021
-0.0
1031
-0.0
1021
-16.075386420834061
1031
0.0
1000
R14_HATCH_DATA
1000
2167
1011
1.0
1021
-0.0
1031
-0.0
1021
0.0
1031
0.0
1011
0.0
1021
-0.0
1031
-0.0
1021
1.0
1031
0.0
1011
0.0
1021
-0.0
1031
-0.0
1021
0.0
1031
1.0
1040
0.0
1010
0.0
1020
0.0
1030
1.0
1000
ANSI31
1070
     0
1070
     1
1071
        1
1071
       33
1071
       15
1070
     1
1040
-41.427651938454467
1040
-7.3107796589017271
1040
-41.482425650612647
1040
-7.1370789447904031
1070
     2
1040
-41.152252158181049
1040
-8.0330346027493889
1040
0.7729795932769777
1040
1.935084649241253
1040
2.313293405967598
1070
     1
1070
     2
1040
-41.865772971169321
1040
-7.4692162433743876
1040
0.1909725040197372
1040
0.0298472487257511
1040
2.8623120192823772
1070
     1
1070
     1
1040
-42.294466361061879
1040
-8.271396724331419
1040
-42.049347647682993
1040
-7.4165711322904011
1070
     2
1040
-42.110891684548207
1040
-8.3240349689603246
1040
0.1909723699092865
1040
2.862344739017606
1040
6.0039373926073969
1070
     1
1070
     1
1040
-41.927317008034542
1040
-8.3766732135892301
1040
-41.810525473610717
1040
-7.96937569772009
1070
     1
1040
-41.961889609352902
1040
-7.96937569772009
1040
-41.810525473610717
1040
-7.96937569772009
1070
     1
1040
-41.961889609352902
1040
-7.96937569772009
1040
-41.909738883034542
1040
-7.7874970356107127
1070
     1
1040
-41.909738883034542
1040
-7.7874970356107127
1040
-41.379957541481808
1040
-7.7874970356107127
1070
     1
1040
-41.645936545388068
1040
-8.7150729337811832
1040
-41.379957541481808
1040
-7.7874970356107127
1070
     1
1040
-41.752627524391961
1040
-8.6083888212323565
1040
-41.645936545388068
1040
-8.7150729337811832
1070
     2
1040
-42.09136348630603
1040
-8.1239739338040753
1040
0.5911056518554689
1040
2.8623356221950571
1040
5.3226236885737688
1070
     1
1070
     2
1040
-41.12493739988026
1040
-8.1550515094876683
1040
1.5468475341796859
1040
2.7088413612455078
1040
3.0158386434483879
1070
     1
1070
     2
1040
-41.960983237282612
1040
-7.6692772785306369
1040
0.5910996437072754
1040
0.9327739783146625
1040
2.8623431914429061
1070
     1
1070
     2
1040
-41.152252158181049
1040
-8.0330346027493889
1040
0.954856538772583
1040
1.923870239659647
1040
2.0694663713693631
1070
     1
1071
       15
1005
211E
1005
211C
1005
211F
1005
2165
1005
2166
1005
2123
1005
2122
1005
2120
1005
2121
1005
211A
1005
211B
1005
2163
1005
2160
1005
2164
1005
211D
1070
     0
1070
     1
1040
6.2831853071795862
1040
0.045
1070
     0
1070
     1
1040
0.7853981633974478
1040
-99.709215754525047
1040
-16.075386420834061
1040
-0.101027881362028
1040
0.101027881362028
1070
     0
1071
        1
1040
-99.709215754525047
1040
-16.075386420834061
1040
0.0
1002
}
  0
LINE
  5
2168
  8
246
 10
-43.01794900000003
 20
-1.732050999999954
 30
0.0
 11
-45.556624999999933
 21
-1.732050999999954
 31
0.0
  0
LINE
  5
2169
  8
246
 10
-43.01794900000003
 20
-0.8660259999999198
 30
0.0
 11
-45.556624999999933
 21
-0.8660259999999198
 31
0.0
  0
LINE
  5
216A
  8
246
 10
-46.0
 20
-1.332132999999998
 30
0.0
 11
-46.0
 21
-2.5
 31
0.0
  0
LINE
  5
216B
  8
246
 10
-45.556624999999933
 20
-1.732050999999954
 30
0.0
 11
-46.0
 21
-2.5
 31
0.0
  0
LINE
  5
216C
  8
246
 10
-40.499999999999993
 20
-5.5
 30
0.0
 11
-40.0
 21
-5.0
 31
0.0
  0
LINE
  5
216D
  8
246
 10
-43.01794900000003
 20
1.7320510000000691
 30
0.0
 11
-40.0
 21
4.75
 31
0.0
  0
LINE
  5
216E
  8
246
 10
-43.01794900000003
 20
1.7320510000000691
 30
0.0
 11
-45.556624999999933
 21
1.7320510000000691
 31
0.0
  0
LINE
  5
216F
  8
246
 10
-43.01794900000003
 20
0.8660250000000358
 30
0.0
 11
-45.556624999999933
 21
0.8660250000000358
 31
0.0
  0
LINE
  5
2170
  8
246
 10
-46.0
 20
1.332132999999998
 30
0.0
 11
-46.0
 21
2.5
 31
0.0
  0
LINE
  5
2171
  8
246
 10
-45.556624999999933
 20
1.7320510000000691
 30
0.0
 11
-46.0
 21
2.5
 31
0.0
  0
LINE
  5
2172
  8
246
 10
-40.0
 20
5.0
 30
0.0
 11
-40.499999999999993
 21
5.5
 31
0.0
  0
LINE
  5
2173
  8
241
 10
-12.5
 20
0.0
 30
0.0
 11
-12.5
 21
-10.5
 31
0.0
  0
LINE
  5
2174
  8
241
 10
-12.14999999999997
 20
0.0
 30
0.0
 11
-12.14999999999997
 21
-11.599999999999911
 31
0.0
  0
LINE
  5
2175
  8
241
 10
-15.0
 20
-10.0
 30
0.0
 11
-15.0
 21
0.0
 31
0.0
  0
LINE
  5
2176
  8
241
 10
-18.0
 20
-9.7999999999999527
 30
0.0
 11
-18.0
 21
9.8000000000000682
 31
0.0
  0
LINE
  5
2177
  8
241
 10
-19.300000000000001
 20
-9.7999999999999527
 30
0.0
 11
-19.300000000000001
 21
9.8000000000000682
 31
0.0
  0
LINE
  5
2178
  8
240
 10
-19.300000000000001
 20
-9.7999999999999527
 30
0.0
 11
-18.0
 21
-9.7999999999999527
 31
0.0
  0
LINE
  5
2179
  8
240
 10
-19.500000000000039
 20
-10.0
 30
0.0
 11
-19.300000000000001
 21
-9.7999999999999527
 31
0.0
  0
ARC
  5
217A
  8
240
 10
-11.45000000000004
 20
-14.299999999999949
 30
0.0
 40
0.7
 50
180.0
 51
270.0
  0
LINE
  5
217B
  8
241
 10
-4.5
 20
-13.67526599999996
 30
0.0
 11
-12.14999999999997
 21
-13.67526599999996
 31
0.0
  0
LINE
  5
217C
  8
241
 10
-4.5
 20
-12.17526599999996
 30
0.0
 11
-12.14999999999997
 21
-12.17526599999996
 31
0.0
  0
LINE
  5
217D
  8
240
 10
-12.14999999999997
 20
-14.299999999999949
 30
0.0
 11
-12.14999999999997
 21
-11.599999999999911
 31
0.0
  0
LINE
  5
217E
  8
242
 10
-15.0
 20
-10.0
 30
0.0
 11
-15.5
 21
-10.5
 31
0.0
  0
LINE
  5
217F
  8
240
 10
-17.500000000000011
 20
-10.5
 30
0.0
 11
-12.5
 21
-10.5
 31
0.0
  0
LINE
  5
2180
  8
240
 10
-18.0
 20
-9.5
 30
0.0
 11
-18.0
 21
-9.7999999999999527
 31
0.0
  0
ARC
  5
2181
  8
240
 10
-17.500000000000011
 20
-10.0
 30
0.0
 40
0.5
 50
180.0
 51
270.0
  0
LINE
  5
2182
  8
240
 10
-18.000000000000011
 20
-10.0
 30
0.0
 11
-18.000000000000011
 21
-9.7999999999999527
 31
0.0
  0
LINE
  5
2183
  8
240
 10
-12.5
 20
-11.25
 30
0.0
 11
-12.14999999999997
 21
-11.599999999999911
 31
0.0
  0
LINE
  5
2184
  8
240
 10
-12.5
 20
-10.5
 30
0.0
 11
-12.5
 21
-11.25
 31
0.0
  0
LINE
  5
2185
  8
242
 10
-12.5
 20
-10.0
 30
0.0
 11
-15.0
 21
-10.0
 31
0.0
  0
LINE
  5
2186
  8
241
 10
-4.5
 20
-12.17526599999996
 30
0.0
 11
-4.5
 21
-13.67526599999996
 31
0.0
  0
LINE
  5
2187
  8
240
 10
-19.300000000000001
 20
9.8000000000000682
 30
0.0
 11
-18.0
 21
9.8000000000000682
 31
0.0
  0
LINE
  5
2188
  8
246
 10
-4.600000000000021
 20
-8.25
 30
0.0
 11
-27.0
 21
-5.8956650000000081
 31
0.0
  0
LINE
  5
2189
  8
246
 10
-27.0
 20
5.8664150000000728
 30
0.0
 11
-4.600000000000021
 21
8.25
 31
0.0
  0
LINE
  5
218A
  8
246
 10
-27.000000000000021
 20
5.8664150000001873
 30
0.0
 11
-27.000000000000568
 21
-5.8956649999999513
 31
0.0
  0
ARC
  5
218B
  8
241
 10
-31.263333333333339
 20
0.000000000000056
 30
0.0
 40
9.7633333333333354
 50
327.81834970220177
 51
32.181632697704259
  0
LINE
  5
218C
  8
241
 10
-23.0
 20
-5.1999999999999309
 30
0.0
 11
-23.0
 21
5.2000000000000437
 31
0.0
  0
LINE
  5
218D
  8
240
 10
-19.500000000000039
 20
10.0
 30
0.0
 11
-19.300000000000001
 21
9.8000000000000682
 31
0.0
  0
LINE
  5
218E
  8
241
 10
-15.0
 20
10.0
 30
0.0
 11
-15.0
 21
0.0
 31
0.0
  0
LINE
  5
218F
  8
241
 10
-4.5
 20
1.5
 30
0.0
 11
-4.5
 21
0.0
 31
0.0
  0
LINE
  5
2190
  8
241
 10
-4.5
 20
-1.5
 30
0.0
 11
-12.14999999999997
 21
-1.5
 31
0.0
  0
LINE
  5
2191
  8
246
 10
-4.600000000000021
 20
-7.0
 30
0.0
 11
-4.600000000000021
 21
-8.25
 31
0.0
  0
LINE
  5
2192
  8
241
 10
-4.5
 20
-1.5
 30
0.0
 11
-4.5
 21
0.0
 31
0.0
  0
LINE
  5
2193
  8
241
 10
-4.5
 20
1.5
 30
0.0
 11
-12.14999999999997
 21
1.5
 31
0.0
  0
LINE
  5
2194
  8
240
 10
-18.0
 20
9.8000000000000682
 30
0.0
 11
-18.0
 21
9.5
 31
0.0
  0
LINE
  5
2195
  8
240
 10
-18.0
 20
9.8000000000000682
 30
0.0
 11
-18.000000000000011
 21
10.0
 31
0.0
  0
LINE
  5
2196
  8
242
 10
-12.5
 20
10.0
 30
0.0
 11
-15.0
 21
10.0
 31
0.0
  0
LINE
  5
2197
  8
246
 10
-4.600000000000021
 20
7.0
 30
0.0
 11
-4.600000000000021
 21
8.25
 31
0.0
  0
ARC
  5
2198
  8
240
 10
-11.45000000000004
 20
14.300000000000059
 30
0.0
 40
0.7
 50
90.0
 51
180.0
  0
LINE
  5
2199
  8
241
 10
-4.5
 20
12.175266000000081
 30
0.0
 11
-12.14999999999997
 21
12.175266000000081
 31
0.0
  0
LINE
  5
219A
  8
241
 10
-4.5
 20
13.67526600000007
 30
0.0
 11
-12.14999999999997
 21
13.67526600000007
 31
0.0
  0
LINE
  5
219B
  8
240
 10
-17.500000000000011
 20
10.5
 30
0.0
 11
-12.5
 21
10.5
 31
0.0
  0
LINE
  5
219C
  8
240
 10
-12.5
 20
10.5
 30
0.0
 11
-12.5
 21
11.25
 31
0.0
  0
LINE
  5
219D
  8
240
 10
-12.5
 20
11.25
 30
0.0
 11
-12.14999999999997
 21
11.600000000000019
 31
0.0
  0
LINE
  5
219E
  8
240
 10
-12.14999999999997
 20
14.300000000000059
 30
0.0
 11
-12.14999999999997
 21
11.600000000000019
 31
0.0
  0
LINE
  5
219F
  8
241
 10
-4.5
 20
12.175266000000081
 30
0.0
 11
-4.5
 21
13.67526600000007
 31
0.0
  0
LINE
  5
21A0
  8
241
 10
-1.1899499999999521
 20
14.50331100000005
 30
0.0
 11
-1.1899499999999521
 21
-14.70198699999991
 31
0.0
  0
LINE
  5
21A1
  8
240
 10
0.0
 20
13.851472000000051
 30
0.0
 11
0.0
 21
0.0
 31
0.0
  0
LINE
  5
21A2
  8
240
 10
0.0
 20
-13.851471999999941
 30
0.0
 11
0.0
 21
0.0
 31
0.0
  0
ARC
  5
21A3
  8
240
 10
-0.6000000000000229
 20
-13.851471999999941
 30
0.0
 40
0.6
 50
314.99999999999932
 51
0.0
  0
ARC
  5
21A4
  8
240
 10
-1.1899499999999521
 20
-14.299999999999949
 30
0.0
 40
0.7
 50
270.0
 51
314.99999999999932
  0
LINE
  5
21A5
  8
240
 10
-0.6949749999999995
 20
-14.79497499999991
 30
0.0
 11
-0.1757359999999153
 21
-14.275735999999929
 31
0.0
  0
LINE
  5
21A6
  8
246
 10
0.0
 20
-6.9220940000000137
 30
0.0
 11
-2.2999999999999541
 21
-8.25
 31
0.0
  0
LINE
  5
21A7
  8
246
 10
-2.5
 20
-8.25
 30
0.0
 11
-2.2999999999999541
 21
-8.25
 31
0.0
  0
LINE
  5
21A8
  8
246
 10
-2.5
 20
-8.25
 30
0.0
 11
-2.5
 21
-7.0
 31
0.0
  0
LINE
  5
21A9
  8
246
 10
0.0
 20
6.9220940000001283
 30
0.0
 11
-2.2999999999999541
 21
8.25
 31
0.0
  0
LINE
  5
21AA
  8
246
 10
-2.5
 20
8.25
 30
0.0
 11
-2.2999999999999541
 21
8.25
 31
0.0
  0
LINE
  5
21AB
  8
246
 10
-2.5
 20
8.25
 30
0.0
 11
-2.5
 21
7.0
 31
0.0
  0
ARC
  5
21AC
  8
240
 10
-1.1899499999999521
 20
14.300000000000059
 30
0.0
 40
0.7
 50
45.000000000000632
 51
90.0
  0
LINE
  5
21AD
  8
240
 10
-0.1757359999999153
 20
14.27573600000005
 30
0.0
 11
-0.6949749999999995
 21
14.79497500000002
 31
0.0
  0
ARC
  5
21AE
  8
240
 10
-0.6000000000000229
 20
13.851472000000051
 30
0.0
 40
0.6
 50
0.0
 51
45.000000000000632
  0
VIEWPORT
  5
22
 67
     1
  8
0
 10
261.51769911504419
 20
148.5
 30
0.0
 40
523.0353982300885
 41
297.0
 68
     1
 69
     1
1001
ACAD
1000
MVIEW
1002
{
1070
    16
1010
0.0
1020
0.0
1030
0.0
1010
0.0
1020
0.0
1030
1.0
1040
0.0
1040
297.0
1040
261.51769911504419
1040
148.5
1040
50.0
1040
0.0
1040
0.0
1070
     0
1070
   100
1070
     1
1070
     1
1070
     0
1070
     0
1070
     0
1070
     0
1040
0.0
1040
0.0
1040
0.0
1040
1.0
1040
1.0
1040
10.0
1040
10.0
1070
     0
1002
{
1002
}
1002
}
1001
GENIUS_GENOBJ-N-SDF_13
1002
{
1000
OWNER
1000
GEN
1002
}
1001
GENIUS_GENODEF_13
1002
{
1000
HIER
1070
     0
1002
}
1002
{
1000
MANEDIT
1070
     0
1002
}
1002
{
1000
NOSEL
1070
     0
1002
}
1002
{
1000
BEHIND
1070
     0
1002
}
1002
{
1000
OTHER
1070
     0
1002
}
1002
{
1000
REACTOR
1002
}
1001
GENIUS_GENSCREG_15
1000
PF
1040
1.0
1000
DF
1040
1.0
1000
MIN
1011
0.0
1021
-0.0
1031
-0.0
1021
0.0
1031
0.0
1000
MAX
1011
523.0353982300885
1021
-0.0
1031
-0.0
1021
297.0
1031
0.0
1000
FLAGS
1070
     2
  0
ENDSEC
  0
EOF
