  0
SECTION
  2
HEADER
  9
$ACADVER
  1
AC1009
  9
$INSBASE
 10
0.0
 20
0.0
 30
0.0
  9
$EXTMIN
 10
-86.3016183402265824
 20
-15.0000000000000195
 30
0.0
  9
$EXTMAX
 10
32.7619047619047734
 20
47.0000000000000071
 30
0.0
  9
$LIMMIN
 10
0.0
 20
0.0
  9
$LIMMAX
 10
297.0
 20
210.0
  9
$ORTHOMODE
 70
     0
  9
$REGENMODE
 70
     1
  9
$FILLMODE
 70
     1
  9
$QTEXTMODE
 70
     0
  9
$MIRRTEXT
 70
     1
  9
$DRAGMODE
 70
     2
  9
$LTSCALE
 40
10.0
  9
$OSMODE
 70
   807
  9
$ATTMODE
 70
     1
  9
$TEXTSIZE
 40
3.0
  9
$TRACEWID
 40
1.0
  9
$TEXTSTYLE
  7
YOKO
  9
$CLAYER
  8
240
  9
$CELTYPE
  6
BYLAYER
  9
$CECOLOR
 62
   256
  9
$DIMSCALE
 40
1.0
  9
$DIMASZ
 40
2.2299999999999991
  9
$DIMEXO
 40
0.5
  9
$DIMDLI
 40
7.0
  9
$DIMRND
 40
0.0
  9
$DIMDLE
 40
0.0
  9
$DIMEXE
 40
1.0
  9
$DIMTP
 40
0.0
  9
$DIMTM
 40
0.01
  9
$DIMTXT
 40
2.7999999999999989
  9
$DIMCEN
 40
0.0
  9
$DIMTSZ
 40
0.0
  9
$DIMTOL
 70
     0
  9
$DIMLIM
 70
     0
  9
$DIMTIH
 70
     0
  9
$DIMTOH
 70
     0
  9
$DIMSE1
 70
     0
  9
$DIMSE2
 70
     0
  9
$DIMTAD
 70
     3
  9
$DIMZIN
 70
     9
  9
$DIMBLK
  1
OPEN
  9
$DIMASO
 70
     1
  9
$DIMSHO
 70
     1
  9
$DIMPOST
  1

  9
$DIMAPOST
  1

  9
$DIMALT
 70
     0
  9
$DIMALTD
 70
     2
  9
$DIMALTF
 40
25.3999999999999986
  9
$DIMLFAC
 40
1.0
  9
$DIMTOFL
 70
     1
  9
$DIMTVP
 40
0.0
  9
$DIMTIX
 70
     1
  9
$DIMSOXD
 70
     0
  9
$DIMSAH
 70
     0
  9
$DIMBLK1
  1

  9
$DIMBLK2
  1

  9
$DIMSTYLE
  2
BIGT
  9
$DIMCLRD
 70
   256
  9
$DIMCLRE
 70
   256
  9
$DIMCLRT
 70
    40
  9
$DIMTFAC
 40
1.0
  9
$DIMGAP
 40
1.0
  9
$LUNITS
 70
     2
  9
$LUPREC
 70
     3
  9
$SKETCHINC
 40
1.0
  9
$FILLETRAD
 40
0.0
  9
$AUNITS
 70
     0
  9
$AUPREC
 70
     3
  9
$MENU
  1
.
  9
$ELEVATION
 40
0.0
  9
$PELEVATION
 40
0.0
  9
$THICKNESS
 40
0.0
  9
$LIMCHECK
 70
     0
  9
$BLIPMODE
 70
     0
  9
$CHAMFERA
 40
0.25
  9
$CHAMFERB
 40
0.25
  9
$SKPOLY
 70
     0
  9
$TDCREATE
 40
2458197.5783333331346512
  9
$TDUPDATE
 40
2458197.673125000204891
  9
$TDINDWG
 40
0.0343287037
  9
$TDUSRTIMER
 40
0.0343287037
  9
$USRTIMER
 70
     1
  9
$ANGBASE
 50
0.0
  9
$ANGDIR
 70
     0
  9
$PDMODE
 70
     1
  9
$PDSIZE
 40
0.0
  9
$PLINEWID
 40
0.0
  9
$COORDS
 70
     1
  9
$SPLFRAME
 70
     0
  9
$SPLINETYPE
 70
     6
  9
$SPLINESEGS
 70
     4
  9
$ATTDIA
 70
     1
  9
$ATTREQ
 70
     1
  9
$HANDLING
 70
     1
  9
$HANDSEED
  5
1A14
  9
$SURFTAB1
 70
     6
  9
$SURFTAB2
 70
     6
  9
$SURFTYPE
 70
     6
  9
$SURFU
 70
     6
  9
$SURFV
 70
     6
  9
$UCSNAME
  2

  9
$UCSORG
 10
0.0
 20
0.0
 30
0.0
  9
$UCSXDIR
 10
1.0
 20
0.0
 30
0.0
  9
$UCSYDIR
 10
0.0
 20
1.0
 30
0.0
  9
$PUCSNAME
  2

  9
$PUCSORG
 10
0.0
 20
0.0
 30
0.0
  9
$PUCSXDIR
 10
1.0
 20
0.0
 30
0.0
  9
$PUCSYDIR
 10
0.0
 20
1.0
 30
0.0
  9
$USERI1
 70
     1
  9
$USERI2
 70
     0
  9
$USERI3
 70
     0
  9
$USERI4
 70
     0
  9
$USERI5
 70
     0
  9
$USERR1
 40
0.0
  9
$USERR2
 40
0.0
  9
$USERR3
 40
0.0
  9
$USERR4
 40
0.0
  9
$USERR5
 40
0.0
  9
$WORLDVIEW
 70
     1
  9
$SHADEDGE
 70
     3
  9
$SHADEDIF
 70
    70
  9
$TILEMODE
 70
     1
  9
$MAXACTVP
 70
    16
  9
$PLIMCHECK
 70
     0
  9
$PEXTMIN
 10
1.0000000000000000E+20
 20
1.0000000000000000E+20
 30
1.0000000000000000E+20
  9
$PEXTMAX
 10
-1.0000000000000000E+20
 20
-1.0000000000000000E+20
 30
-1.0000000000000000E+20
  9
$PLIMMIN
 10
0.0
 20
0.0
  9
$PLIMMAX
 10
420.0
 20
297.0
  9
$UNITMODE
 70
     0
  9
$VISRETAIN
 70
     1
  9
$PLINEGEN
 70
     0
  9
$PSLTSCALE
 70
     1
  0
ENDSEC
  0
SECTION
  2
TABLES
  0
TABLE
  2
VPORT
 70
     1
  0
VPORT
  2
*ACTIVE
 70
     0
 10
0.0
 20
0.0
 11
1.0
 21
1.0
 12
11.90786649330391
 22
7.3133042716964516
 13
0.0
 23
0.0
 14
7.0
 24
7.0
 15
7.0
 25
7.0
 16
0.0
 26
0.0
 36
1.0
 17
0.0
 27
0.0
 37
0.0
 40
149.7998224322105898
 41
1.8592342342342341
 42
50.0
 43
0.0
 44
0.0
 50
0.0
 51
0.0
 71
     0
 72
  2000
 73
     1
 74
     0
 75
     0
 76
     1
 77
     0
 78
     0
  0
ENDTAB
  0
TABLE
  2
LTYPE
 70
    16
  0
LTYPE
  2
CONTINUOUS
 70
     0
  3
Solid line
 72
    65
 73
     0
 40
0.0
  0
LTYPE
  2
CENTER2
 70
     0
  3
___ _ ___ _ ___ _ ___ _ ___ _ ___ _ ___ _ ___ _
 72
    65
 73
     4
 40
1.125
 49
0.75
 49
-0.125
 49
0.125
 49
-0.125
  0
LTYPE
  2
HIDDEN2
 70
     0
  3
_ _ _ _ _ _ _ _ _ _ _ _ _ _ _ _ _ _ _ _ _ _ _ _
 72
    65
 73
     2
 40
0.1875
 49
0.125
 49
-0.0625
  0
LTYPE
  2
PHANTOM2
 70
     0
  3
___ _ _ ___ _ _ ___ _ _ ___ _ _ ___ _ _ ___ _ _
 72
    65
 73
     6
 40
1.25
 49
0.625
 49
-0.125
 49
0.125
 49
-0.125
 49
0.125
 49
-0.125
  0
LTYPE
  2
CENTER
 70
     0
  3
____ _ ____ _ ____ _ ____ _ ____ _ ____ _ ____ 
 72
    65
 73
     4
 40
2.0
 49
1.25
 49
-0.25
 49
0.25
 49
-0.25
  0
LTYPE
  2
AM_ISO02W050
 70
     0
  3
__ __ __ __ __ __ __ __ __ __ __ __ __ __ __
 72
    65
 73
     2
 40
7.5
 49
6.0
 49
-1.5
  0
LTYPE
  2
AMCONSTR
 70
     0
  3
_______________________
 72
    65
 73
     2
 40
9999.0
 49
9999.0
 49
0.0
  0
LTYPE
  2
ACISOWELD
 70
     0
  3
_ _ _ _ _
 72
    65
 73
     2
 40
2.0
 49
2.0
 49
-1.0
  0
LTYPE
  2
ACISOTGB
 70
     0
  3
__ . . __ . .
 72
    65
 73
     6
 40
9.0
 49
4.0
 49
-1.0
 49
1.0
 49
-1.0
 49
1.0
 49
-1.0
  0
LTYPE
  2
ACISOTGL
 70
     0
  3
_ _ _ _ _
 72
    65
 73
     2
 40
3.0
 49
2.0
 49
-1.0
  0
LTYPE
  2
ACJISTGB
 70
     0
  3
__ . . __ . .
 72
    65
 73
     6
 40
9.0
 49
4.0
 49
-1.0
 49
1.0
 49
-1.0
 49
1.0
 49
-1.0
  0
LTYPE
  2
ACJISTGL
 70
     0
  3
_ _ _ _ _
 72
    65
 73
     2
 40
3.0
 49
2.0
 49
-1.0
  0
LTYPE
  2
HIDDEN
 70
     0
  3
Hidden __ __ __ __ __ __ __ __ __ __ __ __ __ _
 72
    65
 73
     2
 40
9.5249999999999986
 49
6.3499999999999988
 49
-3.1749999999999989
  0
LTYPE
  2
AMZIGZAG2
 70
     0
  3
/\/-/\/-/\/-/\/-/\/-/\/
 72
    65
 73
     2
 40
0.4401
 49
0.0001
 49
-0.4400000000000002
  0
LTYPE
  2
ACANSTGB
 70
     0
  3
__ . . __ . .
 72
    65
 73
     6
 40
0.35433070866
 49
0.15748031496
 49
-0.03937007874
 49
0.03937007874
 49
-0.03937007874
 49
0.03937007874
 49
-0.03937007874
  0
LTYPE
  2
ACANSTGL
 70
     0
  3
_ _ _ _ _
 72
    65
 73
     2
 40
0.11811023622
 49
0.07874015748
 49
-0.03937007874
  0
ENDTAB
  0
TABLE
  2
LAYER
 70
    10
  0
LAYER
  2
0
 70
     0
 62
     7
  6
CONTINUOUS
  0
LAYER
  2
DEFPOINTS
 70
     0
 62
     7
  6
CONTINUOUS
  0
LAYER
  2
245
 70
     0
 62
     2
  6
CENTER2
  0
LAYER
  2
240
 70
     0
 62
     4
  6
CONTINUOUS
  0
LAYER
  2
241
 70
     0
 62
   211
  6
CONTINUOUS
  0
LAYER
  2
242
 70
     0
 62
     3
  6
CONTINUOUS
  0
LAYER
  2
243
 70
     0
 62
   211
  6
HIDDEN2
  0
LAYER
  2
246
 70
     0
 62
     3
  6
PHANTOM2
  0
LAYER
  2
247
 70
     0
 62
    60
  6
CONTINUOUS
  0
LAYER
  2
250
 70
     0
 62
     3
  6
CONTINUOUS
  0
ENDTAB
  0
TABLE
  2
STYLE
 70
     7
  0
STYLE
  2
STANDARD
 70
     0
 40
0.0
 41
1.0
 50
0.0
 71
     0
 42
3.0
  3
romans.shx
  4
extfont.shx
  0
STYLE
  2
ACISOTS
 70
     0
 40
1.0
 41
1.0
 50
0.0
 71
     0
 42
3.0
  3
amgdt.shx
  4
extfont.shx
  0
STYLE
  2
ACISOGDT
 70
     0
 40
0.0
 41
1.0
 50
0.0
 71
     0
 42
3.0
  3
amgdt.shx
  4
extfont.shx
  0
STYLE
  2
ACJISTS
 70
     0
 40
1.0
 41
1.0
 50
0.0
 71
     0
 42
3.0
  3
amgdt.shx
  4
extfont.shx
  0
STYLE
  2
ACJISGDT
 70
     0
 40
0.0
 41
1.0
 50
0.0
 71
     0
 42
3.0
  3
amgdt.shx
  4
extfont.shx
  0
STYLE
  2
YOKO
 70
     0
 40
0.0
 41
1.0
 50
0.0
 71
     0
 42
3.0
  3
romans.shx
  4
extfont.shx
  0
STYLE
  2
ACANSGDT
 70
     0
 40
0.0
 41
1.0
 50
0.0
 71
     0
 42
3.0
  3
amgdt.shx
  4

  0
ENDTAB
  0
TABLE
  2
VIEW
 70
     0
  0
ENDTAB
  0
TABLE
  2
UCS
 70
     0
  0
ENDTAB
  0
TABLE
  2
APPID
 70
    37
  0
APPID
  2
ACAD
 70
     0
  0
APPID
  2
GLOBAL
 70
     0
  0
APPID
  2
DETAIL
 70
     0
  0
APPID
  2
GRPNAME
 70
     0
  0
APPID
  2
GPARA
 70
     0
  0
APPID
  2
MCAD_NO_VIS
 70
     0
  0
APPID
  2
ACAD_TEMP_GRAPHIC
 70
     0
  0
APPID
  2
ACATTRIBSERVICES
 70
     0
  0
APPID
  2
GENIUS_GENSCREG_15
 70
     0
  0
APPID
  2
GENIUS_GENODEF_13
 70
     0
  0
APPID
  2
GENIUS_GENOBJ-N-SDF_13
 70
     0
  0
APPID
  2
GENIUS_GENREC_14
 70
     0
  0
APPID
  2
GENIUS_GENOBJ-N-REC_13
 70
     0
  0
APPID
  2
GENIUS_GENDIMSH_14
 70
     0
  0
APPID
  2
GENIUS_GENOBJ-N-DIM_13
 70
     0
  0
APPID
  2
GENIUS_GENDIM_13
 70
     0
  0
APPID
  2
GENIUS_GENDTOL_13
 70
     0
  0
APPID
  2
GENIUS_GENOLIS_13
 70
     0
  0
APPID
  2
GENIUS_GENOENT_13
 70
     0
  0
APPID
  2
GENIUS_GENOBJ-F-FEM_13
 70
     0
  0
APPID
  2
GENIUS_GENOREF_13
 70
     0
  0
APPID
  2
GENIUS_GEFFEM_13
 70
     0
  0
APPID
  2
GENIUS_GEFFEMP_13
 70
     0
  0
APPID
  2
AD_DRAW
 70
     0
  0
APPID
  2
DESIGNERASSEMBLIES
 70
     0
  0
APPID
  2
ACADM_DIM_EDIT
 70
     0
  0
APPID
  2
AMDT_DM_ADJ
 70
     0
  0
APPID
  2
ACAD_NAV_VCDISPLAY
 70
     0
  0
APPID
  2
ACAECLAYERSTANDARD
 70
     0
  0
APPID
  2
ACAD_PSEXT
 70
     0
  0
APPID
  2
ACAD_DSTYLE_DIMJAG
 70
     0
  0
APPID
  2
ACAD_DSTYLE_DIMBREAK
 70
     0
  0
APPID
  2
GENIUS_GENOBJ-N-FIL_13
 70
     0
  0
APPID
  2
ACAD_EXEMPT_FROM_CAD_STANDARDS
 70
     0
  0
APPID
  2
ACAD_DSTYLE_DIMINSPECT
 70
     0
  0
APPID
  2
ACADANNOMONITORALERTICONDI
 70
     0
  0
APPID
  2
ACAD_MLEADERVER
 70
     0
  0
ENDTAB
  0
TABLE
  2
DIMSTYLE
 70
    29
  0
DIMSTYLE
  2
BIGT
 70
     0
  3

  4

  5
OPEN
  6

  7

 40
1.0
 41
2.2299999999999991
 42
0.5
 43
7.0
 44
1.0
 45
0.0
 46
0.0
 47
0.0
 48
0.01
140
2.7999999999999989
141
0.0
142
0.0
143
25.3999999999999986
144
1.0
145
0.0
146
1.0
147
1.0
 71
     0
 72
     0
 73
     0
 74
     0
 75
     0
 76
     0
 77
     3
 78
     9
170
     0
171
     2
172
     1
173
     0
174
     1
175
     0
176
   256
177
   256
178
    40
  0
DIMSTYLE
  2
AM_ISO
 70
     0
  3

  4
"
  5

  6

  7

 40
1.0
 41
2.5
 42
1.0
 43
10.0
 44
1.0
 45
0.0
 46
0.0
 47
0.1
 48
0.1
140
3.5
141
0.0
142
0.0
143
0.0393701
144
1.0
145
0.0
146
0.71
147
1.5
 71
     0
 72
     0
 73
     0
 74
     0
 75
     0
 76
     0
 77
     1
 78
     8
170
     0
171
     2
172
     1
173
     0
174
     0
175
     0
176
   256
177
   256
178
     2
  0
DIMSTYLE
  2
AM_ISO$3
 70
     0
  3

  4
"
  5

  6

  7

 40
1.0
 41
2.5
 42
1.0
 43
10.0
 44
1.0
 45
0.0
 46
0.0
 47
0.1
 48
0.1
140
3.5
141
0.0
142
0.0
143
0.0393701
144
1.0
145
0.0
146
0.71
147
1.5
 71
     0
 72
     0
 73
     0
 74
     1
 75
     0
 76
     0
 77
     1
 78
     8
170
     0
171
     2
172
     0
173
     0
174
     0
175
     0
176
   256
177
   256
178
     2
  0
DIMSTYLE
  2
AM_ISO$4
 70
     0
  3

  4
"
  5

  6

  7

 40
1.0
 41
2.5
 42
1.0
 43
10.0
 44
1.0
 45
0.0
 46
0.0
 47
0.1
 48
0.1
140
3.5
141
0.0
142
0.0
143
0.0393701
144
1.0
145
0.0
146
0.71
147
1.5
 71
     0
 72
     0
 73
     0
 74
     1
 75
     0
 76
     0
 77
     1
 78
     8
170
     0
171
     2
172
     0
173
     0
174
     0
175
     0
176
   256
177
   256
178
     2
  0
DIMSTYLE
  2
AM_ISO$6
 70
     0
  3

  4
"
  5

  6

  7

 40
1.0
 41
2.5
 42
1.0
 43
10.0
 44
1.0
 45
0.0
 46
0.0
 47
0.1
 48
0.1
140
3.5
141
0.0
142
0.0
143
0.0393701
144
1.0
145
0.0
146
0.71
147
1.5
 71
     0
 72
     0
 73
     0
 74
     0
 75
     0
 76
     0
 77
     0
 78
     8
170
     0
171
     2
172
     1
173
     0
174
     0
175
     0
176
   256
177
   256
178
     2
  0
DIMSTYLE
  2
AM_ISO$7
 70
     0
  3

  4
"
  5

  6

  7

 40
1.0
 41
2.5
 42
1.0
 43
10.0
 44
1.0
 45
0.0
 46
0.0
 47
0.1
 48
0.1
140
5.0
141
0.0
142
0.0
143
0.0393701
144
1.0
145
0.0
146
0.71
147
1.5
 71
     0
 72
     0
 73
     0
 74
     0
 75
     0
 76
     0
 77
     1
 78
     8
170
     0
171
     2
172
     1
173
     0
174
     0
175
     0
176
   256
177
   256
178
     2
  0
DIMSTYLE
  2
AM_ISO$SF
 70
     0
  3

  4
"
  5

  6

  7

 40
1.0
 41
2.5
 42
1.0
 43
10.0
 44
1.0
 45
0.0
 46
0.0
 47
0.1
 48
0.1
140
3.5
141
0.0
142
0.0
143
0.0393701
144
1.0
145
0.0
146
0.71
147
1.5
 71
     0
 72
     0
 73
     0
 74
     0
 75
     1
 76
     1
 77
     1
 78
     8
170
     0
171
     2
172
     1
173
     0
174
     0
175
     0
176
   256
177
   256
178
     2
  0
DIMSTYLE
  2
AM_ISO$SH
 70
     0
  3

  4
"
  5

  6
GENAXEH
  7

 40
1.0
 41
2.5
 42
1.0
 43
10.0
 44
1.0
 45
0.0
 46
0.0
 47
0.1
 48
0.1
140
3.5
141
0.0
142
0.0
143
0.0393701
144
2.0
145
0.0
146
0.71
147
1.5
 71
     0
 72
     0
 73
     0
 74
     0
 75
     1
 76
     1
 77
     1
 78
     8
170
     0
171
     2
172
     1
173
     1
174
     0
175
     0
176
   256
177
   256
178
     2
  0
DIMSTYLE
  2
BIGT$2
 70
     0
  3

  4

  5
OPEN
  6

  7

 40
1.0
 41
2.2299999999999991
 42
0.5
 43
7.0
 44
1.0
 45
0.0
 46
0.0
 47
0.0
 48
0.01
140
2.7999999999999989
141
0.0
142
0.0
143
25.3999999999999986
144
1.0
145
0.0
146
1.0
147
1.0
 71
     0
 72
     0
 73
     0
 74
     0
 75
     0
 76
     0
 77
     3
 78
     9
170
     0
171
     2
172
     1
173
     0
174
     0
175
     0
176
   256
177
   256
178
    40
  0
DIMSTYLE
  2
BIGT$3
 70
     0
  3

  4

  5
OPEN
  6

  7

 40
1.0
 41
2.2299999999999991
 42
0.5
 43
2.5
 44
1.0
 45
0.0
 46
0.0
 47
0.0
 48
0.01
140
2.7999999999999989
141
0.0
142
0.0
143
25.3999999999999986
144
1.0
145
0.0
146
1.0
147
1.0
 71
     0
 72
     0
 73
     0
 74
     0
 75
     0
 76
     0
 77
     3
 78
     9
170
     0
171
     2
172
     1
173
     0
174
     0
175
     0
176
   256
177
   256
178
    40
  0
DIMSTYLE
  2
BIGT$7
 70
     0
  3

  4

  5
OPEN
  6

  7

 40
0.0
 41
2.2299999999999991
 42
0.5
 43
7.0
 44
1.0
 45
0.0
 46
0.0
 47
0.0
 48
0.01
140
2.7999999999999989
141
0.0
142
0.0
143
25.3999999999999986
144
1.0
145
0.0
146
1.0
147
1.0
 71
     0
 72
     0
 73
     0
 74
     0
 75
     0
 76
     0
 77
     3
 78
     9
170
     0
171
     2
172
     0
173
     0
174
     0
175
     0
176
   256
177
   256
178
    40
  0
DIMSTYLE
  2
BIGT$6
 70
     0
  3

  4

  5
OPEN
  6

  7

 40
1.0
 41
2.2299999999999991
 42
0.5
 43
2.5
 44
1.0
 45
0.0
 46
0.0
 47
0.0
 48
0.01
140
2.7999999999999989
141
0.0
142
0.0
143
25.3999999999999986
144
1.0
145
0.0
146
1.0
147
1.0
 71
     0
 72
     0
 73
     0
 74
     0
 75
     0
 76
     0
 77
     3
 78
     9
170
     0
171
     2
172
     1
173
     0
174
     0
175
     0
176
   256
177
   256
178
    40
  0
DIMSTYLE
  2
BIGT$0
 70
     0
  3

  4

  5
OPEN
  6

  7

 40
1.0
 41
2.2299999999999991
 42
0.5
 43
7.0
 44
1.0
 45
0.0
 46
0.0
 47
0.0
 48
0.01
140
2.7999999999999989
141
0.0
142
0.0
143
25.3999999999999986
144
1.0
145
0.0
146
1.0
147
1.0
 71
     0
 72
     0
 73
     0
 74
     0
 75
     0
 76
     0
 77
     3
 78
     9
170
     0
171
     2
172
     1
173
     0
174
     0
175
     0
176
   256
177
   256
178
    40
  0
DIMSTYLE
  2
BIGT$4
 70
     0
  3

  4

  5
OPEN
  6

  7

 40
1.0
 41
2.2299999999999991
 42
0.5
 43
2.5
 44
1.0
 45
0.0
 46
0.0
 47
0.0
 48
0.01
140
2.7999999999999989
141
0.0
142
0.0
143
25.3999999999999986
144
1.0
145
0.0
146
1.0
147
1.0
 71
     0
 72
     0
 73
     0
 74
     0
 75
     0
 76
     0
 77
     3
 78
     9
170
     0
171
     2
172
     1
173
     0
174
     0
175
     0
176
   256
177
   256
178
    40
  0
DIMSTYLE
  2
BIGT$SH
 70
     0
  3

  4

  5
OPEN
  6

  7

 40
1.0
 41
2.2299999999999991
 42
0.5
 43
7.0
 44
1.0
 45
0.0
 46
0.0
 47
0.0
 48
0.0
140
2.7999999999999989
141
0.0
142
0.0
143
25.3999999999999986
144
1.0
145
0.0
146
1.0
147
1.0
 71
     0
 72
     0
 73
     0
 74
     0
 75
     0
 76
     0
 77
     3
 78
     9
170
     0
171
     2
172
     1
173
     0
174
     0
175
     0
176
   256
177
   256
178
    40
  0
DIMSTYLE
  2
BIGT$SF
 70
     0
  3

  4

  5
OPEN
  6

  7

 40
1.0
 41
2.2299999999999991
 42
0.5
 43
7.0
 44
1.0
 45
0.0
 46
0.0
 47
0.0
 48
0.0
140
2.7999999999999989
141
0.0
142
0.0
143
25.3999999999999986
144
1.0
145
0.0
146
1.0
147
1.0
 71
     0
 72
     0
 73
     0
 74
     0
 75
     0
 76
     0
 77
     3
 78
     9
170
     0
171
     2
172
     1
173
     0
174
     0
175
     0
176
   256
177
   256
178
    40
  0
DIMSTYLE
  2
TECHNICAL_OSAKA
 70
     0
  3

  4
"
  5
OPEN30
  6

  7

 40
1.0
 41
2.5
 42
1.0
 43
10.0
 44
1.0
 45
0.0
 46
0.0
 47
0.1
 48
0.1
140
2.7999999999999989
141
0.0
142
0.0
143
0.0393701
144
1.0
145
0.0
146
0.71
147
1.5
 71
     0
 72
     0
 73
     0
 74
     0
 75
     0
 76
     0
 77
     3
 78
     8
170
     0
171
     2
172
     1
173
     0
174
     0
175
     0
176
   256
177
   256
178
    40
  0
DIMSTYLE
  2
TECHNICAL_OSAKA$3
 70
     0
  3

  4
"
  5
OPEN30
  6

  7

 40
1.0
 41
2.5
 42
1.0
 43
10.0
 44
1.0
 45
0.0
 46
0.0
 47
0.1
 48
0.1
140
2.7999999999999989
141
0.0
142
0.0
143
0.0393701
144
1.0
145
0.0
146
0.71
147
1.5
 71
     0
 72
     0
 73
     0
 74
     1
 75
     0
 76
     0
 77
     3
 78
     8
170
     0
171
     2
172
     0
173
     0
174
     0
175
     0
176
   256
177
   256
178
    40
  0
DIMSTYLE
  2
TECHNICAL_OSAKA$4
 70
     0
  3

  4
"
  5
OPEN30
  6

  7

 40
1.0
 41
2.5
 42
1.0
 43
10.0
 44
1.0
 45
0.0
 46
0.0
 47
0.1
 48
0.1
140
2.7999999999999989
141
0.0
142
0.0
143
0.0393701
144
1.0
145
0.0
146
0.71
147
1.5
 71
     0
 72
     0
 73
     0
 74
     1
 75
     0
 76
     0
 77
     3
 78
     8
170
     0
171
     2
172
     0
173
     0
174
     0
175
     0
176
   256
177
   256
178
    40
  0
DIMSTYLE
  2
TECHNICAL_OSAKA$6
 70
     0
  3

  4
"
  5
OPEN30
  6

  7

 40
1.0
 41
2.5
 42
1.0
 43
10.0
 44
1.0
 45
0.0
 46
0.0
 47
0.1
 48
0.1
140
2.7999999999999989
141
0.0
142
0.0
143
0.0393701
144
1.0
145
0.0
146
0.71
147
1.5
 71
     0
 72
     0
 73
     0
 74
     0
 75
     0
 76
     0
 77
     0
 78
     8
170
     0
171
     2
172
     1
173
     0
174
     0
175
     0
176
   256
177
   256
178
    40
  0
DIMSTYLE
  2
TECHNICAL_OSAKA$7
 70
     0
  3

  4
"
  5
OPEN30
  6

  7

 40
1.0
 41
2.5
 42
1.0
 43
10.0
 44
1.0
 45
0.0
 46
0.0
 47
0.1
 48
0.1
140
2.7999999999999989
141
0.0
142
0.0
143
0.0393701
144
1.0
145
0.0
146
0.71
147
1.5
 71
     0
 72
     0
 73
     0
 74
     0
 75
     0
 76
     0
 77
     3
 78
     8
170
     0
171
     2
172
     1
173
     0
174
     0
175
     0
176
   256
177
   256
178
    40
  0
DIMSTYLE
  2
TECHNICAL_OSAKA$SF
 70
     0
  3

  4
"
  5
OPEN30
  6
OPEN30
  7
OPEN30
 40
1.0
 41
2.5
 42
1.0
 43
10.0
 44
1.0
 45
0.0
 46
0.0
 47
0.1
 48
0.1
140
3.5
141
0.0
142
0.0
143
0.0393701
144
1.0
145
0.0
146
0.71
147
1.5
 71
     0
 72
     0
 73
     0
 74
     0
 75
     1
 76
     1
 77
     3
 78
     8
170
     0
171
     2
172
     1
173
     0
174
     0
175
     0
176
   256
177
   256
178
    40
  0
DIMSTYLE
  2
TECHNICAL_OSAKA$SH
 70
     0
  3

  4
"
  5
OPEN30
  6
GENAXEH
  7
OPEN30
 40
1.0
 41
2.5
 42
1.0
 43
10.0
 44
1.0
 45
0.0
 46
0.0
 47
0.1
 48
0.1
140
3.5
141
0.0
142
0.0
143
0.0393701
144
2.0
145
0.0
146
0.71
147
1.5
 71
     0
 72
     0
 73
     0
 74
     0
 75
     1
 76
     1
 77
     3
 78
     8
170
     0
171
     2
172
     1
173
     1
174
     0
175
     0
176
   256
177
   256
178
    40
  0
DIMSTYLE
  2
AM_ANSI
 70
     0
  3

  4
mm
  5

  6

  7

 40
1.0
 41
0.12
 42
0.05
 43
0.5
 44
0.1
 45
0.0
 46
0.0
 47
0.1
 48
0.1
140
0.12
141
0.0
142
0.0
143
25.3999999999999986
144
1.0
145
0.0
146
0.71
147
0.06
 71
     0
 72
     0
 73
     1
 74
     1
 75
     0
 76
     0
 77
     0
 78
     7
170
     0
171
     2
172
     0
173
     0
174
     0
175
     0
176
   256
177
   256
178
     2
  0
DIMSTYLE
  2
AM_ANSI$3
 70
     0
  3

  4
mm
  5

  6

  7

 40
1.0
 41
0.12
 42
0.05
 43
0.5
 44
0.1
 45
0.0
 46
0.0
 47
0.1
 48
0.1
140
0.12
141
0.0
142
0.0
143
25.3999999999999986
144
1.0
145
0.0
146
0.71
147
0.06
 71
     0
 72
     0
 73
     1
 74
     1
 75
     0
 76
     0
 77
     0
 78
     7
170
     0
171
     2
172
     0
173
     0
174
     0
175
     0
176
   256
177
   256
178
     2
  0
DIMSTYLE
  2
AM_ANSI$4
 70
     0
  3

  4
mm
  5

  6

  7

 40
1.0
 41
0.12
 42
0.05
 43
0.5
 44
0.1
 45
0.0
 46
0.0
 47
0.1
 48
0.1
140
0.12
141
0.0
142
0.0
143
25.3999999999999986
144
1.0
145
0.0
146
0.71
147
0.06
 71
     0
 72
     0
 73
     1
 74
     1
 75
     0
 76
     0
 77
     0
 78
     7
170
     0
171
     2
172
     0
173
     0
174
     0
175
     0
176
   256
177
   256
178
     2
  0
DIMSTYLE
  2
AM_ANSI$7
 70
     0
  3

  4
mm
  5

  6

  7

 40
1.0
 41
0.12
 42
0.05
 43
0.5
 44
0.1
 45
0.0
 46
0.0
 47
0.1
 48
0.1
140
0.12
141
0.0
142
0.0
143
25.3999999999999986
144
1.0
145
0.0
146
0.71
147
0.06
 71
     0
 72
     0
 73
     1
 74
     1
 75
     0
 76
     0
 77
     0
 78
     7
170
     0
171
     2
172
     0
173
     0
174
     0
175
     0
176
   256
177
   256
178
     2
  0
DIMSTYLE
  2
AM_ANSI$SF
 70
     0
  3

  4
mm
  5

  6

  7

 40
1.0
 41
0.12
 42
0.05
 43
0.5
 44
0.1
 45
0.0
 46
0.0
 47
0.1
 48
0.1
140
0.12
141
0.0
142
0.0
143
25.3999999999999986
144
1.0
145
0.0
146
0.71
147
0.06
 71
     0
 72
     0
 73
     1
 74
     1
 75
     1
 76
     1
 77
     0
 78
     7
170
     0
171
     2
172
     0
173
     0
174
     0
175
     0
176
   256
177
   256
178
     2
  0
DIMSTYLE
  2
AM_ANSI$SH
 70
     0
  3

  4
mm
  5

  6

  7

 40
1.0
 41
0.12
 42
0.05
 43
0.5
 44
0.1
 45
0.0
 46
0.0
 47
0.1
 48
0.1
140
0.12
141
0.0
142
0.0
143
25.3999999999999986
144
1.0
145
0.0
146
0.71
147
0.06
 71
     0
 72
     0
 73
     1
 74
     1
 75
     1
 76
     1
 77
     0
 78
     7
170
     0
171
     2
172
     0
173
     1
174
     0
175
     0
176
   256
177
   256
178
     2
  0
ENDTAB
  0
ENDSEC
  0
SECTION
  2
BLOCKS
  0
BLOCK
  8
0
  2
$MODEL_SPACE
 70
     0
 10
0.0
 20
0.0
 30
0.0
  3
$MODEL_SPACE
  1

  0
ENDBLK
  5
1C
  8
0
  0
BLOCK
 67
     1
  8
0
  2
$PAPER_SPACE
 70
     0
 10
0.0
 20
0.0
 30
0.0
  3
$PAPER_SPACE
  1

  0
ENDBLK
  5
19
 67
     1
  8
0
  0
BLOCK
  8
0
  2
_OPEN
 70
     0
 10
0.0
 20
0.0
 30
0.0
  3
_OPEN
  1

  0
LINE
  5
595
  8
0
  6
BYBLOCK
 62
     0
 10
-1.0
 20
0.1666666666666666
 30
0.0
 11
0.0
 21
0.0
 31
0.0
  0
LINE
  5
596
  8
0
  6
BYBLOCK
 62
     0
 10
-1.0
 20
-0.1666666666666666
 30
0.0
 11
0.0
 21
0.0
 31
0.0
  0
LINE
  5
597
  8
0
  6
BYBLOCK
 62
     0
 10
0.0
 20
0.0
 30
0.0
 11
-1.0
 21
0.0
 31
0.0
  0
ENDBLK
  5
599
  8
0
  0
BLOCK
  8
0
  2
GENAXEH
 70
     0
 10
0.0
 20
0.0
 30
0.0
  3
GENAXEH
  1

  0
LINE
  5
6E8
  8
0
 10
-1.0
 20
0.0
 30
0.0
 11
1.0
 21
0.0
 31
0.0
  0
ENDBLK
  5
6EA
  8
0
  0
BLOCK
  8
0
  2
_OPEN30
 70
     0
 10
0.0
 20
0.0
 30
0.0
  3
_OPEN30
  1

  0
LINE
  5
E8F
  8
0
  6
BYBLOCK
 62
     0
 10
-1.0
 20
0.26794919
 30
0.0
 11
0.0
 21
0.0
 31
0.0
  0
LINE
  5
E90
  8
0
  6
BYBLOCK
 62
     0
 10
0.0
 20
0.0
 30
0.0
 11
-1.0
 21
-0.26794919
 31
0.0
  0
LINE
  5
E91
  8
0
  6
BYBLOCK
 62
     0
 10
0.0
 20
0.0
 30
0.0
 11
-1.0
 21
0.0
 31
0.0
  0
ENDBLK
  5
E93
  8
0
  0
BLOCK
  8
0
  2
_ACMOPEN15
 70
     0
 10
0.0
 20
0.0
 30
0.0
  3
_ACMOPEN15
  1

  0
LINE
  5
1359
  8
245
 62
     0
 10
-1.0
 20
0.0
 30
0.0
 11
0.0
 21
0.0
 31
0.0
  0
LINE
  5
135A
  8
245
 62
     0
 10
-1.0
 20
-0.131652497
 30
0.0
 11
0.0
 21
0.0
 31
0.0
  0
LINE
  5
135B
  8
245
 62
     0
 10
0.0
 20
0.0
 30
0.0
 11
-1.0
 21
0.131652497
 31
0.0
  0
ENDBLK
  5
1358
  8
0
  0
ENDSEC
  0
SECTION
  2
ENTITIES
  0
TEXT
  5
14A9
  8
241
  6
CONTINUOUS
 10
-70.0
 20
42.0
 30
0.0
 40
5.0
  1
SL19.05-MEGA ER16-40NL
  7
YOKO
  0
LINE
  5
1588
  8
240
  6
CONTINUOUS
 10
-8.8000000000008818
 20
9.8999999999995918
 30
0.0
 11
-8.7999999999992831
 21
-9.8999999999987214
 31
0.0
  0
LINE
  5
1589
  8
240
  6
CONTINUOUS
 10
-10.7052558883280398
 20
-11.00000000000027
 30
0.0
 11
-21.5690598923277008
 21
-10.9999999999999201
 31
0.0
  0
LINE
  5
158A
  8
240
  6
CONTINUOUS
 10
-27.9999999999998401
 20
-11.4999999999905302
 30
0.0
 11
-22.0886751346026386
 21
-11.5000000000020908
 31
0.0
  0
LINE
  5
158C
  8
241
  6
CONTINUOUS
 10
-23.8999999999995616
 20
-11.4999999999983693
 30
0.0
 11
-23.8999999999962185
 21
11.4999999999984901
 31
0.0
1001
GRPNAME
1000
PASTMD0T
  0
LINE
  5
158D
  8
241
  6
CONTINUOUS
 10
-22.7999999999997485
 20
-11.5000000000005596
 30
0.0
 11
-22.8000000000045908
 21
11.5000000000006501
 31
0.0
1001
GRPNAME
1000
PASTMD0T
  0
LINE
  5
158E
  8
242
  6
CONTINUOUS
 10
-19.8000000000000895
 20
-11.0000000000000497
 30
0.0
 11
-19.8000000000320888
 21
10.9999999999999396
 31
0.0
  0
LINE
  5
158F
  8
240
  6
CONTINUOUS
 10
-21.9154700538414886
 20
-11.19999999999993
 30
0.0
 11
-22.0886751346026386
 21
-11.5000000000020908
 31
0.0
  0
ARC
  5
1590
  8
240
  6
CONTINUOUS
 10
-21.5690598923277008
 20
-11.3999999999999098
 30
0.0
 40
0.4
 50
90.0
 51
150.0000000000003126
  0
LINE
  5
1591
  8
241
  6
CONTINUOUS
 10
-21.80000000000339
 20
-11.07340136762868
 30
0.0
 11
-21.80000000000339
 21
11.0734013676289003
 31
0.0
  0
LINE
  5
1592
  8
241
  6
CONTINUOUS
 10
-22.0886751345972385
 20
-11.4999999999913793
 30
0.0
 11
-22.0886751345923216
 21
11.5000000000020393
 31
0.0
  0
LINE
  5
1593
  8
242
  6
CONTINUOUS
 10
-19.8000000000012193
 20
-10.2500000000000497
 30
0.0
 11
-9.4062177826518187
 21
-10.2500000000004192
 31
0.0
  0
LINE
  5
1594
  8
240
  6
CONTINUOUS
 10
-8.7999999999992831
 20
-9.8999999999987214
 30
0.0
 11
-10.7052558883280398
 21
-11.00000000000027
 31
0.0
  0
LINE
  5
1595
  8
241
  6
CONTINUOUS
 10
-10.7052558883265405
 20
-10.9817165220009105
 30
0.0
 11
-10.7052558883264908
 21
11.0000000000002203
 31
0.0
  0
LINE
  5
1597
  8
240
  6
CONTINUOUS
 10
-10.7052558883280398
 20
11.0000000000002203
 30
0.0
 11
-21.5690598923277008
 21
10.9999999999998703
 31
0.0
  0
LINE
  5
1598
  8
240
  6
CONTINUOUS
 10
-27.9999999999999005
 20
11.4999999999904805
 30
0.0
 11
-22.0886751346026386
 21
11.5000000000020393
 31
0.0
  0
LINE
  5
159A
  8
240
  6
CONTINUOUS
 10
-21.9154700538414886
 20
11.1999999999998696
 30
0.0
 11
-22.0886751346026386
 21
11.5000000000020393
 31
0.0
  0
ARC
  5
159B
  8
240
  6
CONTINUOUS
 10
-21.5690598923277008
 20
11.39999999999986
 30
0.0
 40
0.4
 50
209.9999999999996021
 51
270.0
  0
LINE
  5
159C
  8
242
  6
CONTINUOUS
 10
-19.8000000000012193
 20
10.25
 30
0.0
 11
-9.4062177826518187
 21
10.2500000000003695
 31
0.0
  0
LINE
  5
159D
  8
240
  6
CONTINUOUS
 10
-8.8000000000008818
 20
9.8999999999995918
 30
0.0
 11
-10.7052558883280398
 21
11.0000000000002203
 31
0.0
  0
LINE
  5
159E
  8
246
  6
PHANTOM2
 10
-0.0000000000000249
 20
-15.0000000000000195
 30
0.0
 11
0.0000000000000249
 21
14.9999999999999698
 31
0.0
1001
GRPNAME
1000
PASTMD01
  0
LINE
  5
159F
  8
246
  6
PHANTOM2
 10
-0.0000000000000249
 20
-15.0000000000000195
 30
0.0
 11
-24.9999999999999787
 21
-14.9999999999999307
 31
0.0
  0
LINE
  5
15A0
  8
246
  6
PHANTOM2
 10
0.0000000000000249
 20
14.9999999999999698
 30
0.0
 11
-24.9999999999999787
 21
15.0000000000000409
 31
0.0
  0
LINE
  5
15A1
  8
250
  6
CONTINUOUS
 10
0.4999999999999539
 20
-15.0000000000000195
 30
0.0
 11
11.0000000000000693
 21
-15.0000000000000195
 31
0.0
  0
LINE
  5
15A2
  8
250
  6
CONTINUOUS
 10
0.5000000000000391
 20
14.9999999999999698
 30
0.0
 11
11.0000000000000693
 21
14.9999999999999698
 31
0.0
  0
LINE
  5
15A3
  8
250
  6
CONTINUOUS
 10
10.0000000000000693
 20
-13.0000000000000195
 30
0.0
 11
10.0000000000000693
 21
12.9999999999999698
 31
0.0
  0
INSERT
  5
15A4
  8
250
  6
CONTINUOUS
  2
_OPEN
 10
10.0000000000000693
 20
-15.0000000000000195
 30
0.0
 41
2.0
 42
2.0
 43
2.0
 50
270.0
  0
INSERT
  5
15A5
  8
250
  6
CONTINUOUS
  2
_OPEN
 10
10.0000000000000693
 20
14.9999999999999698
 30
0.0
 41
2.0
 42
2.0
 43
2.0
 50
90.0
  0
LINE
  5
15A6
  8
243
  6
HIDDEN2
 10
-27.3000000000005514
 20
5.6500167029413433
 30
0.0
 11
-8.8000000000007397
 21
8.2500221449357412
 31
0.0
  0
LINE
  5
15A7
  8
243
  6
HIDDEN2
 10
-27.3000000000005514
 20
-5.6500167029413939
 30
0.0
 11
-8.8000000000007397
 21
-8.2500221449357962
 31
0.0
  0
TEXT
  5
15A8
  8
250
  6
CONTINUOUS
 10
8.7412022101234061
 20
-6.734711546900324
 30
0.0
 40
2.799999999999998
  1
\U+2205
 50
90.0
  0
TEXT
  5
15A9
  8
250
  6
CONTINUOUS
 10
8.7412022101234061
 20
-4.2013782135669899
 30
0.0
 40
2.799999999999998
  1
1.181
 50
90.0
  0
LINE
  5
15C7
  8
240
  6
CONTINUOUS
 10
-58.975000000000918
 20
9.5250000000004391
 30
0.0
 11
-27.9999999999999005
 21
9.5250000000003805
 31
0.0
  0
LINE
  5
15C8
  8
240
  6
CONTINUOUS
 10
-27.9999999999999005
 20
11.4999999999904805
 30
0.0
 11
-27.9999999999999005
 21
9.5250000000003805
 31
0.0
  0
LINE
  5
15C9
  8
240
  6
CONTINUOUS
 10
-67.9999999999998437
 20
-8.1999999999971944
 30
0.0
 11
-67.9999999999998437
 21
8.1999999999793332
 31
0.0
  0
LINE
  5
15CA
  8
240
  6
CONTINUOUS
 10
-59.9999999999999218
 20
8.5000000000004636
 30
0.0
 11
-67.6999999999996902
 21
8.5000000000008047
 31
0.0
  0
LINE
  5
15CC
  8
240
  6
CONTINUOUS
 10
-67.6999999999996902
 20
8.5000000000008047
 30
0.0
 11
-67.9999999999997016
 21
8.2000000000007933
 31
0.0
  0
LINE
  5
15CD
  8
240
  6
CONTINUOUS
 10
-59.9999999999999218
 20
8.5000000000004636
 30
0.0
 11
-58.9749999999999517
 21
9.5250000000004693
 31
0.0
  0
LINE
  5
15CE
  8
240
  6
CONTINUOUS
 10
-59.9999999999999218
 20
-8.4999999999995364
 30
0.0
 11
-67.7000000000000028
 21
-8.4999999999998774
 31
0.0
  0
LINE
  5
15CF
  8
240
  6
CONTINUOUS
 10
-67.7000000000000028
 20
-8.4999999999998774
 30
0.0
 11
-68.0000000000000142
 21
-8.1999999999998661
 31
0.0
  0
LINE
  5
15D1
  8
240
  6
CONTINUOUS
 10
-59.9999999999999218
 20
-8.4999999999995364
 30
0.0
 11
-58.9749999999999517
 21
-9.5249999999995421
 31
0.0
  0
LINE
  5
15D2
  8
240
  6
CONTINUOUS
 10
-58.9749999999971095
 20
-9.5249999999995136
 30
0.0
 11
-27.9999999999998508
 21
-9.5249999999995421
 31
0.0
  0
LINE
  5
169C
  8
241
  6
CONTINUOUS
 10
-27.9999999999999005
 20
9.5250000000003805
 30
0.0
 11
-27.9999999999998508
 21
-9.5249999999995438
 31
0.0
  0
LINE
  5
169D
  8
240
  6
CONTINUOUS
 10
-27.9999999999998508
 20
-9.5249999999995438
 30
0.0
 11
-27.9999999999998401
 21
-11.4999999999905302
 31
0.0
  0
LINE
  5
16BE
  8
247
  6
CONTINUOUS
 10
-61.2500000000698392
 20
-6.0000000000089289
 30
0.0
 11
-54.5576923080298428
 21
-6.0000000000089289
 31
0.0
  0
ARC
  5
16BF
  8
247
  6
CONTINUOUS
 10
-61.2500000000698392
 20
-4.2500000000789599
 30
0.0
 40
1.7499999999299991
 50
90.0
 51
270.0
  0
ARC
  5
16C0
  8
247
  6
CONTINUOUS
 10
-54.5576923080298428
 20
-4.2500000000789599
 30
0.0
 40
1.7499999999299991
 50
270.0
 51
90.0
  0
LINE
  5
16C1
  8
247
  6
CONTINUOUS
 10
-60.3846153847198508
 20
-2.500000000148991
 30
0.0
 11
-61.2448515419618502
 21
-5.500000000028936
 31
0.0
  0
LINE
  5
16C2
  8
247
  6
CONTINUOUS
 10
-59.4849838183356567
 20
-3.9230769231688249
 30
0.0
 11
-60.7926761259756603
 21
-3.9230769231688249
 31
0.0
  0
ARC
  5
16C3
  8
247
  6
CONTINUOUS
 10
-59.1451438160896288
 20
-3.0495986677117939
 30
0.0
 40
0.5538165441895349
 50
342.9978896752954256
 51
82.9241662185127524
  0
ARC
  5
16C4
  8
247
  6
CONTINUOUS
 10
-59.5668783230286323
 20
-2.9360330444747582
 30
0.0
 40
0.9904354236226808
 50
274.7429368522014101
 51
343.8492262732664813
1001
GENIUS_GENOBJ-N-FIL_13
1002
{
1000
OWNER
1000
GEN
1002
}
1001
GENIUS_GENODEF_13
1002
{
1000
HIER
1070
     0
1002
}
1002
{
1000
MANEDIT
1070
     0
1002
}
1002
{
1000
NOSEL
1070
     0
1002
}
1002
{
1000
BEHIND
1070
     0
1002
}
1002
{
1000
OTHER
1070
     0
1002
}
1002
{
1000
REACTOR
1002
}
  0
LINE
  5
16C5
  8
247
  6
CONTINUOUS
 10
-59.9371592343218467
 20
-5.500000000028936
 30
0.0
 11
-61.2448515419618502
 21
-5.500000000028936
 31
0.0
  0
LINE
  5
16C6
  8
247
  6
CONTINUOUS
 10
-60.3846153847198508
 20
-2.500000000148991
 30
0.0
 11
-59.0769230770798401
 21
-2.500000000148991
 31
0.0
  0
ARC
  5
16C7
  8
247
  6
CONTINUOUS
 10
-59.5609196365468208
 20
-4.4820242326744077
 30
0.0
 40
0.5640818586791229
 50
335.9909416525217125
 51
82.263443459069066
  0
ARC
  5
16C8
  8
247
  6
CONTINUOUS
 10
-60.0382626853469077
 20
-4.4874290391954359
 30
0.0
 40
1.0176059446230981
 50
275.7019851642580761
 51
347.2773384368222764
1001
GENIUS_GENOBJ-N-FIL_13
1002
{
1000
OWNER
1000
GEN
1002
}
1001
GENIUS_GENODEF_13
1002
{
1000
HIER
1070
     0
1002
}
1002
{
1000
MANEDIT
1070
     0
1002
}
1002
{
1000
NOSEL
1070
     0
1002
}
1002
{
1000
BEHIND
1070
     0
1002
}
1002
{
1000
OTHER
1070
     0
1002
}
1002
{
1000
REACTOR
1002
}
  0
LINE
  5
16C9
  8
247
  6
CONTINUOUS
 10
-58.283313080541852
 20
-5.500000000028936
 30
0.0
 11
-57.4230769232998526
 21
-2.500000000148991
 31
0.0
  0
LINE
  5
16CA
  8
247
  6
CONTINUOUS
 10
-55.0000000003198508
 20
-2.500000000148991
 30
0.0
 11
-55.5657366194564517
 21
-2.500000000148991
 31
0.0
  0
LINE
  5
16CB
  8
247
  6
CONTINUOUS
 10
-56.461538461799833
 20
-5.500000000028936
 30
0.0
 11
-55.8461538464398473
 21
-5.500000000028936
 31
0.0
  0
ARC
  5
16CC
  8
247
  6
CONTINUOUS
 10
-54.7087912091227224
 20
-4.5832851359822966
 30
0.0
 40
2.2526500823422122
 50
112.3594881415302069
 51
164.9932485428460041
  0
ARC
  5
16CD
  8
247
  6
CONTINUOUS
 10
-55.3740694792130768
 20
-3.3083126552035682
 30
0.0
 40
0.8906723995727782
 50
4.9945893190753781
 51
65.1663289573004931
1001
GENIUS_GENOBJ-N-FIL_13
1002
{
1000
OWNER
1000
GEN
1002
}
1001
GENIUS_GENODEF_13
1002
{
1000
HIER
1070
     0
1002
}
1002
{
1000
MANEDIT
1070
     0
1002
}
1002
{
1000
NOSEL
1070
     0
1002
}
1002
{
1000
BEHIND
1070
     0
1002
}
1002
{
1000
OTHER
1070
     0
1002
}
1002
{
1000
REACTOR
1002
}
  0
ARC
  5
16CE
  8
247
  6
CONTINUOUS
 10
-56.2264588862124199
 20
-4.1601458886767118
 30
0.0
 40
1.392781735586712
 50
285.8460965557807185
 51
352.3251370041625137
  0
ARC
  5
16CF
  8
247
  6
CONTINUOUS
 10
-55.6422127258402028
 20
-4.4592434315362119
 30
0.0
 40
1.324563662670287
 50
159.7136016704901067
 51
231.7887456564120896
1001
GENIUS_GENOBJ-N-FIL_13
1002
{
1000
OWNER
1000
GEN
1002
}
1001
GENIUS_GENODEF_13
1002
{
1000
HIER
1070
     0
1002
}
1002
{
1000
MANEDIT
1070
     0
1002
}
1002
{
1000
NOSEL
1070
     0
1002
}
1002
{
1000
BEHIND
1070
     0
1002
}
1002
{
1000
OTHER
1070
     0
1002
}
1002
{
1000
REACTOR
1002
}
  0
LINE
  5
16D0
  8
247
  6
CONTINUOUS
 10
-55.5384615387598402
 20
-4.3461538462289049
 30
0.0
 11
-54.8461538464798579
 21
-4.3461538462289049
 31
0.0
  0
LINE
  5
16D1
  8
247
  6
CONTINUOUS
 10
-61.2500000000698819
 20
-2.500000000148991
 30
0.0
 11
-60.576923077019913
 21
-2.500000000148991
 31
0.0
  0
LINE
  5
16E5
  8
250
  6
CONTINUOUS
 10
-59.4749999999999517
 20
9.5250000000093724
 30
0.0
 11
-83.5016183402265852
 21
9.5250000000093795
 31
0.0
  0
LINE
  5
16E6
  8
250
  6
CONTINUOUS
 10
-59.4749999999971095
 20
-9.5249999999906105
 30
0.0
 11
-83.5016183402265852
 21
-9.5249999999906034
 31
0.0
  0
LINE
  5
16E7
  8
250
  6
CONTINUOUS
 10
-82.5016183402265852
 20
7.2950000000093791
 30
0.0
 11
-82.5016183402265852
 21
-7.294999999990603
 31
0.0
  0
LINE
  5
16E8
  8
250
  6
CONTINUOUS
 10
-82.8732850068932549
 20
7.2950000000093791
 30
0.0
 11
-82.5016183402265852
 21
9.5250000000093795
 31
0.0
  0
LINE
  5
16E9
  8
250
  6
CONTINUOUS
 10
-82.1299516735599155
 20
7.2950000000093791
 30
0.0
 11
-82.5016183402265852
 21
9.5250000000093795
 31
0.0
  0
LINE
  5
16EA
  8
250
  6
CONTINUOUS
 10
-82.5016183402265852
 20
9.5250000000093795
 30
0.0
 11
-82.5016183402265852
 21
7.2950000000093791
 31
0.0
  0
LINE
  5
16EB
  8
250
  6
CONTINUOUS
 10
-82.1299516735599155
 20
-7.294999999990603
 30
0.0
 11
-82.5016183402265852
 21
-9.5249999999906034
 31
0.0
  0
LINE
  5
16EC
  8
250
  6
CONTINUOUS
 10
-82.8732850068932549
 20
-7.294999999990603
 30
0.0
 11
-82.5016183402265852
 21
-9.5249999999906034
 31
0.0
  0
LINE
  5
16ED
  8
250
  6
CONTINUOUS
 10
-82.5016183402265852
 20
-9.5249999999906034
 30
0.0
 11
-82.5016183402265852
 21
-7.294999999990603
 31
0.0
  0
TEXT
  5
16EE
  8
250
  6
CONTINUOUS
 10
-83.5016183402265852
 20
-7.1333333333239537
 30
0.0
 40
2.7999999999999989
  1
\U+2205.750
 50
90.0
  0
LINE
  5
18AB
  8
245
  6
CENTER2
 10
-70.5016173402265736
 20
0.0000000000005063
 30
0.0
 11
-6.109057670050916
 21
0.0000000000004778
 31
0.0
  0
LINE
  5
18AC
  8
250
  6
CONTINUOUS
 10
-67.9999999999998437
 20
8.6999999999793332
 30
0.0
 11
-67.9999999999998437
 21
29.0
 31
0.0
  0
LINE
  5
18AD
  8
250
  6
CONTINUOUS
 10
-27.9999999999999005
 20
11.9999999999904805
 30
0.0
 11
-27.9999999999999005
 21
29.0
 31
0.0
  0
LINE
  5
18AE
  8
250
  6
CONTINUOUS
 10
-65.7699999999998255
 20
28.0
 30
0.0
 11
-30.229999999999901
 21
28.0
 31
0.0
  0
LINE
  5
18B2
  8
250
  6
CONTINUOUS
 10
-27.9999999999999005
 20
11.9999999999904805
 30
0.0
 11
-27.9999999999999005
 21
29.0
 31
0.0
  0
LINE
  5
18B3
  8
250
  6
CONTINUOUS
 10
0.0
 20
15.4999999999999698
 30
0.0
 11
0.0000000000000009
 21
29.0
 31
0.0
  0
LINE
  5
18B4
  8
250
  6
CONTINUOUS
 10
-25.7699999999999001
 20
28.0
 30
0.0
 11
-2.2299999999999991
 21
28.0
 31
0.0
  0
LINE
  5
18B8
  8
250
  6
CONTINUOUS
 10
-65.7699999999998255
 20
27.6283333333333303
 30
0.0
 11
-67.9999999999998437
 21
28.0
 31
0.0
  0
LINE
  5
18B9
  8
250
  6
CONTINUOUS
 10
-65.7699999999998255
 20
28.371666666666659
 30
0.0
 11
-67.9999999999998437
 21
28.0
 31
0.0
  0
LINE
  5
18BA
  8
250
  6
CONTINUOUS
 10
-67.9999999999998437
 20
28.0
 30
0.0
 11
-65.7699999999998255
 21
28.0
 31
0.0
  0
LINE
  5
18BB
  8
250
  6
CONTINUOUS
 10
-30.229999999999901
 20
28.371666666666659
 30
0.0
 11
-27.9999999999999005
 21
28.0
 31
0.0
  0
LINE
  5
18BC
  8
250
  6
CONTINUOUS
 10
-30.229999999999901
 20
27.6283333333333303
 30
0.0
 11
-27.9999999999999005
 21
28.0
 31
0.0
  0
LINE
  5
18BD
  8
250
  6
CONTINUOUS
 10
-27.9999999999999005
 20
28.0
 30
0.0
 11
-30.229999999999901
 21
28.0
 31
0.0
  0
TEXT
  5
18BE
  8
250
  6
CONTINUOUS
 10
-18.866666666666621
 20
29.0
 30
0.0
 40
2.7999999999999989
  1
1.10
  0
LINE
  5
18BF
  8
250
  6
CONTINUOUS
 10
-2.2299999999999991
 20
28.371666666666659
 30
0.0
 11
0.0000000000000008
 21
28.0
 31
0.0
  0
LINE
  5
18C0
  8
250
  6
CONTINUOUS
 10
-2.2299999999999991
 20
27.6283333333333303
 30
0.0
 11
0.0000000000000008
 21
28.0
 31
0.0
  0
LINE
  5
18C1
  8
250
  6
CONTINUOUS
 10
0.0000000000000008
 20
28.0
 30
0.0
 11
-2.2299999999999991
 21
28.0
 31
0.0
  0
LINE
  5
18C2
  8
250
  6
CONTINUOUS
 10
-25.7699999999999001
 20
27.6283333333333303
 30
0.0
 11
-27.9999999999999005
 21
28.0
 31
0.0
  0
LINE
  5
18C3
  8
250
  6
CONTINUOUS
 10
-25.7699999999999001
 20
28.371666666666659
 30
0.0
 11
-27.9999999999999005
 21
28.0
 31
0.0
  0
LINE
  5
18C4
  8
250
  6
CONTINUOUS
 10
-27.9999999999999005
 20
28.0
 30
0.0
 11
-25.7699999999999001
 21
28.0
 31
0.0
  0
TEXT
  5
18C5
  8
250
  6
CONTINUOUS
 10
-52.8666666666665321
 20
29.0
 30
0.0
 40
2.7999999999999989
  1
1.57
  0
VIEWPORT
  5
22
 67
     1
  8
0
 10
261.517699115044195
 20
148.5
 30
0.0
 40
523.0353982300885036
 41
297.0
 68
     1
 69
     1
1001
ACAD
1000
MVIEW
1002
{
1070
    16
1010
0.0
1020
0.0
1030
0.0
1010
0.0
1020
0.0
1030
1.0
1040
0.0
1040
297.0
1040
261.517699115044195
1040
148.5
1040
50.0
1040
0.0
1040
0.0
1070
     0
1070
   100
1070
     1
1070
     1
1070
     0
1070
     0
1070
     0
1070
     0
1040
0.0
1040
0.0
1040
0.0
1040
1.0
1040
1.0
1040
10.0
1040
10.0
1070
     0
1002
{
1002
}
1002
}
1001
GENIUS_GENODEF_13
1002
{
1000
HIER
1070
     0
1002
}
1002
{
1000
MANEDIT
1070
     0
1002
}
1002
{
1000
NOSEL
1070
     0
1002
}
1002
{
1000
BEHIND
1070
     0
1002
}
1002
{
1000
OTHER
1070
     0
1002
}
1002
{
1000
REACTOR
1002
}
1001
GENIUS_GENOBJ-N-SDF_13
1002
{
1000
OWNER
1000
GEN
1002
}
1001
GENIUS_GENSCREG_15
1000
PF
1040
1.0
1000
DF
1040
1.0
1000
MIN
1011
0.0
1021
0.0
1031
0.0
1021
0.0
1031
0.0
1000
MAX
1011
523.0353982300885036
1021
0.0
1031
0.0
1021
297.0
1031
0.0
1000
FLAGS
1070
     4
  0
ENDSEC
  0
EOF
