  0
SECTION
  2
HEADER
  9
$ACADVER
  1
AC1009
  9
$INSBASE
 10
0.0
 20
0.0
 30
0.0
  9
$EXTMIN
 10
-4.3288546812577788
 20
-30.000000000000021
 30
0.0
  9
$EXTMAX
 10
232.0
 20
68.000000000000014
 30
0.0
  9
$LIMMIN
 10
0.0
 20
0.0
  9
$LIMMAX
 10
297.0
 20
210.0
  9
$ORTHOMODE
 70
     1
  9
$REGENMODE
 70
     1
  9
$FILLMODE
 70
     1
  9
$QTEXTMODE
 70
     0
  9
$MIRRTEXT
 70
     1
  9
$DRAGMODE
 70
     2
  9
$LTSCALE
 40
10.0
  9
$OSMODE
 70
    39
  9
$ATTMODE
 70
     1
  9
$TEXTSIZE
 40
3.0
  9
$TRACEWID
 40
1.0
  9
$TEXTSTYLE
  7
YOKO
  9
$CLAYER
  8
240
  9
$CELTYPE
  6
BYLAYER
  9
$CECOLOR
 62
   256
  9
$DIMSCALE
 40
1.0
  9
$DIMASZ
 40
2.2299999999999991
  9
$DIMEXO
 40
0.5
  9
$DIMDLI
 40
7.0
  9
$DIMRND
 40
0.0
  9
$DIMDLE
 40
0.0
  9
$DIMEXE
 40
1.0
  9
$DIMTP
 40
0.0
  9
$DIMTM
 40
0.01
  9
$DIMTXT
 40
2.799999999999998
  9
$DIMCEN
 40
0.0
  9
$DIMTSZ
 40
0.0
  9
$DIMTOL
 70
     0
  9
$DIMLIM
 70
     0
  9
$DIMTIH
 70
     0
  9
$DIMTOH
 70
     0
  9
$DIMSE1
 70
     0
  9
$DIMSE2
 70
     0
  9
$DIMTAD
 70
     3
  9
$DIMZIN
 70
     9
  9
$DIMBLK
  1
OPEN
  9
$DIMASO
 70
     1
  9
$DIMSHO
 70
     1
  9
$DIMPOST
  1

  9
$DIMAPOST
  1

  9
$DIMALT
 70
     0
  9
$DIMALTD
 70
     2
  9
$DIMALTF
 40
25.399999999999999
  9
$DIMLFAC
 40
1.0
  9
$DIMTOFL
 70
     1
  9
$DIMTVP
 40
0.0
  9
$DIMTIX
 70
     1
  9
$DIMSOXD
 70
     0
  9
$DIMSAH
 70
     0
  9
$DIMBLK1
  1

  9
$DIMBLK2
  1

  9
$DIMSTYLE
  2
BIGT
  9
$DIMCLRD
 70
   256
  9
$DIMCLRE
 70
   256
  9
$DIMCLRT
 70
    40
  9
$DIMTFAC
 40
1.0
  9
$DIMGAP
 40
1.0
  9
$LUNITS
 70
     2
  9
$LUPREC
 70
     3
  9
$SKETCHINC
 40
1.0
  9
$FILLETRAD
 40
0.0
  9
$AUNITS
 70
     0
  9
$AUPREC
 70
     3
  9
$MENU
  1
.
  9
$ELEVATION
 40
0.0
  9
$PELEVATION
 40
0.0
  9
$THICKNESS
 40
0.0
  9
$LIMCHECK
 70
     0
  9
$BLIPMODE
 70
     0
  9
$CHAMFERA
 40
0.25
  9
$CHAMFERB
 40
0.25
  9
$SKPOLY
 70
     0
  9
$TDCREATE
 40
2456582.6869804049
  9
$TDUPDATE
 40
2456582.69668588
  9
$TDINDWG
 40
0.0095226389
  9
$TDUSRTIMER
 40
0.0095226389
  9
$USRTIMER
 70
     1
  9
$ANGBASE
 50
0.0
  9
$ANGDIR
 70
     0
  9
$PDMODE
 70
     1
  9
$PDSIZE
 40
0.0
  9
$PLINEWID
 40
0.0
  9
$COORDS
 70
     2
  9
$SPLFRAME
 70
     0
  9
$SPLINETYPE
 70
     6
  9
$SPLINESEGS
 70
     4
  9
$ATTDIA
 70
     1
  9
$ATTREQ
 70
     1
  9
$HANDLING
 70
     1
  9
$HANDSEED
  5
2223
  9
$SURFTAB1
 70
     6
  9
$SURFTAB2
 70
     6
  9
$SURFTYPE
 70
     6
  9
$SURFU
 70
     6
  9
$SURFV
 70
     6
  9
$UCSNAME
  2

  9
$UCSORG
 10
0.0
 20
0.0
 30
0.0
  9
$UCSXDIR
 10
1.0
 20
0.0
 30
0.0
  9
$UCSYDIR
 10
0.0
 20
1.0
 30
0.0
  9
$PUCSNAME
  2

  9
$PUCSORG
 10
0.0
 20
0.0
 30
0.0
  9
$PUCSXDIR
 10
1.0
 20
0.0
 30
0.0
  9
$PUCSYDIR
 10
0.0
 20
1.0
 30
0.0
  9
$USERI1
 70
     1
  9
$USERI2
 70
     0
  9
$USERI3
 70
     0
  9
$USERI4
 70
     0
  9
$USERI5
 70
     0
  9
$USERR1
 40
0.0
  9
$USERR2
 40
0.0
  9
$USERR3
 40
0.0
  9
$USERR4
 40
0.0
  9
$USERR5
 40
0.0
  9
$WORLDVIEW
 70
     1
  9
$SHADEDGE
 70
     3
  9
$SHADEDIF
 70
    70
  9
$TILEMODE
 70
     1
  9
$MAXACTVP
 70
    16
  9
$PLIMCHECK
 70
     0
  9
$PEXTMIN
 10
1.0000000000000000E+020
 20
1.0000000000000000E+020
 30
1.0000000000000000E+020
  9
$PEXTMAX
 10
-1.0000000000000000E+020
 20
-1.0000000000000000E+020
 30
-1.0000000000000000E+020
  9
$PLIMMIN
 10
0.0
 20
0.0
  9
$PLIMMAX
 10
420.0
 20
297.0
  9
$UNITMODE
 70
     0
  9
$VISRETAIN
 70
     1
  9
$PLINEGEN
 70
     0
  9
$PSLTSCALE
 70
     1
  0
ENDSEC
  0
SECTION
  2
TABLES
  0
TABLE
  2
VPORT
 70
     3
  0
VPORT
  2
*ACTIVE
 70
     0
 10
0.0
 20
0.0
 11
1.0
 21
1.0
 12
113.8425986125862
 22
18.9953617169468
 13
0.0
 23
0.0
 14
7.0
 24
7.0
 15
7.0
 25
7.0
 16
0.0
 26
0.0
 36
1.0
 17
0.0
 27
0.0
 37
0.0
 40
164.34911937145679
 41
1.444687842278203
 42
50.0
 43
0.0
 44
0.0
 50
0.0
 51
0.0
 71
     0
 72
  2000
 73
     1
 74
     0
 75
     0
 76
     0
 77
     0
 78
     0
  0
ENDTAB
  0
TABLE
  2
LTYPE
 70
    21
  0
LTYPE
  2
CONTINUOUS
 70
     0
  3
Solid line
 72
    65
 73
     0
 40
0.0
  0
LTYPE
  2
CENTER2
 70
     0
  3
___ _ ___ _ ___ _ ___ _ ___ _ ___ _ ___ _ ___ _
 72
    65
 73
     4
 40
1.125
 49
0.75
 49
-0.125
 49
0.125
 49
-0.125
  0
LTYPE
  2
HIDDEN2
 70
     0
  3
_ _ _ _ _ _ _ _ _ _ _ _ _ _ _ _ _ _ _ _ _ _ _ _
 72
    65
 73
     2
 40
0.1875
 49
0.125
 49
-0.0625
  0
LTYPE
  2
PHANTOM2
 70
     0
  3
___ _ _ ___ _ _ ___ _ _ ___ _ _ ___ _ _ ___ _ _
 72
    65
 73
     6
 40
1.25
 49
0.625
 49
-0.125
 49
0.125
 49
-0.125
 49
0.125
 49
-0.125
  0
LTYPE
  2
CENTER
 70
     0
  3
____ _ ____ _ ____ _ ____ _ ____ _ ____ _ ____ 
 72
    65
 73
     4
 40
2.0
 49
1.25
 49
-0.25
 49
0.25
 49
-0.25
  0
LTYPE
  2
AMCONSTR
 70
     0
  3
_______________________
 72
    65
 73
     2
 40
9999.0
 49
9999.0
 49
0.0
  0
LTYPE
  2
HIDDEN
 70
     0
  3
Hidden __ __ __ __ __ __ __ __ __ __ __ __ __ _
 72
    65
 73
     2
 40
9.5249999999999986
 49
6.3499999999999979
 49
-3.174999999999998
  0
LTYPE
  2
AMZIGZAG2
 70
     0
  3
/\/-/\/-/\/-/\/-/\/-/\/
 72
    65
 73
     2
 40
0.4401
 49
0.0001
 49
-0.4400000000000001
  0
LTYPE
  2
ACANSTGB
 70
     0
  3
__ . . __ . .
 72
    65
 73
     6
 40
0.35433070866
 49
0.15748031496
 49
-0.03937007874
 49
0.03937007874
 49
-0.03937007874
 49
0.03937007874
 49
-0.03937007874
  0
LTYPE
  2
ACANSTGL
 70
     0
  3
_ _ _ _ _
 72
    65
 73
     2
 40
0.11811023622
 49
0.07874015748
 49
-0.03937007874
  0
ENDTAB
  0
TABLE
  2
LAYER
 70
     9
  0
LAYER
  2
0
 70
     0
 62
     7
  6
CONTINUOUS
  0
LAYER
  2
240
 70
     0
 62
     4
  6
CONTINUOUS
  0
LAYER
  2
DEFPOINTS
 70
     0
 62
     7
  6
CONTINUOUS
  0
LAYER
  2
245
 70
     0
 62
     2
  6
CENTER2
  0
LAYER
  2
241
 70
     0
 62
   211
  6
CONTINUOUS
  0
LAYER
  2
242
 70
     0
 62
     3
  6
CONTINUOUS
  0
LAYER
  2
243
 70
     0
 62
   211
  6
HIDDEN2
  0
LAYER
  2
244
 70
     0
 62
     3
  6
HIDDEN2
  0
LAYER
  2
250
 70
     0
 62
     3
  6
CONTINUOUS
  0
ENDTAB
  0
TABLE
  2
STYLE
 70
     9
  0
STYLE
  2
STANDARD
 70
     0
 40
0.0
 41
1.0
 50
0.0
 71
     0
 42
3.0
  3
romans.shx
  4
extfont.shx
  0
STYLE
  2
YOKO
 70
     0
 40
0.0
 41
1.0
 50
0.0
 71
     0
 42
3.0
  3
romans.shx
  4
extfont.shx
  0
STYLE
  2

 70
     1
 40
0.0
 41
1.0
 50
0.0
 71
     0
 42
3.0
  3
ltypeshp.shx
  4

  0
STYLE
  2
ACANSTS
 70
     0
 40
1.0
 41
1.0
 50
0.0
 71
     0
 42
3.0
  3
romans.shx
  4
extfont.shx
  0
STYLE
  2
ACANSGDT
 70
     0
 40
0.0
 41
1.0
 50
0.0
 71
     0
 42
3.0
  3
amgdtans.shx
  4

  0
ENDTAB
  0
TABLE
  2
VIEW
 70
     0
  0
ENDTAB
  0
TABLE
  2
UCS
 70
     0
  0
ENDTAB
  0
TABLE
  2
APPID
 70
    30
  0
APPID
  2
ACAD
 70
     0
  0
APPID
  2
GLOBAL
 70
     0
  0
APPID
  2
DETAIL
 70
     0
  0
APPID
  2
GRPNAME
 70
     0
  0
APPID
  2
GPARA
 70
     0
  0
APPID
  2
MCAD_NO_VIS
 70
     0
  0
APPID
  2
ACAD_TEMP_GRAPHIC
 70
     0
  0
APPID
  2
ACATTRIBSERVICES
 70
     0
  0
APPID
  2
GENIUS_GENSCREG_15
 70
     0
  0
APPID
  2
GENIUS_GENODEF_13
 70
     0
  0
APPID
  2
GENIUS_GENOBJ-N-SDF_13
 70
     0
  0
APPID
  2
GENIUS_GENREC_14
 70
     0
  0
APPID
  2
GENIUS_GENOBJ-N-REC_13
 70
     0
  0
APPID
  2
GENIUS_GENDIMSH_14
 70
     0
  0
APPID
  2
GENIUS_GENOBJ-N-DIM_13
 70
     0
  0
APPID
  2
GENIUS_GENDIM_13
 70
     0
  0
APPID
  2
GENIUS_GENDTOL_13
 70
     0
  0
APPID
  2
GENIUS_GENOLIS_13
 70
     0
  0
APPID
  2
GENIUS_GENOENT_13
 70
     0
  0
APPID
  2
GENIUS_GENOBJ-F-FEM_13
 70
     0
  0
APPID
  2
GENIUS_GENOREF_13
 70
     0
  0
APPID
  2
GENIUS_GEFFEM_13
 70
     0
  0
APPID
  2
GENIUS_GEFFEMP_13
 70
     0
  0
APPID
  2
AD_DRAW
 70
     0
  0
APPID
  2
DESIGNERASSEMBLIES
 70
     0
  0
APPID
  2
ACADM_DIM_EDIT
 70
     0
  0
APPID
  2
AMDT_DM_ADJ
 70
     0
  0
APPID
  2
ACAD_PSEXT
 70
     0
  0
APPID
  2
ASK_MEN_XD
 70
     0
  0
APPID
  2
ASKLEADERCHILD
 70
     0
  0
ENDTAB
  0
TABLE
  2
DIMSTYLE
 70
    29
  0
DIMSTYLE
  2
BIGT
 70
     0
  3

  4

  5

  6

  7

 40
1.0
 41
2.2299999999999991
 42
0.5
 43
7.0
 44
1.0
 45
0.0
 46
0.0
 47
0.0
 48
0.01
140
2.799999999999998
141
0.0
142
0.0
143
25.399999999999999
144
1.0
145
0.0
146
1.0
147
1.0
 71
     0
 72
     0
 73
     0
 74
     0
 75
     0
 76
     0
 77
     3
 78
     9
170
     0
171
     2
172
     1
173
     0
174
     1
175
     0
176
   256
177
   256
178
    40
  0
DIMSTYLE
  2
AM_ANSI
 70
     0
  3

  4
mm
  5

  6

  7

 40
1.0
 41
0.1
 42
0.05
 43
0.5
 44
0.1
 45
0.0
 46
0.0
 47
0.1
 48
0.1
140
0.12
141
0.0
142
0.0
143
25.399999999999999
144
1.0
145
0.0
146
0.71
147
0.06
 71
     0
 72
     0
 73
     1
 74
     1
 75
     0
 76
     0
 77
     0
 78
     7
170
     0
171
     2
172
     0
173
     0
174
     0
175
     0
176
   256
177
   256
178
     2
  0
DIMSTYLE
  2
AM_ANSI$3
 70
     0
  3

  4
mm
  5

  6

  7

 40
1.0
 41
0.1
 42
0.05
 43
0.5
 44
0.1
 45
0.0
 46
0.0
 47
0.1
 48
0.1
140
0.12
141
0.0
142
0.0
143
25.399999999999999
144
1.0
145
0.0
146
0.71
147
0.06
 71
     0
 72
     0
 73
     1
 74
     1
 75
     0
 76
     0
 77
     0
 78
     7
170
     0
171
     2
172
     0
173
     0
174
     0
175
     0
176
   256
177
   256
178
     2
  0
DIMSTYLE
  2
AM_ANSI$4
 70
     0
  3

  4
mm
  5

  6

  7

 40
1.0
 41
0.1
 42
0.05
 43
0.5
 44
0.1
 45
0.0
 46
0.0
 47
0.1
 48
0.1
140
0.12
141
0.0
142
0.0
143
25.399999999999999
144
1.0
145
0.0
146
0.71
147
0.06
 71
     0
 72
     0
 73
     1
 74
     1
 75
     0
 76
     0
 77
     0
 78
     7
170
     0
171
     2
172
     0
173
     0
174
     0
175
     0
176
   256
177
   256
178
     2
  0
DIMSTYLE
  2
AM_ANSI$7
 70
     0
  3

  4
mm
  5

  6

  7

 40
1.0
 41
0.1
 42
0.05
 43
0.5
 44
0.1
 45
0.0
 46
0.0
 47
0.1
 48
0.1
140
0.24
141
0.0
142
0.0
143
25.399999999999999
144
1.0
145
0.0
146
0.71
147
0.06
 71
     0
 72
     0
 73
     1
 74
     1
 75
     0
 76
     0
 77
     0
 78
     7
170
     0
171
     2
172
     0
173
     0
174
     0
175
     0
176
   256
177
   256
178
     2
  0
DIMSTYLE
  2
AM_ANSI$SF
 70
     0
  3

  4
mm
  5

  6

  7

 40
1.0
 41
0.1
 42
0.05
 43
0.5
 44
0.1
 45
0.0
 46
0.0
 47
0.1
 48
0.1
140
0.12
141
0.0
142
0.0
143
25.399999999999999
144
1.0
145
0.0
146
0.71
147
0.06
 71
     0
 72
     0
 73
     1
 74
     1
 75
     1
 76
     1
 77
     0
 78
     7
170
     0
171
     2
172
     0
173
     0
174
     0
175
     0
176
   256
177
   256
178
     2
  0
DIMSTYLE
  2
AM_ANSI$SH
 70
     0
  3

  4
mm
  5

  6
GENAXEH
  7

 40
1.0
 41
0.1
 42
0.05
 43
0.5
 44
0.1
 45
0.0
 46
0.0
 47
0.1
 48
0.1
140
0.12
141
0.0
142
0.0
143
25.399999999999999
144
1.0
145
0.0
146
0.71
147
0.06
 71
     0
 72
     0
 73
     1
 74
     1
 75
     1
 76
     1
 77
     0
 78
     7
170
     0
171
     2
172
     0
173
     1
174
     0
175
     0
176
   256
177
   256
178
     2
  0
ENDTAB
  0
ENDSEC
  0
SECTION
  2
BLOCKS
  0
BLOCK
  8
0
  2
$MODEL_SPACE
 70
     0
 10
0.0
 20
0.0
 30
0.0
  3
$MODEL_SPACE
  1

  0
ENDBLK
  5
2127
  8
0
  0
BLOCK
 67
     1
  8
0
  2
$PAPER_SPACE
 70
     0
 10
0.0
 20
0.0
 30
0.0
  3
$PAPER_SPACE
  1

  0
ENDBLK
  5
2123
 67
     1
  8
0
  0
BLOCK
  8
0
  2
_OPEN
 70
     0
 10
0.0
 20
0.0
 30
0.0
  3
_OPEN
  1

  0
LINE
  5
1898
  8
0
  6
BYBLOCK
 62
     0
 10
-1.0
 20
0.1666666666666666
 30
0.0
 11
0.0
 21
0.0
 31
0.0
  0
LINE
  5
1899
  8
0
  6
BYBLOCK
 62
     0
 10
-1.0
 20
-0.1666666666666666
 30
0.0
 11
0.0
 21
0.0
 31
0.0
  0
LINE
  5
189A
  8
0
  6
BYBLOCK
 62
     0
 10
0.0
 20
0.0
 30
0.0
 11
-1.0
 21
0.0
 31
0.0
  0
ENDBLK
  5
189B
  8
0
  0
BLOCK
  8
0
  2
GENAXEH
 70
     0
 10
0.0
 20
0.0
 30
0.0
  3
GENAXEH
  1

  0
LINE
  5
18C3
  8
0
 10
-1.0
 20
0.0
 30
0.0
 11
1.0
 21
0.0
 31
0.0
  0
ENDBLK
  5
18C4
  8
0
  0
ENDSEC
  0
SECTION
  2
ENTITIES
  0
LINE
  5
13CB
  8
240
 10
0.0000000000000143
 20
-30.000000000000021
 30
0.0
 11
179.9999999999998
 21
-30.0
 31
0.0
  0
LINE
  5
13CD
  8
240
 10
180.0
 20
30.0
 30
0.0
 11
0.0000000000000284
 21
30.000000000000028
 31
0.0
  0
LINE
  5
13CE
  8
245
 10
214.56587709621689
 20
0.0
 30
0.0
 11
-4.3288546812577788
 21
0.0
 31
0.0
  0
LINE
  5
13D9
  8
240
 10
0.0
 20
0.0
 30
0.0
 11
0.0000000000000143
 21
30.000000000000028
 31
0.0
  0
ARC
  5
13DA
  8
243
 10
1.0
 20
20.25
 30
0.0
 40
1.0
 50
180.0
 51
270.0
1001
ASK_MEN_XD
1005
13D9
1070
     1
1005
13FA
1070
     0
  0
LINE
  5
13DC
  8
240
 10
0.0000000000000143
 20
-30.000000000000021
 30
0.0
 11
0.0
 21
0.0
 31
0.0
  0
LINE
  5
13DD
  8
240
 10
180.0000000000002
 20
-10.98585715714569
 30
0.0
 11
179.9999999999998
 21
-30.0
 31
0.0
  0
LINE
  5
13DE
  8
240
 10
180.0
 20
30.0
 30
0.0
 11
180.0
 21
11.000000011854951
 31
0.0
  0
LINE
  5
13F6
  8
243
 10
23.74999999999989
 20
18.0
 30
0.0
 11
22.49999999999989
 21
19.25
 31
0.0
  0
LINE
  5
13F7
  8
243
 10
19.499999999999879
 20
19.25
 30
0.0
 11
18.499999999999879
 21
18.25
 31
0.0
  0
LINE
  5
13F8
  8
243
 10
22.49999999999989
 20
19.25
 30
0.0
 11
19.499999999999879
 21
19.25
 31
0.0
  0
LINE
  5
13F9
  8
243
 10
3.577350269189536
 20
18.25
 30
0.0
 11
2.999999999999885
 21
19.25
 31
0.0
  0
LINE
  5
13FA
  8
243
 10
2.999999999999885
 20
19.25
 30
0.0
 11
1.0
 21
19.25
 31
0.0
  0
LINE
  5
13FD
  8
243
 10
18.499999999999879
 20
18.25
 30
0.0
 11
3.577350269189536
 21
18.25
 31
0.0
  0
LINE
  5
13FF
  8
243
 10
40.79999999999994
 20
18.0
 30
0.0
 11
23.74999999999989
 21
18.0
 31
0.0
  0
POLYLINE
  5
1902
  8
241
 66
     1
 10
0.0
 20
0.0
 30
0.0
 70
     8
  0
VERTEX
  5
1903
  8
241
 10
172.0
 20
-12.555300000000001
 30
0.0
 70
    32
  0
VERTEX
  5
1904
  8
241
 10
171.99100000000001
 20
-12.555300000000001
 30
0.0
 70
    32
  0
VERTEX
  5
1905
  8
241
 10
171.983
 20
-12.555300000000001
 30
0.0
 70
    32
  0
VERTEX
  5
1906
  8
241
 10
171.97399999999999
 20
-12.555400000000001
 30
0.0
 70
    32
  0
VERTEX
  5
1907
  8
241
 10
171.96600000000001
 20
-12.5555
 30
0.0
 70
    32
  0
VERTEX
  5
1908
  8
241
 10
171.95699999999999
 20
-12.5556
 30
0.0
 70
    32
  0
VERTEX
  5
1909
  8
241
 10
171.94900000000001
 20
-12.5557
 30
0.0
 70
    32
  0
VERTEX
  5
190A
  8
241
 10
171.94
 20
-12.555899999999999
 30
0.0
 70
    32
  0
VERTEX
  5
190B
  8
241
 10
171.93199999999999
 20
-12.555999999999999
 30
0.0
 70
    32
  0
VERTEX
  5
190C
  8
241
 10
171.923
 20
-12.5562
 30
0.0
 70
    32
  0
VERTEX
  5
190D
  8
241
 10
171.91499999999999
 20
-12.5565
 30
0.0
 70
    32
  0
VERTEX
  5
190E
  8
241
 10
171.90599999999989
 20
-12.556699999999999
 30
0.0
 70
    32
  0
VERTEX
  5
190F
  8
241
 10
171.898
 20
-12.557
 30
0.0
 70
    32
  0
VERTEX
  5
1910
  8
241
 10
171.88999999999999
 20
-12.5573
 30
0.0
 70
    32
  0
VERTEX
  5
1911
  8
241
 10
171.88099999999989
 20
-12.557600000000001
 30
0.0
 70
    32
  0
VERTEX
  5
1912
  8
241
 10
171.87299999999999
 20
-12.558
 30
0.0
 70
    32
  0
VERTEX
  5
1913
  8
241
 10
171.864
 20
-12.558299999999999
 30
0.0
 70
    32
  0
VERTEX
  5
1914
  8
241
 10
171.85599999999999
 20
-12.5587
 30
0.0
 70
    32
  0
VERTEX
  5
1915
  8
241
 10
171.84700000000001
 20
-12.559100000000001
 30
0.0
 70
    32
  0
VERTEX
  5
1916
  8
241
 10
171.839
 20
-12.5596
 30
0.0
 70
    32
  0
VERTEX
  5
1917
  8
241
 10
171.83000000000001
 20
-12.56
 30
0.0
 70
    32
  0
VERTEX
  5
1918
  8
241
 10
171.822
 20
-12.560499999999999
 30
0.0
 70
    32
  0
VERTEX
  5
1919
  8
241
 10
171.81399999999999
 20
-12.561
 30
0.0
 70
    32
  0
VERTEX
  5
191A
  8
241
 10
171.80500000000001
 20
-12.5616
 30
0.0
 70
    32
  0
VERTEX
  5
191B
  8
241
 10
171.797
 20
-12.562099999999999
 30
0.0
 70
    32
  0
VERTEX
  5
191C
  8
241
 10
171.78800000000001
 20
-12.5627
 30
0.0
 70
    32
  0
VERTEX
  5
191D
  8
241
 10
171.78
 20
-12.5633
 30
0.0
 70
    32
  0
VERTEX
  5
191E
  8
241
 10
171.77099999999999
 20
-12.5639
 30
0.0
 70
    32
  0
VERTEX
  5
191F
  8
241
 10
171.76300000000001
 20
-12.5646
 30
0.0
 70
    32
  0
VERTEX
  5
1920
  8
241
 10
171.755
 20
-12.565200000000001
 30
0.0
 70
    32
  0
VERTEX
  5
1921
  8
241
 10
171.7459999999999
 20
-12.565899999999999
 30
0.0
 70
    32
  0
VERTEX
  5
1922
  8
241
 10
171.738
 20
-12.566700000000001
 30
0.0
 70
    32
  0
VERTEX
  5
1923
  8
241
 10
171.72900000000001
 20
-12.567399999999999
 30
0.0
 70
    32
  0
VERTEX
  5
1924
  8
241
 10
171.72099999999989
 20
-12.568199999999999
 30
0.0
 70
    32
  0
VERTEX
  5
1925
  8
241
 10
171.71299999999999
 20
-12.569000000000001
 30
0.0
 70
    32
  0
VERTEX
  5
1926
  8
241
 10
171.70400000000001
 20
-12.569800000000001
 30
0.0
 70
    32
  0
VERTEX
  5
1927
  8
241
 10
171.696
 20
-12.570600000000001
 30
0.0
 70
    32
  0
VERTEX
  5
1928
  8
241
 10
171.68799999999999
 20
-12.5715
 30
0.0
 70
    32
  0
VERTEX
  5
1929
  8
241
 10
171.679
 20
-12.5724
 30
0.0
 70
    32
  0
VERTEX
  5
192A
  8
241
 10
171.67099999999999
 20
-12.5733
 30
0.0
 70
    32
  0
VERTEX
  5
192B
  8
241
 10
171.66300000000001
 20
-12.574199999999999
 30
0.0
 70
    32
  0
VERTEX
  5
192C
  8
241
 10
171.654
 20
-12.575200000000001
 30
0.0
 70
    32
  0
VERTEX
  5
192D
  8
241
 10
171.64599999999999
 20
-12.5761
 30
0.0
 70
    32
  0
VERTEX
  5
192E
  8
241
 10
171.63800000000001
 20
-12.5771
 30
0.0
 70
    32
  0
VERTEX
  5
192F
  8
241
 10
171.62899999999999
 20
-12.578200000000001
 30
0.0
 70
    32
  0
VERTEX
  5
1930
  8
241
 10
171.62100000000001
 20
-12.5792
 30
0.0
 70
    32
  0
VERTEX
  5
1931
  8
241
 10
171.613
 20
-12.580299999999999
 30
0.0
 70
    32
  0
VERTEX
  5
1932
  8
241
 10
171.60400000000001
 20
-12.5814
 30
0.0
 70
    32
  0
VERTEX
  5
1933
  8
241
 10
171.59599999999989
 20
-12.5825
 30
0.0
 70
    32
  0
VERTEX
  5
1934
  8
241
 10
171.58799999999999
 20
-12.583600000000001
 30
0.0
 70
    32
  0
VERTEX
  5
1935
  8
241
 10
171.57900000000001
 20
-12.5848
 30
0.0
 70
    32
  0
VERTEX
  5
1936
  8
241
 10
171.571
 20
-12.586
 30
0.0
 70
    32
  0
VERTEX
  5
1937
  8
241
 10
171.56299999999999
 20
-12.587199999999999
 30
0.0
 70
    32
  0
VERTEX
  5
1938
  8
241
 10
171.554
 20
-12.5884
 30
0.0
 70
    32
  0
VERTEX
  5
1939
  8
241
 10
171.54599999999999
 20
-12.589700000000001
 30
0.0
 70
    32
  0
VERTEX
  5
193A
  8
241
 10
171.53800000000001
 20
-12.5909
 30
0.0
 70
    32
  0
VERTEX
  5
193B
  8
241
 10
171.53
 20
-12.5922
 30
0.0
 70
    32
  0
VERTEX
  5
193C
  8
241
 10
171.52099999999999
 20
-12.5936
 30
0.0
 70
    32
  0
VERTEX
  5
193D
  8
241
 10
171.51300000000001
 20
-12.594900000000001
 30
0.0
 70
    32
  0
VERTEX
  5
193E
  8
241
 10
171.505
 20
-12.596299999999999
 30
0.0
 70
    32
  0
VERTEX
  5
193F
  8
241
 10
171.49600000000001
 20
-12.5977
 30
0.0
 70
    32
  0
VERTEX
  5
1940
  8
241
 10
171.488
 20
-12.5991
 30
0.0
 70
    32
  0
VERTEX
  5
1941
  8
241
 10
171.47999999999999
 20
-12.6005
 30
0.0
 70
    32
  0
VERTEX
  5
1942
  8
241
 10
171.47200000000001
 20
-12.602
 30
0.0
 70
    32
  0
VERTEX
  5
1943
  8
241
 10
171.46299999999999
 20
-12.6035
 30
0.0
 70
    32
  0
VERTEX
  5
1944
  8
241
 10
171.45500000000001
 20
-12.605
 30
0.0
 70
    32
  0
VERTEX
  5
1945
  8
241
 10
171.447
 20
-12.6065
 30
0.0
 70
    32
  0
VERTEX
  5
1946
  8
241
 10
171.43899999999999
 20
-12.608000000000001
 30
0.0
 70
    32
  0
VERTEX
  5
1947
  8
241
 10
171.43000000000001
 20
-12.6096
 30
0.0
 70
    32
  0
VERTEX
  5
1948
  8
241
 10
171.422
 20
-12.6112
 30
0.0
 70
    32
  0
VERTEX
  5
1949
  8
241
 10
171.41399999999999
 20
-12.6129
 30
0.0
 70
    32
  0
VERTEX
  5
194A
  8
241
 10
171.40600000000001
 20
-12.6145
 30
0.0
 70
    32
  0
VERTEX
  5
194B
  8
241
 10
171.398
 20
-12.616199999999999
 30
0.0
 70
    32
  0
VERTEX
  5
194C
  8
241
 10
171.38900000000001
 20
-12.617900000000001
 30
0.0
 70
    32
  0
VERTEX
  5
194D
  8
241
 10
171.381
 20
-12.6196
 30
0.0
 70
    32
  0
VERTEX
  5
194E
  8
241
 10
171.37299999999999
 20
-12.6213
 30
0.0
 70
    32
  0
VERTEX
  5
194F
  8
241
 10
171.36500000000001
 20
-12.623100000000001
 30
0.0
 70
    32
  0
VERTEX
  5
1950
  8
241
 10
171.35599999999999
 20
-12.6249
 30
0.0
 70
    32
  0
VERTEX
  5
1951
  8
241
 10
171.34800000000001
 20
-12.6267
 30
0.0
 70
    32
  0
VERTEX
  5
1952
  8
241
 10
171.34
 20
-12.628500000000001
 30
0.0
 70
    32
  0
VERTEX
  5
1953
  8
241
 10
171.33199999999999
 20
-12.6304
 30
0.0
 70
    32
  0
VERTEX
  5
1954
  8
241
 10
171.32400000000001
 20
-12.632300000000001
 30
0.0
 70
    32
  0
VERTEX
  5
1955
  8
241
 10
171.315
 20
-12.6342
 30
0.0
 70
    32
  0
VERTEX
  5
1956
  8
241
 10
171.30699999999999
 20
-12.636100000000001
 30
0.0
 70
    32
  0
VERTEX
  5
1957
  8
241
 10
171.29900000000001
 20
-12.6381
 30
0.0
 70
    32
  0
VERTEX
  5
1958
  8
241
 10
171.291
 20
-12.6401
 30
0.0
 70
    32
  0
VERTEX
  5
1959
  8
241
 10
171.28299999999999
 20
-12.642099999999999
 30
0.0
 70
    32
  0
VERTEX
  5
195A
  8
241
 10
171.27500000000001
 20
-12.6441
 30
0.0
 70
    32
  0
VERTEX
  5
195B
  8
241
 10
171.26599999999999
 20
-12.646100000000001
 30
0.0
 70
    32
  0
VERTEX
  5
195C
  8
241
 10
171.2579999999999
 20
-12.648199999999999
 30
0.0
 70
    32
  0
VERTEX
  5
195D
  8
241
 10
171.25
 20
-12.6503
 30
0.0
 70
    32
  0
VERTEX
  5
195E
  8
241
 10
171.24199999999999
 20
-12.6524
 30
0.0
 70
    32
  0
VERTEX
  5
195F
  8
241
 10
171.23400000000001
 20
-12.654500000000001
 30
0.0
 70
    32
  0
VERTEX
  5
1960
  8
241
 10
171.226
 20
-12.656700000000001
 30
0.0
 70
    32
  0
VERTEX
  5
1961
  8
241
 10
171.21799999999999
 20
-12.658899999999999
 30
0.0
 70
    32
  0
VERTEX
  5
1962
  8
241
 10
171.209
 20
-12.661099999999999
 30
0.0
 70
    32
  0
VERTEX
  5
1963
  8
241
 10
171.20099999999999
 20
-12.6633
 30
0.0
 70
    32
  0
VERTEX
  5
1964
  8
241
 10
171.19300000000001
 20
-12.6656
 30
0.0
 70
    32
  0
VERTEX
  5
1965
  8
241
 10
171.185
 20
-12.6678
 30
0.0
 70
    32
  0
VERTEX
  5
1966
  8
241
 10
171.17699999999999
 20
-12.6701
 30
0.0
 70
    32
  0
VERTEX
  5
1967
  8
241
 10
171.16900000000001
 20
-12.672499999999999
 30
0.0
 70
    32
  0
VERTEX
  5
1968
  8
241
 10
171.161
 20
-12.674799999999999
 30
0.0
 70
    32
  0
VERTEX
  5
1969
  8
241
 10
171.15299999999999
 20
-12.677199999999999
 30
0.0
 70
    32
  0
VERTEX
  5
196A
  8
241
 10
171.14500000000001
 20
-12.679500000000001
 30
0.0
 70
    32
  0
VERTEX
  5
196B
  8
241
 10
171.137
 20
-12.682
 30
0.0
 70
    32
  0
VERTEX
  5
196C
  8
241
 10
171.12899999999999
 20
-12.6844
 30
0.0
 70
    32
  0
VERTEX
  5
196D
  8
241
 10
171.12100000000001
 20
-12.6868
 30
0.0
 70
    32
  0
VERTEX
  5
196E
  8
241
 10
171.113
 20
-12.689299999999999
 30
0.0
 70
    32
  0
VERTEX
  5
196F
  8
241
 10
171.10499999999999
 20
-12.691800000000001
 30
0.0
 70
    32
  0
VERTEX
  5
1970
  8
241
 10
171.09700000000001
 20
-12.6943
 30
0.0
 70
    32
  0
VERTEX
  5
1971
  8
241
 10
171.089
 20
-12.696899999999999
 30
0.0
 70
    32
  0
VERTEX
  5
1972
  8
241
 10
171.08099999999999
 20
-12.699400000000001
 30
0.0
 70
    32
  0
VERTEX
  5
1973
  8
241
 10
171.07300000000001
 20
-12.702
 30
0.0
 70
    32
  0
VERTEX
  5
1974
  8
241
 10
171.065
 20
-12.704599999999999
 30
0.0
 70
    32
  0
VERTEX
  5
1975
  8
241
 10
171.05699999999999
 20
-12.7073
 30
0.0
 70
    32
  0
VERTEX
  5
1976
  8
241
 10
171.04900000000001
 20
-12.709899999999999
 30
0.0
 70
    32
  0
VERTEX
  5
1977
  8
241
 10
171.041
 20
-12.7126
 30
0.0
 70
    32
  0
VERTEX
  5
1978
  8
241
 10
171.03299999999999
 20
-12.715299999999999
 30
0.0
 70
    32
  0
VERTEX
  5
1979
  8
241
 10
171.02500000000001
 20
-12.718
 30
0.0
 70
    32
  0
VERTEX
  5
197A
  8
241
 10
171.017
 20
-12.720700000000001
 30
0.0
 70
    32
  0
VERTEX
  5
197B
  8
241
 10
171.00899999999999
 20
-12.7235
 30
0.0
 70
    32
  0
VERTEX
  5
197C
  8
241
 10
171.001
 20
-12.7263
 30
0.0
 70
    32
  0
VERTEX
  5
197D
  8
241
 10
170.99299999999999
 20
-12.729100000000001
 30
0.0
 70
    32
  0
VERTEX
  5
197E
  8
241
 10
170.98500000000001
 20
-12.7319
 30
0.0
 70
    32
  0
VERTEX
  5
197F
  8
241
 10
170.97800000000001
 20
-12.7348
 30
0.0
 70
    32
  0
VERTEX
  5
1980
  8
241
 10
170.97
 20
-12.7376
 30
0.0
 70
    32
  0
VERTEX
  5
1981
  8
241
 10
170.96199999999999
 20
-12.740500000000001
 30
0.0
 70
    32
  0
VERTEX
  5
1982
  8
241
 10
170.95400000000001
 20
-12.743399999999999
 30
0.0
 70
    32
  0
VERTEX
  5
1983
  8
241
 10
170.946
 20
-12.7464
 30
0.0
 70
    32
  0
VERTEX
  5
1984
  8
241
 10
170.93799999999999
 20
-12.7493
 30
0.0
 70
    32
  0
VERTEX
  5
1985
  8
241
 10
170.93100000000001
 20
-12.7523
 30
0.0
 70
    32
  0
VERTEX
  5
1986
  8
241
 10
170.923
 20
-12.7553
 30
0.0
 70
    32
  0
VERTEX
  5
1987
  8
241
 10
170.91499999999999
 20
-12.7583
 30
0.0
 70
    32
  0
VERTEX
  5
1988
  8
241
 10
170.90700000000001
 20
-12.7613
 30
0.0
 70
    32
  0
VERTEX
  5
1989
  8
241
 10
170.90000000000001
 20
-12.7644
 30
0.0
 70
    32
  0
VERTEX
  5
198A
  8
241
 10
170.892
 20
-12.7674
 30
0.0
 70
    32
  0
VERTEX
  5
198B
  8
241
 10
170.88399999999999
 20
-12.7705
 30
0.0
 70
    32
  0
VERTEX
  5
198C
  8
241
 10
170.876
 20
-12.7737
 30
0.0
 70
    32
  0
VERTEX
  5
198D
  8
241
 10
170.869
 20
-12.7768
 30
0.0
 70
    32
  0
VERTEX
  5
198E
  8
241
 10
170.86099999999999
 20
-12.779999999999999
 30
0.0
 70
    32
  0
VERTEX
  5
198F
  8
241
 10
170.85300000000001
 20
-12.783099999999999
 30
0.0
 70
    32
  0
VERTEX
  5
1990
  8
241
 10
170.846
 20
-12.786300000000001
 30
0.0
 70
    32
  0
VERTEX
  5
1991
  8
241
 10
170.83799999999999
 20
-12.7895
 30
0.0
 70
    32
  0
VERTEX
  5
1992
  8
241
 10
170.83099999999999
 20
-12.7928
 30
0.0
 70
    32
  0
VERTEX
  5
1993
  8
241
 10
170.82300000000001
 20
-12.795999999999999
 30
0.0
 70
    32
  0
VERTEX
  5
1994
  8
241
 10
170.815
 20
-12.799300000000001
 30
0.0
 70
    32
  0
VERTEX
  5
1995
  8
241
 10
170.80799999999999
 20
-12.8026
 30
0.0
 70
    32
  0
VERTEX
  5
1996
  8
241
 10
170.80000000000001
 20
-12.805899999999999
 30
0.0
 70
    32
  0
VERTEX
  5
1997
  8
241
 10
170.79300000000001
 20
-12.8093
 30
0.0
 70
    32
  0
VERTEX
  5
1998
  8
241
 10
170.785
 20
-12.8126
 30
0.0
 70
    32
  0
VERTEX
  5
1999
  8
241
 10
170.77799999999999
 20
-12.816000000000001
 30
0.0
 70
    32
  0
VERTEX
  5
199A
  8
241
 10
170.77000000000001
 20
-12.8194
 30
0.0
 70
    32
  0
VERTEX
  5
199B
  8
241
 10
170.762
 20
-12.822800000000001
 30
0.0
 70
    32
  0
VERTEX
  5
199C
  8
241
 10
170.755
 20
-12.8263
 30
0.0
 70
    32
  0
VERTEX
  5
199D
  8
241
 10
170.74700000000001
 20
-12.829700000000001
 30
0.0
 70
    32
  0
VERTEX
  5
199E
  8
241
 10
170.74000000000001
 20
-12.8332
 30
0.0
 70
    32
  0
VERTEX
  5
199F
  8
241
 10
170.733
 20
-12.8367
 30
0.0
 70
    32
  0
VERTEX
  5
19A0
  8
241
 10
170.72499999999999
 20
-12.840199999999999
 30
0.0
 70
    32
  0
VERTEX
  5
19A1
  8
241
 10
170.71799999999999
 20
-12.8438
 30
0.0
 70
    32
  0
VERTEX
  5
19A2
  8
241
 10
170.71000000000001
 20
-12.847300000000001
 30
0.0
 70
    32
  0
VERTEX
  5
19A3
  8
241
 10
170.703
 20
-12.850899999999999
 30
0.0
 70
    32
  0
VERTEX
  5
19A4
  8
241
 10
170.69499999999999
 20
-12.8545
 30
0.0
 70
    32
  0
VERTEX
  5
19A5
  8
241
 10
170.68799999999999
 20
-12.8581
 30
0.0
 70
    32
  0
VERTEX
  5
19A6
  8
241
 10
170.68100000000001
 20
-12.861800000000001
 30
0.0
 70
    32
  0
VERTEX
  5
19A7
  8
241
 10
170.673
 20
-12.865399999999999
 30
0.0
 70
    32
  0
VERTEX
  5
19A8
  8
241
 10
170.666
 20
-12.8691
 30
0.0
 70
    32
  0
VERTEX
  5
19A9
  8
241
 10
170.65899999999999
 20
-12.8728
 30
0.0
 70
    32
  0
VERTEX
  5
19AA
  8
241
 10
170.6509999999999
 20
-12.8766
 30
0.0
 70
    32
  0
VERTEX
  5
19AB
  8
241
 10
170.64400000000001
 20
-12.8803
 30
0.0
 70
    32
  0
VERTEX
  5
19AC
  8
241
 10
170.637
 20
-12.8841
 30
0.0
 70
    32
  0
VERTEX
  5
19AD
  8
241
 10
170.62899999999999
 20
-12.8878
 30
0.0
 70
    32
  0
VERTEX
  5
19AE
  8
241
 10
170.62200000000001
 20
-12.8916
 30
0.0
 70
    32
  0
VERTEX
  5
19AF
  8
241
 10
170.61500000000001
 20
-12.8955
 30
0.0
 70
    32
  0
VERTEX
  5
19B0
  8
241
 10
170.608
 20
-12.8993
 30
0.0
 70
    32
  0
VERTEX
  5
19B1
  8
241
 10
170.59999999999999
 20
-12.9032
 30
0.0
 70
    32
  0
VERTEX
  5
19B2
  8
241
 10
170.59299999999999
 20
-12.9071
 30
0.0
 70
    32
  0
VERTEX
  5
19B3
  8
241
 10
170.58600000000001
 20
-12.911
 30
0.0
 70
    32
  0
VERTEX
  5
19B4
  8
241
 10
170.57900000000001
 20
-12.914899999999999
 30
0.0
 70
    32
  0
VERTEX
  5
19B5
  8
241
 10
170.572
 20
-12.918799999999999
 30
0.0
 70
    32
  0
VERTEX
  5
19B6
  8
241
 10
170.56399999999999
 20
-12.922800000000001
 30
0.0
 70
    32
  0
VERTEX
  5
19B7
  8
241
 10
170.55699999999999
 20
-12.9268
 30
0.0
 70
    32
  0
VERTEX
  5
19B8
  8
241
 10
170.55000000000001
 20
-12.9308
 30
0.0
 70
    32
  0
VERTEX
  5
19B9
  8
241
 10
170.54300000000001
 20
-12.934799999999999
 30
0.0
 70
    32
  0
VERTEX
  5
19BA
  8
241
 10
170.53599999999989
 20
-12.938800000000001
 30
0.0
 70
    32
  0
VERTEX
  5
19BB
  8
241
 10
170.529
 20
-12.9429
 30
0.0
 70
    32
  0
VERTEX
  5
19BC
  8
241
 10
170.52199999999999
 20
-12.946999999999999
 30
0.0
 70
    32
  0
VERTEX
  5
19BD
  8
241
 10
170.51400000000001
 20
-12.9511
 30
0.0
 70
    32
  0
VERTEX
  5
19BE
  8
241
 10
170.50700000000001
 20
-12.9552
 30
0.0
 70
    32
  0
VERTEX
  5
19BF
  8
241
 10
170.5
 20
-12.9594
 30
0.0
 70
    32
  0
VERTEX
  5
19C0
  8
241
 10
170.49299999999999
 20
-12.9635
 30
0.0
 70
    32
  0
VERTEX
  5
19C1
  8
241
 10
170.48599999999999
 20
-12.967700000000001
 30
0.0
 70
    32
  0
VERTEX
  5
19C2
  8
241
 10
170.47900000000001
 20
-12.9719
 30
0.0
 70
    32
  0
VERTEX
  5
19C3
  8
241
 10
170.47200000000001
 20
-12.976100000000001
 30
0.0
 70
    32
  0
VERTEX
  5
19C4
  8
241
 10
170.465
 20
-12.980399999999999
 30
0.0
 70
    32
  0
VERTEX
  5
19C5
  8
241
 10
170.458
 20
-12.9846
 30
0.0
 70
    32
  0
VERTEX
  5
19C6
  8
241
 10
170.45099999999999
 20
-12.988899999999999
 30
0.0
 70
    32
  0
VERTEX
  5
19C7
  8
241
 10
170.44399999999999
 20
-12.9932
 30
0.0
 70
    32
  0
VERTEX
  5
19C8
  8
241
 10
170.43700000000001
 20
-12.9976
 30
0.0
 70
    32
  0
VERTEX
  5
19C9
  8
241
 10
170.43000000000001
 20
-13.001899999999999
 30
0.0
 70
    32
  0
VERTEX
  5
19CA
  8
241
 10
170.423
 20
-13.0063
 30
0.0
 70
    32
  0
VERTEX
  5
19CB
  8
241
 10
170.417
 20
-13.0107
 30
0.0
 70
    32
  0
VERTEX
  5
19CC
  8
241
 10
170.41
 20
-13.0151
 30
0.0
 70
    32
  0
VERTEX
  5
19CD
  8
241
 10
170.40299999999999
 20
-13.019500000000001
 30
0.0
 70
    32
  0
VERTEX
  5
19CE
  8
241
 10
170.39599999999999
 20
-13.023999999999999
 30
0.0
 70
    32
  0
VERTEX
  5
19CF
  8
241
 10
170.38900000000001
 20
-13.0284
 30
0.0
 70
    32
  0
VERTEX
  5
19D0
  8
241
 10
170.38200000000001
 20
-13.0329
 30
0.0
 70
    32
  0
VERTEX
  5
19D1
  8
241
 10
170.375
 20
-13.0374
 30
0.0
 70
    32
  0
VERTEX
  5
19D2
  8
241
 10
170.369
 20
-13.042
 30
0.0
 70
    32
  0
VERTEX
  5
19D3
  8
241
 10
170.36199999999999
 20
-13.0465
 30
0.0
 70
    32
  0
VERTEX
  5
19D4
  8
241
 10
170.35499999999999
 20
-13.0511
 30
0.0
 70
    32
  0
VERTEX
  5
19D5
  8
241
 10
170.34800000000001
 20
-13.0557
 30
0.0
 70
    32
  0
VERTEX
  5
19D6
  8
241
 10
170.34100000000001
 20
-13.0603
 30
0.0
 70
    32
  0
VERTEX
  5
19D7
  8
241
 10
170.33500000000001
 20
-13.0649
 30
0.0
 70
    32
  0
VERTEX
  5
19D8
  8
241
 10
170.328
 20
-13.0695
 30
0.0
 70
    32
  0
VERTEX
  5
19D9
  8
241
 10
170.321
 20
-13.074199999999999
 30
0.0
 70
    32
  0
VERTEX
  5
19DA
  8
241
 10
170.31399999999999
 20
-13.078900000000001
 30
0.0
 70
    32
  0
VERTEX
  5
19DB
  8
241
 10
170.30799999999999
 20
-13.083600000000001
 30
0.0
 70
    32
  0
VERTEX
  5
19DC
  8
241
 10
170.30099999999999
 20
-13.0883
 30
0.0
 70
    32
  0
VERTEX
  5
19DD
  8
241
 10
170.29400000000001
 20
-13.093
 30
0.0
 70
    32
  0
VERTEX
  5
19DE
  8
241
 10
170.28800000000001
 20
-13.097799999999999
 30
0.0
 70
    32
  0
VERTEX
  5
19DF
  8
241
 10
170.28099999999989
 20
-13.102600000000001
 30
0.0
 70
    32
  0
VERTEX
  5
19E0
  8
241
 10
170.27500000000001
 20
-13.1073
 30
0.0
 70
    32
  0
VERTEX
  5
19E1
  8
241
 10
170.268
 20
-13.1122
 30
0.0
 70
    32
  0
VERTEX
  5
19E2
  8
241
 10
170.261
 20
-13.117000000000001
 30
0.0
 70
    32
  0
VERTEX
  5
19E3
  8
241
 10
170.255
 20
-13.1218
 30
0.0
 70
    32
  0
VERTEX
  5
19E4
  8
241
 10
170.24799999999999
 20
-13.1267
 30
0.0
 70
    32
  0
VERTEX
  5
19E5
  8
241
 10
170.24199999999999
 20
-13.131600000000001
 30
0.0
 70
    32
  0
VERTEX
  5
19E6
  8
241
 10
170.23500000000001
 20
-13.1364
 30
0.0
 70
    32
  0
VERTEX
  5
19E7
  8
241
 10
170.22900000000001
 20
-13.141400000000001
 30
0.0
 70
    32
  0
VERTEX
  5
19E8
  8
241
 10
170.22200000000001
 20
-13.1463
 30
0.0
 70
    32
  0
VERTEX
  5
19E9
  8
241
 10
170.21600000000001
 20
-13.151199999999999
 30
0.0
 70
    32
  0
VERTEX
  5
19EA
  8
241
 10
170.209
 20
-13.1562
 30
0.0
 70
    32
  0
VERTEX
  5
19EB
  8
241
 10
170.203
 20
-13.161199999999999
 30
0.0
 70
    32
  0
VERTEX
  5
19EC
  8
241
 10
170.197
 20
-13.1662
 30
0.0
 70
    32
  0
VERTEX
  5
19ED
  8
241
 10
170.19
 20
-13.171200000000001
 30
0.0
 70
    32
  0
VERTEX
  5
19EE
  8
241
 10
170.184
 20
-13.1762
 30
0.0
 70
    32
  0
VERTEX
  5
19EF
  8
241
 10
170.17699999999999
 20
-13.1812
 30
0.0
 70
    32
  0
VERTEX
  5
19F0
  8
241
 10
170.17099999999999
 20
-13.186299999999999
 30
0.0
 70
    32
  0
VERTEX
  5
19F1
  8
241
 10
170.16499999999999
 20
-13.1914
 30
0.0
 70
    32
  0
VERTEX
  5
19F2
  8
241
 10
170.15899999999999
 20
-13.1965
 30
0.0
 70
    32
  0
VERTEX
  5
19F3
  8
241
 10
170.15199999999999
 20
-13.201599999999999
 30
0.0
 70
    32
  0
VERTEX
  5
19F4
  8
241
 10
170.14599999999999
 20
-13.2067
 30
0.0
 70
    32
  0
VERTEX
  5
19F5
  8
241
 10
170.13999999999999
 20
-13.2118
 30
0.0
 70
    32
  0
VERTEX
  5
19F6
  8
241
 10
170.13399999999999
 20
-13.217000000000001
 30
0.0
 70
    32
  0
VERTEX
  5
19F7
  8
241
 10
170.12700000000001
 20
-13.222099999999999
 30
0.0
 70
    32
  0
VERTEX
  5
19F8
  8
241
 10
170.12100000000001
 20
-13.2273
 30
0.0
 70
    32
  0
VERTEX
  5
19F9
  8
241
 10
170.11500000000001
 20
-13.2325
 30
0.0
 70
    32
  0
VERTEX
  5
19FA
  8
241
 10
170.10900000000001
 20
-13.2377
 30
0.0
 70
    32
  0
VERTEX
  5
19FB
  8
241
 10
170.10300000000001
 20
-13.243
 30
0.0
 70
    32
  0
VERTEX
  5
19FC
  8
241
 10
170.09700000000001
 20
-13.248200000000001
 30
0.0
 70
    32
  0
VERTEX
  5
19FD
  8
241
 10
170.09100000000001
 20
-13.253500000000001
 30
0.0
 70
    32
  0
VERTEX
  5
19FE
  8
241
 10
170.084
 20
-13.258699999999999
 30
0.0
 70
    32
  0
VERTEX
  5
19FF
  8
241
 10
170.078
 20
-13.263999999999999
 30
0.0
 70
    32
  0
VERTEX
  5
1A00
  8
241
 10
170.072
 20
-13.269299999999999
 30
0.0
 70
    32
  0
VERTEX
  5
1A01
  8
241
 10
170.066
 20
-13.2746
 30
0.0
 70
    32
  0
VERTEX
  5
1A02
  8
241
 10
170.06
 20
-13.2799
 30
0.0
 70
    32
  0
VERTEX
  5
1A03
  8
241
 10
170.05500000000001
 20
-13.285299999999999
 30
0.0
 70
    32
  0
VERTEX
  5
1A04
  8
241
 10
170.04900000000001
 20
-13.2906
 30
0.0
 70
    32
  0
VERTEX
  5
1A05
  8
241
 10
170.04300000000001
 20
-13.295999999999999
 30
0.0
 70
    32
  0
VERTEX
  5
1A06
  8
241
 10
170.03700000000001
 20
-13.301399999999999
 30
0.0
 70
    32
  0
VERTEX
  5
1A07
  8
241
 10
170.03099999999989
 20
-13.306800000000001
 30
0.0
 70
    32
  0
VERTEX
  5
1A08
  8
241
 10
170.02500000000001
 20
-13.312200000000001
 30
0.0
 70
    32
  0
VERTEX
  5
1A09
  8
241
 10
170.01900000000001
 20
-13.317600000000001
 30
0.0
 70
    32
  0
VERTEX
  5
1A0A
  8
241
 10
170.01300000000001
 20
-13.323
 30
0.0
 70
    32
  0
VERTEX
  5
1A0B
  8
241
 10
170.0079999999999
 20
-13.3285
 30
0.0
 70
    32
  0
VERTEX
  5
1A0C
  8
241
 10
170.00200000000001
 20
-13.334
 30
0.0
 70
    32
  0
VERTEX
  5
1A0D
  8
241
 10
169.99600000000001
 20
-13.339499999999999
 30
0.0
 70
    32
  0
VERTEX
  5
1A0E
  8
241
 10
169.99000000000001
 20
-13.345000000000001
 30
0.0
 70
    32
  0
VERTEX
  5
1A0F
  8
241
 10
169.98500000000001
 20
-13.3505
 30
0.0
 70
    32
  0
VERTEX
  5
1A10
  8
241
 10
169.97900000000001
 20
-13.356
 30
0.0
 70
    32
  0
VERTEX
  5
1A11
  8
241
 10
169.97300000000001
 20
-13.361499999999999
 30
0.0
 70
    32
  0
VERTEX
  5
1A12
  8
241
 10
169.96799999999999
 20
-13.367100000000001
 30
0.0
 70
    32
  0
VERTEX
  5
1A13
  8
241
 10
169.96199999999999
 20
-13.3727
 30
0.0
 70
    32
  0
VERTEX
  5
1A14
  8
241
 10
169.95599999999999
 20
-13.378299999999999
 30
0.0
 70
    32
  0
VERTEX
  5
1A15
  8
241
 10
169.95099999999999
 20
-13.383900000000001
 30
0.0
 70
    32
  0
VERTEX
  5
1A16
  8
241
 10
169.94499999999999
 20
-13.3895
 30
0.0
 70
    32
  0
VERTEX
  5
1A17
  8
241
 10
169.93899999999999
 20
-13.395099999999999
 30
0.0
 70
    32
  0
VERTEX
  5
1A18
  8
241
 10
169.934
 20
-13.400700000000001
 30
0.0
 70
    32
  0
VERTEX
  5
1A19
  8
241
 10
169.928
 20
-13.4064
 30
0.0
 70
    32
  0
VERTEX
  5
1A1A
  8
241
 10
169.923
 20
-13.412100000000001
 30
0.0
 70
    32
  0
VERTEX
  5
1A1B
  8
241
 10
169.917
 20
-13.4178
 30
0.0
 70
    32
  0
VERTEX
  5
1A1C
  8
241
 10
169.91200000000001
 20
-13.423500000000001
 30
0.0
 70
    32
  0
VERTEX
  5
1A1D
  8
241
 10
169.90600000000001
 20
-13.4292
 30
0.0
 70
    32
  0
VERTEX
  5
1A1E
  8
241
 10
169.90100000000001
 20
-13.434900000000001
 30
0.0
 70
    32
  0
VERTEX
  5
1A1F
  8
241
 10
169.89599999999999
 20
-13.4407
 30
0.0
 70
    32
  0
VERTEX
  5
1A20
  8
241
 10
169.88999999999999
 20
-13.446400000000001
 30
0.0
 70
    32
  0
VERTEX
  5
1A21
  8
241
 10
169.88499999999999
 20
-13.452199999999999
 30
0.0
 70
    32
  0
VERTEX
  5
1A22
  8
241
 10
169.87899999999999
 20
-13.458
 30
0.0
 70
    32
  0
VERTEX
  5
1A23
  8
241
 10
169.874
 20
-13.463800000000001
 30
0.0
 70
    32
  0
VERTEX
  5
1A24
  8
241
 10
169.869
 20
-13.4696
 30
0.0
 70
    32
  0
VERTEX
  5
1A25
  8
241
 10
169.864
 20
-13.4755
 30
0.0
 70
    32
  0
VERTEX
  5
1A26
  8
241
 10
169.858
 20
-13.481299999999999
 30
0.0
 70
    32
  0
VERTEX
  5
1A27
  8
241
 10
169.85300000000001
 20
-13.4872
 30
0.0
 70
    32
  0
VERTEX
  5
1A28
  8
241
 10
169.84800000000001
 20
-13.4931
 30
0.0
 70
    32
  0
VERTEX
  5
1A29
  8
241
 10
169.84200000000001
 20
-13.499000000000001
 30
0.0
 70
    32
  0
VERTEX
  5
1A2A
  8
241
 10
169.83699999999999
 20
-13.504899999999999
 30
0.0
 70
    32
  0
VERTEX
  5
1A2B
  8
241
 10
169.83199999999999
 20
-13.5108
 30
0.0
 70
    32
  0
VERTEX
  5
1A2C
  8
241
 10
169.827
 20
-13.5167
 30
0.0
 70
    32
  0
VERTEX
  5
1A2D
  8
241
 10
169.822
 20
-13.5227
 30
0.0
 70
    32
  0
VERTEX
  5
1A2E
  8
241
 10
169.81700000000001
 20
-13.528700000000001
 30
0.0
 70
    32
  0
VERTEX
  5
1A2F
  8
241
 10
169.81200000000001
 20
-13.534700000000001
 30
0.0
 70
    32
  0
VERTEX
  5
1A30
  8
241
 10
169.80600000000001
 20
-13.540699999999999
 30
0.0
 70
    32
  0
VERTEX
  5
1A31
  8
241
 10
169.80099999999999
 20
-13.5467
 30
0.0
 70
    32
  0
VERTEX
  5
1A32
  8
241
 10
169.79599999999999
 20
-13.5527
 30
0.0
 70
    32
  0
VERTEX
  5
1A33
  8
241
 10
169.791
 20
-13.5587
 30
0.0
 70
    32
  0
VERTEX
  5
1A34
  8
241
 10
169.78599999999989
 20
-13.5648
 30
0.0
 70
    32
  0
VERTEX
  5
1A35
  8
241
 10
169.78100000000001
 20
-13.5709
 30
0.0
 70
    32
  0
VERTEX
  5
1A36
  8
241
 10
169.77600000000001
 20
-13.577
 30
0.0
 70
    32
  0
VERTEX
  5
1A37
  8
241
 10
169.77099999999999
 20
-13.5831
 30
0.0
 70
    32
  0
VERTEX
  5
1A38
  8
241
 10
169.76599999999999
 20
-13.5892
 30
0.0
 70
    32
  0
VERTEX
  5
1A39
  8
241
 10
169.762
 20
-13.5953
 30
0.0
 70
    32
  0
VERTEX
  5
1A3A
  8
241
 10
169.75700000000001
 20
-13.6014
 30
0.0
 70
    32
  0
VERTEX
  5
1A3B
  8
241
 10
169.75200000000001
 20
-13.6076
 30
0.0
 70
    32
  0
VERTEX
  5
1A3C
  8
241
 10
169.74700000000001
 20
-13.613799999999999
 30
0.0
 70
    32
  0
VERTEX
  5
1A3D
  8
241
 10
169.74199999999999
 20
-13.619999999999999
 30
0.0
 70
    32
  0
VERTEX
  5
1A3E
  8
241
 10
169.73699999999999
 20
-13.626200000000001
 30
0.0
 70
    32
  0
VERTEX
  5
1A3F
  8
241
 10
169.732
 20
-13.632400000000001
 30
0.0
 70
    32
  0
VERTEX
  5
1A40
  8
241
 10
169.72800000000001
 20
-13.6386
 30
0.0
 70
    32
  0
VERTEX
  5
1A41
  8
241
 10
169.72300000000001
 20
-13.6449
 30
0.0
 70
    32
  0
VERTEX
  5
1A42
  8
241
 10
169.71799999999999
 20
-13.6511
 30
0.0
 70
    32
  0
VERTEX
  5
1A43
  8
241
 10
169.71299999999999
 20
-13.657400000000001
 30
0.0
 70
    32
  0
VERTEX
  5
1A44
  8
241
 10
169.709
 20
-13.6637
 30
0.0
 70
    32
  0
VERTEX
  5
1A45
  8
241
 10
169.70400000000001
 20
-13.67
 30
0.0
 70
    32
  0
VERTEX
  5
1A46
  8
241
 10
169.69900000000001
 20
-13.676299999999999
 30
0.0
 70
    32
  0
VERTEX
  5
1A47
  8
241
 10
169.69499999999999
 20
-13.682700000000001
 30
0.0
 70
    32
  0
VERTEX
  5
1A48
  8
241
 10
169.69
 20
-13.689
 30
0.0
 70
    32
  0
VERTEX
  5
1A49
  8
241
 10
169.68600000000001
 20
-13.6953
 30
0.0
 70
    32
  0
VERTEX
  5
1A4A
  8
241
 10
169.68100000000001
 20
-13.701700000000001
 30
0.0
 70
    32
  0
VERTEX
  5
1A4B
  8
241
 10
169.67599999999999
 20
-13.7081
 30
0.0
 70
    32
  0
VERTEX
  5
1A4C
  8
241
 10
169.672
 20
-13.714499999999999
 30
0.0
 70
    32
  0
VERTEX
  5
1A4D
  8
241
 10
169.667
 20
-13.7209
 30
0.0
 70
    32
  0
VERTEX
  5
1A4E
  8
241
 10
169.66300000000001
 20
-13.7273
 30
0.0
 70
    32
  0
VERTEX
  5
1A4F
  8
241
 10
169.65899999999999
 20
-13.733700000000001
 30
0.0
 70
    32
  0
VERTEX
  5
1A50
  8
241
 10
169.654
 20
-13.7401
 30
0.0
 70
    32
  0
VERTEX
  5
1A51
  8
241
 10
169.65000000000001
 20
-13.746499999999999
 30
0.0
 70
    32
  0
VERTEX
  5
1A52
  8
241
 10
169.64500000000001
 20
-13.753
 30
0.0
 70
    32
  0
VERTEX
  5
1A53
  8
241
 10
169.64099999999999
 20
-13.759399999999999
 30
0.0
 70
    32
  0
VERTEX
  5
1A54
  8
241
 10
169.637
 20
-13.7659
 30
0.0
 70
    32
  0
VERTEX
  5
1A55
  8
241
 10
169.63200000000001
 20
-13.772399999999999
 30
0.0
 70
    32
  0
VERTEX
  5
1A56
  8
241
 10
169.6279999999999
 20
-13.7789
 30
0.0
 70
    32
  0
VERTEX
  5
1A57
  8
241
 10
169.624
 20
-13.785399999999999
 30
0.0
 70
    32
  0
VERTEX
  5
1A58
  8
241
 10
169.619
 20
-13.7919
 30
0.0
 70
    32
  0
VERTEX
  5
1A59
  8
241
 10
169.61500000000001
 20
-13.798400000000001
 30
0.0
 70
    32
  0
VERTEX
  5
1A5A
  8
241
 10
169.61099999999999
 20
-13.8049
 30
0.0
 70
    32
  0
VERTEX
  5
1A5B
  8
241
 10
169.607
 20
-13.811500000000001
 30
0.0
 70
    32
  0
VERTEX
  5
1A5C
  8
241
 10
169.60300000000001
 20
-13.818
 30
0.0
 70
    32
  0
VERTEX
  5
1A5D
  8
241
 10
169.59899999999999
 20
-13.8246
 30
0.0
 70
    32
  0
VERTEX
  5
1A5E
  8
241
 10
169.59399999999999
 20
-13.831099999999999
 30
0.0
 70
    32
  0
VERTEX
  5
1A5F
  8
241
 10
169.59
 20
-13.8377
 30
0.0
 70
    32
  0
VERTEX
  5
1A60
  8
241
 10
169.58600000000001
 20
-13.8443
 30
0.0
 70
    32
  0
VERTEX
  5
1A61
  8
241
 10
169.58199999999999
 20
-13.850899999999999
 30
0.0
 70
    32
  0
VERTEX
  5
1A62
  8
241
 10
169.578
 20
-13.8575
 30
0.0
 70
    32
  0
VERTEX
  5
1A63
  8
241
 10
169.57400000000001
 20
-13.864100000000001
 30
0.0
 70
    32
  0
VERTEX
  5
1A64
  8
241
 10
169.56999999999999
 20
-13.870699999999999
 30
0.0
 70
    32
  0
VERTEX
  5
1A65
  8
241
 10
169.56599999999989
 20
-13.8773
 30
0.0
 70
    32
  0
VERTEX
  5
1A66
  8
241
 10
169.56200000000001
 20
-13.884
 30
0.0
 70
    32
  0
VERTEX
  5
1A67
  8
241
 10
169.559
 20
-13.890599999999999
 30
0.0
 70
    32
  0
VERTEX
  5
1A68
  8
241
 10
169.55500000000001
 20
-13.8973
 30
0.0
 70
    32
  0
VERTEX
  5
1A69
  8
241
 10
169.55099999999999
 20
-13.9039
 30
0.0
 70
    32
  0
VERTEX
  5
1A6A
  8
241
 10
169.547
 20
-13.910600000000001
 30
0.0
 70
    32
  0
VERTEX
  5
1A6B
  8
241
 10
169.54300000000001
 20
-13.917299999999999
 30
0.0
 70
    32
  0
VERTEX
  5
1A6C
  8
241
 10
169.53899999999999
 20
-13.923999999999999
 30
0.0
 70
    32
  0
VERTEX
  5
1A6D
  8
241
 10
169.53599999999989
 20
-13.9307
 30
0.0
 70
    32
  0
VERTEX
  5
1A6E
  8
241
 10
169.53200000000001
 20
-13.9374
 30
0.0
 70
    32
  0
VERTEX
  5
1A6F
  8
241
 10
169.52799999999999
 20
-13.944100000000001
 30
0.0
 70
    32
  0
VERTEX
  5
1A70
  8
241
 10
169.52500000000001
 20
-13.950799999999999
 30
0.0
 70
    32
  0
VERTEX
  5
1A71
  8
241
 10
169.52099999999999
 20
-13.9575
 30
0.0
 70
    32
  0
VERTEX
  5
1A72
  8
241
 10
169.517
 20
-13.9643
 30
0.0
 70
    32
  0
VERTEX
  5
1A73
  8
241
 10
169.51400000000001
 20
-13.971
 30
0.0
 70
    32
  0
VERTEX
  5
1A74
  8
241
 10
169.50999999999999
 20
-13.9778
 30
0.0
 70
    32
  0
VERTEX
  5
1A75
  8
241
 10
169.50599999999989
 20
-13.984500000000001
 30
0.0
 70
    32
  0
VERTEX
  5
1A76
  8
241
 10
169.50299999999999
 20
-13.991300000000001
 30
0.0
 70
    32
  0
VERTEX
  5
1A77
  8
241
 10
169.499
 20
-13.998100000000001
 30
0.0
 70
    32
  0
VERTEX
  5
1A78
  8
241
 10
169.49600000000001
 20
-14.004899999999999
 30
0.0
 70
    32
  0
VERTEX
  5
1A79
  8
241
 10
169.49199999999999
 20
-14.0116
 30
0.0
 70
    32
  0
VERTEX
  5
1A7A
  8
241
 10
169.489
 20
-14.0184
 30
0.0
 70
    32
  0
VERTEX
  5
1A7B
  8
241
 10
169.48599999999999
 20
-14.0252
 30
0.0
 70
    32
  0
VERTEX
  5
1A7C
  8
241
 10
169.482
 20
-14.032
 30
0.0
 70
    32
  0
VERTEX
  5
1A7D
  8
241
 10
169.47900000000001
 20
-14.0389
 30
0.0
 70
    32
  0
VERTEX
  5
1A7E
  8
241
 10
169.47499999999999
 20
-14.0457
 30
0.0
 70
    32
  0
VERTEX
  5
1A7F
  8
241
 10
169.47200000000001
 20
-14.0525
 30
0.0
 70
    32
  0
VERTEX
  5
1A80
  8
241
 10
169.46899999999999
 20
-14.0593
 30
0.0
 70
    32
  0
VERTEX
  5
1A81
  8
241
 10
169.46600000000001
 20
-14.0662
 30
0.0
 70
    32
  0
VERTEX
  5
1A82
  8
241
 10
169.46199999999999
 20
-14.073
 30
0.0
 70
    32
  0
VERTEX
  5
1A83
  8
241
 10
169.459
 20
-14.0799
 30
0.0
 70
    32
  0
VERTEX
  5
1A84
  8
241
 10
169.45599999999999
 20
-14.0867
 30
0.0
 70
    32
  0
VERTEX
  5
1A85
  8
241
 10
169.453
 20
-14.0936
 30
0.0
 70
    32
  0
VERTEX
  5
1A86
  8
241
 10
169.44999999999999
 20
-14.1005
 30
0.0
 70
    32
  0
VERTEX
  5
1A87
  8
241
 10
169.446
 20
-14.1074
 30
0.0
 70
    32
  0
VERTEX
  5
1A88
  8
241
 10
169.44300000000001
 20
-14.1143
 30
0.0
 70
    32
  0
VERTEX
  5
1A89
  8
241
 10
169.44
 20
-14.1212
 30
0.0
 70
    32
  0
VERTEX
  5
1A8A
  8
241
 10
169.43700000000001
 20
-14.1281
 30
0.0
 70
    32
  0
VERTEX
  5
1A8B
  8
241
 10
169.434
 20
-14.135
 30
0.0
 70
    32
  0
VERTEX
  5
1A8C
  8
241
 10
169.4309999999999
 20
-14.141999999999999
 30
0.0
 70
    32
  0
VERTEX
  5
1A8D
  8
241
 10
169.428
 20
-14.148899999999999
 30
0.0
 70
    32
  0
VERTEX
  5
1A8E
  8
241
 10
169.42500000000001
 20
-14.155900000000001
 30
0.0
 70
    32
  0
VERTEX
  5
1A8F
  8
241
 10
169.422
 20
-14.162800000000001
 30
0.0
 70
    32
  0
VERTEX
  5
1A90
  8
241
 10
169.41900000000001
 20
-14.1698
 30
0.0
 70
    32
  0
VERTEX
  5
1A91
  8
241
 10
169.416
 20
-14.1768
 30
0.0
 70
    32
  0
VERTEX
  5
1A92
  8
241
 10
169.41399999999999
 20
-14.1837
 30
0.0
 70
    32
  0
VERTEX
  5
1A93
  8
241
 10
169.411
 20
-14.1907
 30
0.0
 70
    32
  0
VERTEX
  5
1A94
  8
241
 10
169.40799999999999
 20
-14.197699999999999
 30
0.0
 70
    32
  0
VERTEX
  5
1A95
  8
241
 10
169.405
 20
-14.204700000000001
 30
0.0
 70
    32
  0
VERTEX
  5
1A96
  8
241
 10
169.40199999999999
 20
-14.2117
 30
0.0
 70
    32
  0
VERTEX
  5
1A97
  8
241
 10
169.40000000000001
 20
-14.2188
 30
0.0
 70
    32
  0
VERTEX
  5
1A98
  8
241
 10
169.39699999999999
 20
-14.2258
 30
0.0
 70
    32
  0
VERTEX
  5
1A99
  8
241
 10
169.39400000000001
 20
-14.232799999999999
 30
0.0
 70
    32
  0
VERTEX
  5
1A9A
  8
241
 10
169.39099999999999
 20
-14.2399
 30
0.0
 70
    32
  0
VERTEX
  5
1A9B
  8
241
 10
169.38900000000001
 20
-14.2469
 30
0.0
 70
    32
  0
VERTEX
  5
1A9C
  8
241
 10
169.386
 20
-14.254
 30
0.0
 70
    32
  0
VERTEX
  5
1A9D
  8
241
 10
169.38300000000001
 20
-14.261100000000001
 30
0.0
 70
    32
  0
VERTEX
  5
1A9E
  8
241
 10
169.381
 20
-14.2681
 30
0.0
 70
    32
  0
VERTEX
  5
1A9F
  8
241
 10
169.37799999999999
 20
-14.2752
 30
0.0
 70
    32
  0
VERTEX
  5
1AA0
  8
241
 10
169.37599999999989
 20
-14.282299999999999
 30
0.0
 70
    32
  0
VERTEX
  5
1AA1
  8
241
 10
169.37299999999999
 20
-14.289400000000001
 30
0.0
 70
    32
  0
VERTEX
  5
1AA2
  8
241
 10
169.37100000000001
 20
-14.2965
 30
0.0
 70
    32
  0
VERTEX
  5
1AA3
  8
241
 10
169.36799999999999
 20
-14.303599999999999
 30
0.0
 70
    32
  0
VERTEX
  5
1AA4
  8
241
 10
169.36600000000001
 20
-14.310700000000001
 30
0.0
 70
    32
  0
VERTEX
  5
1AA5
  8
241
 10
169.363
 20
-14.3179
 30
0.0
 70
    32
  0
VERTEX
  5
1AA6
  8
241
 10
169.36099999999999
 20
-14.324999999999999
 30
0.0
 70
    32
  0
VERTEX
  5
1AA7
  8
241
 10
169.35900000000001
 20
-14.332100000000001
 30
0.0
 70
    32
  0
VERTEX
  5
1AA8
  8
241
 10
169.35599999999999
 20
-14.3393
 30
0.0
 70
    32
  0
VERTEX
  5
1AA9
  8
241
 10
169.35400000000001
 20
-14.346399999999999
 30
0.0
 70
    32
  0
VERTEX
  5
1AAA
  8
241
 10
169.352
 20
-14.3536
 30
0.0
 70
    32
  0
VERTEX
  5
1AAB
  8
241
 10
169.34999999999999
 20
-14.3607
 30
0.0
 70
    32
  0
VERTEX
  5
1AAC
  8
241
 10
169.34700000000001
 20
-14.367900000000001
 30
0.0
 70
    32
  0
VERTEX
  5
1AAD
  8
241
 10
169.345
 20
-14.3751
 30
0.0
 70
    32
  0
VERTEX
  5
1AAE
  8
241
 10
169.34299999999999
 20
-14.382199999999999
 30
0.0
 70
    32
  0
VERTEX
  5
1AAF
  8
241
 10
169.34100000000001
 20
-14.3894
 30
0.0
 70
    32
  0
VERTEX
  5
1AB0
  8
241
 10
169.339
 20
-14.396599999999999
 30
0.0
 70
    32
  0
VERTEX
  5
1AB1
  8
241
 10
169.33600000000001
 20
-14.4038
 30
0.0
 70
    32
  0
VERTEX
  5
1AB2
  8
241
 10
169.334
 20
-14.411
 30
0.0
 70
    32
  0
VERTEX
  5
1AB3
  8
241
 10
169.33199999999999
 20
-14.418200000000001
 30
0.0
 70
    32
  0
VERTEX
  5
1AB4
  8
241
 10
169.33000000000001
 20
-14.4254
 30
0.0
 70
    32
  0
VERTEX
  5
1AB5
  8
241
 10
169.328
 20
-14.432600000000001
 30
0.0
 70
    32
  0
VERTEX
  5
1AB6
  8
241
 10
169.32599999999999
 20
-14.4399
 30
0.0
 70
    32
  0
VERTEX
  5
1AB7
  8
241
 10
169.32400000000001
 20
-14.447100000000001
 30
0.0
 70
    32
  0
VERTEX
  5
1AB8
  8
241
 10
169.322
 20
-14.4543
 30
0.0
 70
    32
  0
VERTEX
  5
1AB9
  8
241
 10
169.31999999999999
 20
-14.461600000000001
 30
0.0
 70
    32
  0
VERTEX
  5
1ABA
  8
241
 10
169.31800000000001
 20
-14.4688
 30
0.0
 70
    32
  0
VERTEX
  5
1ABB
  8
241
 10
169.31700000000001
 20
-14.476000000000001
 30
0.0
 70
    32
  0
VERTEX
  5
1ABC
  8
241
 10
169.315
 20
-14.4833
 30
0.0
 70
    32
  0
VERTEX
  5
1ABD
  8
241
 10
169.31299999999999
 20
-14.490600000000001
 30
0.0
 70
    32
  0
VERTEX
  5
1ABE
  8
241
 10
169.31100000000001
 20
-14.4978
 30
0.0
 70
    32
  0
VERTEX
  5
1ABF
  8
241
 10
169.309
 20
-14.505100000000001
 30
0.0
 70
    32
  0
VERTEX
  5
1AC0
  8
241
 10
169.30799999999999
 20
-14.5124
 30
0.0
 70
    32
  0
VERTEX
  5
1AC1
  8
241
 10
169.30600000000001
 20
-14.519600000000001
 30
0.0
 70
    32
  0
VERTEX
  5
1AC2
  8
241
 10
169.304
 20
-14.526899999999999
 30
0.0
 70
    32
  0
VERTEX
  5
1AC3
  8
241
 10
169.303
 20
-14.5342
 30
0.0
 70
    32
  0
VERTEX
  5
1AC4
  8
241
 10
169.30099999999999
 20
-14.541499999999999
 30
0.0
 70
    32
  0
VERTEX
  5
1AC5
  8
241
 10
169.29900000000001
 20
-14.5488
 30
0.0
 70
    32
  0
VERTEX
  5
1AC6
  8
241
 10
169.298
 20
-14.555999999999999
 30
0.0
 70
    32
  0
VERTEX
  5
1AC7
  8
241
 10
169.29599999999999
 20
-14.5633
 30
0.0
 70
    32
  0
VERTEX
  5
1AC8
  8
241
 10
169.29499999999999
 20
-14.570600000000001
 30
0.0
 70
    32
  0
VERTEX
  5
1AC9
  8
241
 10
169.29300000000001
 20
-14.5779
 30
0.0
 70
    32
  0
VERTEX
  5
1ACA
  8
241
 10
169.292
 20
-14.5852
 30
0.0
 70
    32
  0
VERTEX
  5
1ACB
  8
241
 10
169.28999999999999
 20
-14.592499999999999
 30
0.0
 70
    32
  0
VERTEX
  5
1ACC
  8
241
 10
169.28899999999999
 20
-14.5997
 30
0.0
 70
    32
  0
VERTEX
  5
1ACD
  8
241
 10
169.28700000000001
 20
-14.606999999999999
 30
0.0
 70
    32
  0
VERTEX
  5
1ACE
  8
241
 10
169.286
 20
-14.6143
 30
0.0
 70
    32
  0
VERTEX
  5
1ACF
  8
241
 10
169.285
 20
-14.621600000000001
 30
0.0
 70
    32
  0
VERTEX
  5
1AD0
  8
241
 10
169.28299999999999
 20
-14.6289
 30
0.0
 70
    32
  0
VERTEX
  5
1AD1
  8
241
 10
169.28200000000001
 20
-14.636200000000001
 30
0.0
 70
    32
  0
VERTEX
  5
1AD2
  8
241
 10
169.28099999999989
 20
-14.6435
 30
0.0
 70
    32
  0
VERTEX
  5
1AD3
  8
241
 10
169.279
 20
-14.650700000000001
 30
0.0
 70
    32
  0
VERTEX
  5
1AD4
  8
241
 10
169.27799999999999
 20
-14.657999999999999
 30
0.0
 70
    32
  0
VERTEX
  5
1AD5
  8
241
 10
169.27699999999999
 20
-14.6653
 30
0.0
 70
    32
  0
VERTEX
  5
1AD6
  8
241
 10
169.2759999999999
 20
-14.672599999999999
 30
0.0
 70
    32
  0
VERTEX
  5
1AD7
  8
241
 10
169.27500000000001
 20
-14.6799
 30
0.0
 70
    32
  0
VERTEX
  5
1AD8
  8
241
 10
169.274
 20
-14.687200000000001
 30
0.0
 70
    32
  0
VERTEX
  5
1AD9
  8
241
 10
169.273
 20
-14.6945
 30
0.0
 70
    32
  0
VERTEX
  5
1ADA
  8
241
 10
169.27099999999999
 20
-14.701700000000001
 30
0.0
 70
    32
  0
VERTEX
  5
1ADB
  8
241
 10
169.27000000000001
 20
-14.709
 30
0.0
 70
    32
  0
VERTEX
  5
1ADC
  8
241
 10
169.26900000000001
 20
-14.7163
 30
0.0
 70
    32
  0
VERTEX
  5
1ADD
  8
241
 10
169.268
 20
-14.723599999999999
 30
0.0
 70
    32
  0
VERTEX
  5
1ADE
  8
241
 10
169.267
 20
-14.7309
 30
0.0
 70
    32
  0
VERTEX
  5
1ADF
  8
241
 10
169.267
 20
-14.738200000000001
 30
0.0
 70
    32
  0
VERTEX
  5
1AE0
  8
241
 10
169.26599999999999
 20
-14.7455
 30
0.0
 70
    32
  0
VERTEX
  5
1AE1
  8
241
 10
169.26499999999999
 20
-14.752700000000001
 30
0.0
 70
    32
  0
VERTEX
  5
1AE2
  8
241
 10
169.26400000000001
 20
-14.76
 30
0.0
 70
    32
  0
VERTEX
  5
1AE3
  8
241
 10
169.26300000000001
 20
-14.767300000000001
 30
0.0
 70
    32
  0
VERTEX
  5
1AE4
  8
241
 10
169.262
 20
-14.7746
 30
0.0
 70
    32
  0
VERTEX
  5
1AE5
  8
241
 10
169.261
 20
-14.7819
 30
0.0
 70
    32
  0
VERTEX
  5
1AE6
  8
241
 10
169.261
 20
-14.789199999999999
 30
0.0
 70
    32
  0
VERTEX
  5
1AE7
  8
241
 10
169.25999999999999
 20
-14.7965
 30
0.0
 70
    32
  0
VERTEX
  5
1AE8
  8
241
 10
169.25899999999999
 20
-14.803800000000001
 30
0.0
 70
    32
  0
VERTEX
  5
1AE9
  8
241
 10
169.25899999999999
 20
-14.811
 30
0.0
 70
    32
  0
VERTEX
  5
1AEA
  8
241
 10
169.2579999999999
 20
-14.818300000000001
 30
0.0
 70
    32
  0
VERTEX
  5
1AEB
  8
241
 10
169.25700000000001
 20
-14.8256
 30
0.0
 70
    32
  0
VERTEX
  5
1AEC
  8
241
 10
169.25700000000001
 20
-14.8329
 30
0.0
 70
    32
  0
VERTEX
  5
1AED
  8
241
 10
169.256
 20
-14.840199999999999
 30
0.0
 70
    32
  0
VERTEX
  5
1AEE
  8
241
 10
169.256
 20
-14.8475
 30
0.0
 70
    32
  0
VERTEX
  5
1AEF
  8
241
 10
169.255
 20
-14.854799999999999
 30
0.0
 70
    32
  0
VERTEX
  5
1AF0
  8
241
 10
169.255
 20
-14.8621
 30
0.0
 70
    32
  0
VERTEX
  5
1AF1
  8
241
 10
169.25399999999999
 20
-14.869300000000001
 30
0.0
 70
    32
  0
VERTEX
  5
1AF2
  8
241
 10
169.25399999999999
 20
-14.8766
 30
0.0
 70
    32
  0
VERTEX
  5
1AF3
  8
241
 10
169.25299999999999
 20
-14.883900000000001
 30
0.0
 70
    32
  0
VERTEX
  5
1AF4
  8
241
 10
169.25299999999999
 20
-14.8912
 30
0.0
 70
    32
  0
VERTEX
  5
1AF5
  8
241
 10
169.25200000000001
 20
-14.8985
 30
0.0
 70
    32
  0
VERTEX
  5
1AF6
  8
241
 10
169.25200000000001
 20
-14.905799999999999
 30
0.0
 70
    32
  0
VERTEX
  5
1AF7
  8
241
 10
169.25200000000001
 20
-14.9131
 30
0.0
 70
    32
  0
VERTEX
  5
1AF8
  8
241
 10
169.25200000000001
 20
-14.920400000000001
 30
0.0
 70
    32
  0
VERTEX
  5
1AF9
  8
241
 10
169.25099999999989
 20
-14.9276
 30
0.0
 70
    32
  0
VERTEX
  5
1AFA
  8
241
 10
169.25099999999989
 20
-14.934900000000001
 30
0.0
 70
    32
  0
VERTEX
  5
1AFB
  8
241
 10
169.25099999999989
 20
-14.9422
 30
0.0
 70
    32
  0
VERTEX
  5
1AFC
  8
241
 10
169.25099999999989
 20
-14.9495
 30
0.0
 70
    32
  0
VERTEX
  5
1AFD
  8
241
 10
169.25
 20
-14.956799999999999
 30
0.0
 70
    32
  0
VERTEX
  5
1AFE
  8
241
 10
169.25
 20
-14.9641
 30
0.0
 70
    32
  0
VERTEX
  5
1AFF
  8
241
 10
169.25
 20
-14.971399999999999
 30
0.0
 70
    32
  0
VERTEX
  5
1B00
  8
241
 10
169.25
 20
-14.9787
 30
0.0
 70
    32
  0
VERTEX
  5
1B01
  8
241
 10
169.25
 20
-14.985900000000001
 30
0.0
 70
    32
  0
VERTEX
  5
1B02
  8
241
 10
169.25
 20
-14.9932
 30
0.0
 70
    32
  0
VERTEX
  5
1B03
  8
241
 10
169.25
 20
-15.000500000000001
 30
0.0
 70
    32
  0
VERTEX
  5
1B04
  8
241
 10
169.25
 20
-15.0078
 30
0.0
 70
    32
  0
VERTEX
  5
1B05
  8
241
 10
169.25
 20
-15.0151
 30
0.0
 70
    32
  0
VERTEX
  5
1B06
  8
241
 10
169.25
 20
-15.022399999999999
 30
0.0
 70
    32
  0
VERTEX
  5
1B07
  8
241
 10
169.25
 20
-15.0297
 30
0.0
 70
    32
  0
VERTEX
  5
1B08
  8
241
 10
169.25
 20
-15.037000000000001
 30
0.0
 70
    32
  0
VERTEX
  5
1B09
  8
241
 10
169.25
 20
-15.0443
 30
0.0
 70
    32
  0
VERTEX
  5
1B0A
  8
241
 10
169.25099999999989
 20
-15.051600000000001
 30
0.0
 70
    32
  0
VERTEX
  5
1B0B
  8
241
 10
169.25099999999989
 20
-15.0589
 30
0.0
 70
    32
  0
VERTEX
  5
1B0C
  8
241
 10
169.25099999999989
 20
-15.0662
 30
0.0
 70
    32
  0
VERTEX
  5
1B0D
  8
241
 10
169.25099999999989
 20
-15.073499999999999
 30
0.0
 70
    32
  0
VERTEX
  5
1B0E
  8
241
 10
169.25200000000001
 20
-15.0808
 30
0.0
 70
    32
  0
VERTEX
  5
1B0F
  8
241
 10
169.25200000000001
 20
-15.088100000000001
 30
0.0
 70
    32
  0
VERTEX
  5
1B10
  8
241
 10
169.25200000000001
 20
-15.0954
 30
0.0
 70
    32
  0
VERTEX
  5
1B11
  8
241
 10
169.25299999999999
 20
-15.1027
 30
0.0
 70
    32
  0
VERTEX
  5
1B12
  8
241
 10
169.25299999999999
 20
-15.109999999999999
 30
0.0
 70
    32
  0
VERTEX
  5
1B13
  8
241
 10
169.25299999999999
 20
-15.1173
 30
0.0
 70
    32
  0
VERTEX
  5
1B14
  8
241
 10
169.25399999999999
 20
-15.124599999999999
 30
0.0
 70
    32
  0
VERTEX
  5
1B15
  8
241
 10
169.25399999999999
 20
-15.1319
 30
0.0
 70
    32
  0
VERTEX
  5
1B16
  8
241
 10
169.255
 20
-15.139200000000001
 30
0.0
 70
    32
  0
VERTEX
  5
1B17
  8
241
 10
169.255
 20
-15.1465
 30
0.0
 70
    32
  0
VERTEX
  5
1B18
  8
241
 10
169.256
 20
-15.1538
 30
0.0
 70
    32
  0
VERTEX
  5
1B19
  8
241
 10
169.256
 20
-15.161099999999999
 30
0.0
 70
    32
  0
VERTEX
  5
1B1A
  8
241
 10
169.25700000000001
 20
-15.1684
 30
0.0
 70
    32
  0
VERTEX
  5
1B1B
  8
241
 10
169.2579999999999
 20
-15.175700000000001
 30
0.0
 70
    32
  0
VERTEX
  5
1B1C
  8
241
 10
169.2579999999999
 20
-15.183
 30
0.0
 70
    32
  0
VERTEX
  5
1B1D
  8
241
 10
169.25899999999999
 20
-15.190300000000001
 30
0.0
 70
    32
  0
VERTEX
  5
1B1E
  8
241
 10
169.25999999999999
 20
-15.1976
 30
0.0
 70
    32
  0
VERTEX
  5
1B1F
  8
241
 10
169.25999999999999
 20
-15.2049
 30
0.0
 70
    32
  0
VERTEX
  5
1B20
  8
241
 10
169.261
 20
-15.212199999999999
 30
0.0
 70
    32
  0
VERTEX
  5
1B21
  8
241
 10
169.262
 20
-15.2195
 30
0.0
 70
    32
  0
VERTEX
  5
1B22
  8
241
 10
169.26300000000001
 20
-15.226800000000001
 30
0.0
 70
    32
  0
VERTEX
  5
1B23
  8
241
 10
169.26300000000001
 20
-15.234
 30
0.0
 70
    32
  0
VERTEX
  5
1B24
  8
241
 10
169.26400000000001
 20
-15.241300000000001
 30
0.0
 70
    32
  0
VERTEX
  5
1B25
  8
241
 10
169.26499999999999
 20
-15.2486
 30
0.0
 70
    32
  0
VERTEX
  5
1B26
  8
241
 10
169.26599999999999
 20
-15.255800000000001
 30
0.0
 70
    32
  0
VERTEX
  5
1B27
  8
241
 10
169.267
 20
-15.2631
 30
0.0
 70
    32
  0
VERTEX
  5
1B28
  8
241
 10
169.268
 20
-15.2704
 30
0.0
 70
    32
  0
VERTEX
  5
1B29
  8
241
 10
169.26900000000001
 20
-15.2776
 30
0.0
 70
    32
  0
VERTEX
  5
1B2A
  8
241
 10
169.27000000000001
 20
-15.2849
 30
0.0
 70
    32
  0
VERTEX
  5
1B2B
  8
241
 10
169.27099999999999
 20
-15.2921
 30
0.0
 70
    32
  0
VERTEX
  5
1B2C
  8
241
 10
169.27199999999999
 20
-15.2994
 30
0.0
 70
    32
  0
VERTEX
  5
1B2D
  8
241
 10
169.273
 20
-15.3066
 30
0.0
 70
    32
  0
VERTEX
  5
1B2E
  8
241
 10
169.274
 20
-15.313800000000001
 30
0.0
 70
    32
  0
VERTEX
  5
1B2F
  8
241
 10
169.27500000000001
 20
-15.321099999999999
 30
0.0
 70
    32
  0
VERTEX
  5
1B30
  8
241
 10
169.27699999999999
 20
-15.3283
 30
0.0
 70
    32
  0
VERTEX
  5
1B31
  8
241
 10
169.27799999999999
 20
-15.3355
 30
0.0
 70
    32
  0
VERTEX
  5
1B32
  8
241
 10
169.279
 20
-15.342700000000001
 30
0.0
 70
    32
  0
VERTEX
  5
1B33
  8
241
 10
169.28
 20
-15.3499
 30
0.0
 70
    32
  0
VERTEX
  5
1B34
  8
241
 10
169.28099999999989
 20
-15.357100000000001
 30
0.0
 70
    32
  0
VERTEX
  5
1B35
  8
241
 10
169.28299999999999
 20
-15.3643
 30
0.0
 70
    32
  0
VERTEX
  5
1B36
  8
241
 10
169.28399999999999
 20
-15.371499999999999
 30
0.0
 70
    32
  0
VERTEX
  5
1B37
  8
241
 10
169.285
 20
-15.3787
 30
0.0
 70
    32
  0
VERTEX
  5
1B38
  8
241
 10
169.28700000000001
 20
-15.385899999999999
 30
0.0
 70
    32
  0
VERTEX
  5
1B39
  8
241
 10
169.28800000000001
 20
-15.393000000000001
 30
0.0
 70
    32
  0
VERTEX
  5
1B3A
  8
241
 10
169.28899999999999
 20
-15.4002
 30
0.0
 70
    32
  0
VERTEX
  5
1B3B
  8
241
 10
169.291
 20
-15.407400000000001
 30
0.0
 70
    32
  0
VERTEX
  5
1B3C
  8
241
 10
169.292
 20
-15.4145
 30
0.0
 70
    32
  0
VERTEX
  5
1B3D
  8
241
 10
169.29400000000001
 20
-15.4216
 30
0.0
 70
    32
  0
VERTEX
  5
1B3E
  8
241
 10
169.29499999999999
 20
-15.428800000000001
 30
0.0
 70
    32
  0
VERTEX
  5
1B3F
  8
241
 10
169.297
 20
-15.4359
 30
0.0
 70
    32
  0
VERTEX
  5
1B40
  8
241
 10
169.298
 20
-15.443
 30
0.0
 70
    32
  0
VERTEX
  5
1B41
  8
241
 10
169.30000000000001
 20
-15.450100000000001
 30
0.0
 70
    32
  0
VERTEX
  5
1B42
  8
241
 10
169.30199999999999
 20
-15.4572
 30
0.0
 70
    32
  0
VERTEX
  5
1B43
  8
241
 10
169.303
 20
-15.4643
 30
0.0
 70
    32
  0
VERTEX
  5
1B44
  8
241
 10
169.30500000000001
 20
-15.471399999999999
 30
0.0
 70
    32
  0
VERTEX
  5
1B45
  8
241
 10
169.30699999999999
 20
-15.4785
 30
0.0
 70
    32
  0
VERTEX
  5
1B46
  8
241
 10
169.30799999999999
 20
-15.4855
 30
0.0
 70
    32
  0
VERTEX
  5
1B47
  8
241
 10
169.31
 20
-15.492599999999999
 30
0.0
 70
    32
  0
VERTEX
  5
1B48
  8
241
 10
169.31200000000001
 20
-15.499700000000001
 30
0.0
 70
    32
  0
VERTEX
  5
1B49
  8
241
 10
169.31399999999999
 20
-15.5067
 30
0.0
 70
    32
  0
VERTEX
  5
1B4A
  8
241
 10
169.31599999999989
 20
-15.5138
 30
0.0
 70
    32
  0
VERTEX
  5
1B4B
  8
241
 10
169.31700000000001
 20
-15.520799999999999
 30
0.0
 70
    32
  0
VERTEX
  5
1B4C
  8
241
 10
169.31899999999999
 20
-15.527799999999999
 30
0.0
 70
    32
  0
VERTEX
  5
1B4D
  8
241
 10
169.321
 20
-15.534800000000001
 30
0.0
 70
    32
  0
VERTEX
  5
1B4E
  8
241
 10
169.32299999999989
 20
-15.5418
 30
0.0
 70
    32
  0
VERTEX
  5
1B4F
  8
241
 10
169.32499999999999
 20
-15.5488
 30
0.0
 70
    32
  0
VERTEX
  5
1B50
  8
241
 10
169.327
 20
-15.5558
 30
0.0
 70
    32
  0
VERTEX
  5
1B51
  8
241
 10
169.32900000000001
 20
-15.562799999999999
 30
0.0
 70
    32
  0
VERTEX
  5
1B52
  8
241
 10
169.33099999999999
 20
-15.569800000000001
 30
0.0
 70
    32
  0
VERTEX
  5
1B53
  8
241
 10
169.333
 20
-15.5768
 30
0.0
 70
    32
  0
VERTEX
  5
1B54
  8
241
 10
169.33500000000001
 20
-15.5838
 30
0.0
 70
    32
  0
VERTEX
  5
1B55
  8
241
 10
169.33699999999999
 20
-15.5907
 30
0.0
 70
    32
  0
VERTEX
  5
1B56
  8
241
 10
169.339
 20
-15.5977
 30
0.0
 70
    32
  0
VERTEX
  5
1B57
  8
241
 10
169.34100000000001
 20
-15.6046
 30
0.0
 70
    32
  0
VERTEX
  5
1B58
  8
241
 10
169.34299999999999
 20
-15.611599999999999
 30
0.0
 70
    32
  0
VERTEX
  5
1B59
  8
241
 10
169.34599999999989
 20
-15.618499999999999
 30
0.0
 70
    32
  0
VERTEX
  5
1B5A
  8
241
 10
169.34800000000001
 20
-15.625400000000001
 30
0.0
 70
    32
  0
VERTEX
  5
1B5B
  8
241
 10
169.34999999999999
 20
-15.632300000000001
 30
0.0
 70
    32
  0
VERTEX
  5
1B5C
  8
241
 10
169.352
 20
-15.639200000000001
 30
0.0
 70
    32
  0
VERTEX
  5
1B5D
  8
241
 10
169.35499999999999
 20
-15.646100000000001
 30
0.0
 70
    32
  0
VERTEX
  5
1B5E
  8
241
 10
169.357
 20
-15.653
 30
0.0
 70
    32
  0
VERTEX
  5
1B5F
  8
241
 10
169.35900000000001
 20
-15.6599
 30
0.0
 70
    32
  0
VERTEX
  5
1B60
  8
241
 10
169.36199999999999
 20
-15.6668
 30
0.0
 70
    32
  0
VERTEX
  5
1B61
  8
241
 10
169.364
 20
-15.6737
 30
0.0
 70
    32
  0
VERTEX
  5
1B62
  8
241
 10
169.36600000000001
 20
-15.6805
 30
0.0
 70
    32
  0
VERTEX
  5
1B63
  8
241
 10
169.369
 20
-15.6874
 30
0.0
 70
    32
  0
VERTEX
  5
1B64
  8
241
 10
169.37100000000001
 20
-15.6942
 30
0.0
 70
    32
  0
VERTEX
  5
1B65
  8
241
 10
169.374
 20
-15.7011
 30
0.0
 70
    32
  0
VERTEX
  5
1B66
  8
241
 10
169.37599999999989
 20
-15.7079
 30
0.0
 70
    32
  0
VERTEX
  5
1B67
  8
241
 10
169.37899999999999
 20
-15.7148
 30
0.0
 70
    32
  0
VERTEX
  5
1B68
  8
241
 10
169.381
 20
-15.7216
 30
0.0
 70
    32
  0
VERTEX
  5
1B69
  8
241
 10
169.38399999999999
 20
-15.728400000000001
 30
0.0
 70
    32
  0
VERTEX
  5
1B6A
  8
241
 10
169.387
 20
-15.735200000000001
 30
0.0
 70
    32
  0
VERTEX
  5
1B6B
  8
241
 10
169.38900000000001
 20
-15.742000000000001
 30
0.0
 70
    32
  0
VERTEX
  5
1B6C
  8
241
 10
169.392
 20
-15.748799999999999
 30
0.0
 70
    32
  0
VERTEX
  5
1B6D
  8
241
 10
169.39500000000001
 20
-15.755599999999999
 30
0.0
 70
    32
  0
VERTEX
  5
1B6E
  8
241
 10
169.39699999999999
 20
-15.7624
 30
0.0
 70
    32
  0
VERTEX
  5
1B6F
  8
241
 10
169.40000000000001
 20
-15.7691
 30
0.0
 70
    32
  0
VERTEX
  5
1B70
  8
241
 10
169.40299999999999
 20
-15.7759
 30
0.0
 70
    32
  0
VERTEX
  5
1B71
  8
241
 10
169.40600000000001
 20
-15.7827
 30
0.0
 70
    32
  0
VERTEX
  5
1B72
  8
241
 10
169.40799999999999
 20
-15.789400000000001
 30
0.0
 70
    32
  0
VERTEX
  5
1B73
  8
241
 10
169.411
 20
-15.796099999999999
 30
0.0
 70
    32
  0
VERTEX
  5
1B74
  8
241
 10
169.41399999999999
 20
-15.802899999999999
 30
0.0
 70
    32
  0
VERTEX
  5
1B75
  8
241
 10
169.417
 20
-15.8096
 30
0.0
 70
    32
  0
VERTEX
  5
1B76
  8
241
 10
169.41999999999999
 20
-15.8163
 30
0.0
 70
    32
  0
VERTEX
  5
1B77
  8
241
 10
169.423
 20
-15.823
 30
0.0
 70
    32
  0
VERTEX
  5
1B78
  8
241
 10
169.42599999999999
 20
-15.829800000000001
 30
0.0
 70
    32
  0
VERTEX
  5
1B79
  8
241
 10
169.429
 20
-15.836399999999999
 30
0.0
 70
    32
  0
VERTEX
  5
1B7A
  8
241
 10
169.43199999999999
 20
-15.8431
 30
0.0
 70
    32
  0
VERTEX
  5
1B7B
  8
241
 10
169.435
 20
-15.8498
 30
0.0
 70
    32
  0
VERTEX
  5
1B7C
  8
241
 10
169.43799999999999
 20
-15.8565
 30
0.0
 70
    32
  0
VERTEX
  5
1B7D
  8
241
 10
169.44099999999989
 20
-15.863200000000001
 30
0.0
 70
    32
  0
VERTEX
  5
1B7E
  8
241
 10
169.44399999999999
 20
-15.8698
 30
0.0
 70
    32
  0
VERTEX
  5
1B7F
  8
241
 10
169.447
 20
-15.8765
 30
0.0
 70
    32
  0
VERTEX
  5
1B80
  8
241
 10
169.44999999999999
 20
-15.883100000000001
 30
0.0
 70
    32
  0
VERTEX
  5
1B81
  8
241
 10
169.453
 20
-15.889799999999999
 30
0.0
 70
    32
  0
VERTEX
  5
1B82
  8
241
 10
169.45699999999999
 20
-15.8964
 30
0.0
 70
    32
  0
VERTEX
  5
1B83
  8
241
 10
169.46000000000001
 20
-15.9031
 30
0.0
 70
    32
  0
VERTEX
  5
1B84
  8
241
 10
169.46299999999999
 20
-15.909700000000001
 30
0.0
 70
    32
  0
VERTEX
  5
1B85
  8
241
 10
169.46600000000001
 20
-15.9163
 30
0.0
 70
    32
  0
VERTEX
  5
1B86
  8
241
 10
169.47
 20
-15.9229
 30
0.0
 70
    32
  0
VERTEX
  5
1B87
  8
241
 10
169.47300000000001
 20
-15.929500000000001
 30
0.0
 70
    32
  0
VERTEX
  5
1B88
  8
241
 10
169.476
 20
-15.9361
 30
0.0
 70
    32
  0
VERTEX
  5
1B89
  8
241
 10
169.47999999999999
 20
-15.942600000000001
 30
0.0
 70
    32
  0
VERTEX
  5
1B8A
  8
241
 10
169.483
 20
-15.949199999999999
 30
0.0
 70
    32
  0
VERTEX
  5
1B8B
  8
241
 10
169.48599999999999
 20
-15.9558
 30
0.0
 70
    32
  0
VERTEX
  5
1B8C
  8
241
 10
169.49000000000001
 20
-15.962300000000001
 30
0.0
 70
    32
  0
VERTEX
  5
1B8D
  8
241
 10
169.49299999999999
 20
-15.9689
 30
0.0
 70
    32
  0
VERTEX
  5
1B8E
  8
241
 10
169.49700000000001
 20
-15.9754
 30
0.0
 70
    32
  0
VERTEX
  5
1B8F
  8
241
 10
169.5
 20
-15.9819
 30
0.0
 70
    32
  0
VERTEX
  5
1B90
  8
241
 10
169.50399999999999
 20
-15.9884
 30
0.0
 70
    32
  0
VERTEX
  5
1B91
  8
241
 10
169.50800000000001
 20
-15.994899999999999
 30
0.0
 70
    32
  0
VERTEX
  5
1B92
  8
241
 10
169.511
 20
-16.0014
 30
0.0
 70
    32
  0
VERTEX
  5
1B93
  8
241
 10
169.51499999999999
 20
-16.007899999999999
 30
0.0
 70
    32
  0
VERTEX
  5
1B94
  8
241
 10
169.518
 20
-16.014399999999998
 30
0.0
 70
    32
  0
VERTEX
  5
1B95
  8
241
 10
169.52199999999999
 20
-16.020900000000001
 30
0.0
 70
    32
  0
VERTEX
  5
1B96
  8
241
 10
169.52600000000001
 20
-16.0273
 30
0.0
 70
    32
  0
VERTEX
  5
1B97
  8
241
 10
169.529
 20
-16.033799999999999
 30
0.0
 70
    32
  0
VERTEX
  5
1B98
  8
241
 10
169.53299999999999
 20
-16.040199999999999
 30
0.0
 70
    32
  0
VERTEX
  5
1B99
  8
241
 10
169.53700000000001
 20
-16.046600000000002
 30
0.0
 70
    32
  0
VERTEX
  5
1B9A
  8
241
 10
169.541
 20
-16.053000000000001
 30
0.0
 70
    32
  0
VERTEX
  5
1B9B
  8
241
 10
169.54499999999999
 20
-16.0594
 30
0.0
 70
    32
  0
VERTEX
  5
1B9C
  8
241
 10
169.548
 20
-16.065799999999999
 30
0.0
 70
    32
  0
VERTEX
  5
1B9D
  8
241
 10
169.55199999999999
 20
-16.072199999999999
 30
0.0
 70
    32
  0
VERTEX
  5
1B9E
  8
241
 10
169.55600000000001
 20
-16.078600000000002
 30
0.0
 70
    32
  0
VERTEX
  5
1B9F
  8
241
 10
169.56
 20
-16.084900000000001
 30
0.0
 70
    32
  0
VERTEX
  5
1BA0
  8
241
 10
169.56399999999999
 20
-16.0913
 30
0.0
 70
    32
  0
VERTEX
  5
1BA1
  8
241
 10
169.56800000000001
 20
-16.0976
 30
0.0
 70
    32
  0
VERTEX
  5
1BA2
  8
241
 10
169.572
 20
-16.103899999999999
 30
0.0
 70
    32
  0
VERTEX
  5
1BA3
  8
241
 10
169.57599999999999
 20
-16.110299999999999
 30
0.0
 70
    32
  0
VERTEX
  5
1BA4
  8
241
 10
169.58000000000001
 20
-16.116599999999998
 30
0.0
 70
    32
  0
VERTEX
  5
1BA5
  8
241
 10
169.584
 20
-16.122800000000002
 30
0.0
 70
    32
  0
VERTEX
  5
1BA6
  8
241
 10
169.58799999999999
 20
-16.129100000000001
 30
0.0
 70
    32
  0
VERTEX
  5
1BA7
  8
241
 10
169.59200000000001
 20
-16.135400000000001
 30
0.0
 70
    32
  0
VERTEX
  5
1BA8
  8
241
 10
169.59599999999989
 20
-16.1416
 30
0.0
 70
    32
  0
VERTEX
  5
1BA9
  8
241
 10
169.59999999999999
 20
-16.1479
 30
0.0
 70
    32
  0
VERTEX
  5
1BAA
  8
241
 10
169.60400000000001
 20
-16.1541
 30
0.0
 70
    32
  0
VERTEX
  5
1BAB
  8
241
 10
169.60900000000001
 20
-16.160299999999999
 30
0.0
 70
    32
  0
VERTEX
  5
1BAC
  8
241
 10
169.613
 20
-16.166499999999999
 30
0.0
 70
    32
  0
VERTEX
  5
1BAD
  8
241
 10
169.61699999999999
 20
-16.172699999999999
 30
0.0
 70
    32
  0
VERTEX
  5
1BAE
  8
241
 10
169.6209999999999
 20
-16.178899999999999
 30
0.0
 70
    32
  0
VERTEX
  5
1BAF
  8
241
 10
169.625
 20
-16.184999999999999
 30
0.0
 70
    32
  0
VERTEX
  5
1BB0
  8
241
 10
169.63
 20
-16.191199999999998
 30
0.0
 70
    32
  0
VERTEX
  5
1BB1
  8
241
 10
169.63399999999999
 20
-16.197299999999998
 30
0.0
 70
    32
  0
VERTEX
  5
1BB2
  8
241
 10
169.63800000000001
 20
-16.203399999999998
 30
0.0
 70
    32
  0
VERTEX
  5
1BB3
  8
241
 10
169.643
 20
-16.209599999999998
 30
0.0
 70
    32
  0
VERTEX
  5
1BB4
  8
241
 10
169.64699999999999
 20
-16.215699999999998
 30
0.0
 70
    32
  0
VERTEX
  5
1BB5
  8
241
 10
169.65100000000001
 20
-16.221699999999998
 30
0.0
 70
    32
  0
VERTEX
  5
1BB6
  8
241
 10
169.65600000000001
 20
-16.227799999999998
 30
0.0
 70
    32
  0
VERTEX
  5
1BB7
  8
241
 10
169.66
 20
-16.233799999999999
 30
0.0
 70
    32
  0
VERTEX
  5
1BB8
  8
241
 10
169.66499999999999
 20
-16.239899999999999
 30
0.0
 70
    32
  0
VERTEX
  5
1BB9
  8
241
 10
169.66900000000001
 20
-16.245899999999999
 30
0.0
 70
    32
  0
VERTEX
  5
1BBA
  8
241
 10
169.67400000000001
 20
-16.251899999999999
 30
0.0
 70
    32
  0
VERTEX
  5
1BBB
  8
241
 10
169.678
 20
-16.257899999999999
 30
0.0
 70
    32
  0
VERTEX
  5
1BBC
  8
241
 10
169.68299999999999
 20
-16.2639
 30
0.0
 70
    32
  0
VERTEX
  5
1BBD
  8
241
 10
169.68700000000001
 20
-16.2699
 30
0.0
 70
    32
  0
VERTEX
  5
1BBE
  8
241
 10
169.69200000000001
 20
-16.2758
 30
0.0
 70
    32
  0
VERTEX
  5
1BBF
  8
241
 10
169.696
 20
-16.281700000000001
 30
0.0
 70
    32
  0
VERTEX
  5
1BC0
  8
241
 10
169.70099999999999
 20
-16.287700000000001
 30
0.0
 70
    32
  0
VERTEX
  5
1BC1
  8
241
 10
169.70500000000001
 20
-16.293600000000001
 30
0.0
 70
    32
  0
VERTEX
  5
1BC2
  8
241
 10
169.71000000000001
 20
-16.299499999999998
 30
0.0
 70
    32
  0
VERTEX
  5
1BC3
  8
241
 10
169.715
 20
-16.305299999999999
 30
0.0
 70
    32
  0
VERTEX
  5
1BC4
  8
241
 10
169.71899999999999
 20
-16.311199999999999
 30
0.0
 70
    32
  0
VERTEX
  5
1BC5
  8
241
 10
169.72399999999999
 20
-16.317
 30
0.0
 70
    32
  0
VERTEX
  5
1BC6
  8
241
 10
169.72900000000001
 20
-16.322900000000001
 30
0.0
 70
    32
  0
VERTEX
  5
1BC7
  8
241
 10
169.73400000000001
 20
-16.328700000000001
 30
0.0
 70
    32
  0
VERTEX
  5
1BC8
  8
241
 10
169.738
 20
-16.334499999999998
 30
0.0
 70
    32
  0
VERTEX
  5
1BC9
  8
241
 10
169.74299999999999
 20
-16.340299999999999
 30
0.0
 70
    32
  0
VERTEX
  5
1BCA
  8
241
 10
169.74799999999999
 20
-16.3461
 30
0.0
 70
    32
  0
VERTEX
  5
1BCB
  8
241
 10
169.75299999999999
 20
-16.351900000000001
 30
0.0
 70
    32
  0
VERTEX
  5
1BCC
  8
241
 10
169.75800000000001
 20
-16.357600000000001
 30
0.0
 70
    32
  0
VERTEX
  5
1BCD
  8
241
 10
169.76300000000001
 20
-16.363299999999999
 30
0.0
 70
    32
  0
VERTEX
  5
1BCE
  8
241
 10
169.767
 20
-16.3691
 30
0.0
 70
    32
  0
VERTEX
  5
1BCF
  8
241
 10
169.77199999999999
 20
-16.3748
 30
0.0
 70
    32
  0
VERTEX
  5
1BD0
  8
241
 10
169.77699999999999
 20
-16.380500000000001
 30
0.0
 70
    32
  0
VERTEX
  5
1BD1
  8
241
 10
169.78200000000001
 20
-16.386199999999999
 30
0.0
 70
    32
  0
VERTEX
  5
1BD2
  8
241
 10
169.78700000000001
 20
-16.3919
 30
0.0
 70
    32
  0
VERTEX
  5
1BD3
  8
241
 10
169.792
 20
-16.397500000000001
 30
0.0
 70
    32
  0
VERTEX
  5
1BD4
  8
241
 10
169.797
 20
-16.403199999999998
 30
0.0
 70
    32
  0
VERTEX
  5
1BD5
  8
241
 10
169.80199999999999
 20
-16.408799999999999
 30
0.0
 70
    32
  0
VERTEX
  5
1BD6
  8
241
 10
169.80699999999999
 20
-16.414400000000001
 30
0.0
 70
    32
  0
VERTEX
  5
1BD7
  8
241
 10
169.81200000000001
 20
-16.420000000000002
 30
0.0
 70
    32
  0
VERTEX
  5
1BD8
  8
241
 10
169.8179999999999
 20
-16.425599999999999
 30
0.0
 70
    32
  0
VERTEX
  5
1BD9
  8
241
 10
169.82300000000001
 20
-16.4312
 30
0.0
 70
    32
  0
VERTEX
  5
1BDA
  8
241
 10
169.828
 20
-16.436800000000002
 30
0.0
 70
    32
  0
VERTEX
  5
1BDB
  8
241
 10
169.833
 20
-16.442299999999999
 30
0.0
 70
    32
  0
VERTEX
  5
1BDC
  8
241
 10
169.83799999999999
 20
-16.447900000000001
 30
0.0
 70
    32
  0
VERTEX
  5
1BDD
  8
241
 10
169.84299999999999
 20
-16.453399999999998
 30
0.0
 70
    32
  0
VERTEX
  5
1BDE
  8
241
 10
169.84899999999999
 20
-16.4589
 30
0.0
 70
    32
  0
VERTEX
  5
1BDF
  8
241
 10
169.85400000000001
 20
-16.464400000000001
 30
0.0
 70
    32
  0
VERTEX
  5
1BE0
  8
241
 10
169.85900000000001
 20
-16.469899999999999
 30
0.0
 70
    32
  0
VERTEX
  5
1BE1
  8
241
 10
169.864
 20
-16.4754
 30
0.0
 70
    32
  0
VERTEX
  5
1BE2
  8
241
 10
169.87
 20
-16.480899999999998
 30
0.0
 70
    32
  0
VERTEX
  5
1BE3
  8
241
 10
169.875
 20
-16.4863
 30
0.0
 70
    32
  0
VERTEX
  5
1BE4
  8
241
 10
169.88
 20
-16.491700000000002
 30
0.0
 70
    32
  0
VERTEX
  5
1BE5
  8
241
 10
169.886
 20
-16.497199999999999
 30
0.0
 70
    32
  0
VERTEX
  5
1BE6
  8
241
 10
169.89099999999999
 20
-16.502600000000001
 30
0.0
 70
    32
  0
VERTEX
  5
1BE7
  8
241
 10
169.89699999999999
 20
-16.507999999999999
 30
0.0
 70
    32
  0
VERTEX
  5
1BE8
  8
241
 10
169.90199999999999
 20
-16.513400000000001
 30
0.0
 70
    32
  0
VERTEX
  5
1BE9
  8
241
 10
169.90700000000001
 20
-16.518699999999999
 30
0.0
 70
    32
  0
VERTEX
  5
1BEA
  8
241
 10
169.91300000000001
 20
-16.524100000000001
 30
0.0
 70
    32
  0
VERTEX
  5
1BEB
  8
241
 10
169.91800000000001
 20
-16.529399999999999
 30
0.0
 70
    32
  0
VERTEX
  5
1BEC
  8
241
 10
169.92400000000001
 20
-16.534700000000001
 30
0.0
 70
    32
  0
VERTEX
  5
1BED
  8
241
 10
169.929
 20
-16.540099999999999
 30
0.0
 70
    32
  0
VERTEX
  5
1BEE
  8
241
 10
169.935
 20
-16.545400000000001
 30
0.0
 70
    32
  0
VERTEX
  5
1BEF
  8
241
 10
169.941
 20
-16.550699999999999
 30
0.0
 70
    32
  0
VERTEX
  5
1BF0
  8
241
 10
169.946
 20
-16.555900000000001
 30
0.0
 70
    32
  0
VERTEX
  5
1BF1
  8
241
 10
169.952
 20
-16.561199999999999
 30
0.0
 70
    32
  0
VERTEX
  5
1BF2
  8
241
 10
169.958
 20
-16.566400000000002
 30
0.0
 70
    32
  0
VERTEX
  5
1BF3
  8
241
 10
169.96299999999999
 20
-16.5717
 30
0.0
 70
    32
  0
VERTEX
  5
1BF4
  8
241
 10
169.96899999999999
 20
-16.576899999999998
 30
0.0
 70
    32
  0
VERTEX
  5
1BF5
  8
241
 10
169.97499999999999
 20
-16.582100000000001
 30
0.0
 70
    32
  0
VERTEX
  5
1BF6
  8
241
 10
169.97999999999999
 20
-16.587299999999999
 30
0.0
 70
    32
  0
VERTEX
  5
1BF7
  8
241
 10
169.98599999999999
 20
-16.592500000000001
 30
0.0
 70
    32
  0
VERTEX
  5
1BF8
  8
241
 10
169.99199999999999
 20
-16.5977
 30
0.0
 70
    32
  0
VERTEX
  5
1BF9
  8
241
 10
169.99799999999999
 20
-16.602799999999998
 30
0.0
 70
    32
  0
VERTEX
  5
1BFA
  8
241
 10
170.00299999999999
 20
-16.608000000000001
 30
0.0
 70
    32
  0
VERTEX
  5
1BFB
  8
241
 10
170.00899999999999
 20
-16.613099999999999
 30
0.0
 70
    32
  0
VERTEX
  5
1BFC
  8
241
 10
170.01499999999999
 20
-16.618200000000002
 30
0.0
 70
    32
  0
VERTEX
  5
1BFD
  8
241
 10
170.02099999999999
 20
-16.6233
 30
0.0
 70
    32
  0
VERTEX
  5
1BFE
  8
241
 10
170.02699999999999
 20
-16.628399999999999
 30
0.0
 70
    32
  0
VERTEX
  5
1BFF
  8
241
 10
170.03299999999999
 20
-16.633500000000002
 30
0.0
 70
    32
  0
VERTEX
  5
1C00
  8
241
 10
170.03899999999999
 20
-16.638500000000001
 30
0.0
 70
    32
  0
VERTEX
  5
1C01
  8
241
 10
170.04499999999999
 20
-16.643599999999999
 30
0.0
 70
    32
  0
VERTEX
  5
1C02
  8
241
 10
170.05099999999999
 20
-16.648599999999998
 30
0.0
 70
    32
  0
VERTEX
  5
1C03
  8
241
 10
170.05699999999999
 20
-16.653600000000001
 30
0.0
 70
    32
  0
VERTEX
  5
1C04
  8
241
 10
170.06299999999999
 20
-16.6586
 30
0.0
 70
    32
  0
VERTEX
  5
1C05
  8
241
 10
170.06899999999999
 20
-16.663599999999999
 30
0.0
 70
    32
  0
VERTEX
  5
1C06
  8
241
 10
170.07499999999999
 20
-16.668600000000001
 30
0.0
 70
    32
  0
VERTEX
  5
1C07
  8
241
 10
170.08099999999999
 20
-16.673500000000001
 30
0.0
 70
    32
  0
VERTEX
  5
1C08
  8
241
 10
170.08699999999999
 20
-16.6785
 30
0.0
 70
    32
  0
VERTEX
  5
1C09
  8
241
 10
170.09299999999999
 20
-16.683399999999999
 30
0.0
 70
    32
  0
VERTEX
  5
1C0A
  8
241
 10
170.09899999999999
 20
-16.688300000000002
 30
0.0
 70
    32
  0
VERTEX
  5
1C0B
  8
241
 10
170.10599999999999
 20
-16.693200000000001
 30
0.0
 70
    32
  0
VERTEX
  5
1C0C
  8
241
 10
170.11199999999999
 20
-16.698
 30
0.0
 70
    32
  0
VERTEX
  5
1C0D
  8
241
 10
170.11799999999999
 20
-16.7029
 30
0.0
 70
    32
  0
VERTEX
  5
1C0E
  8
241
 10
170.124
 20
-16.707699999999999
 30
0.0
 70
    32
  0
VERTEX
  5
1C0F
  8
241
 10
170.13
 20
-16.712499999999999
 30
0.0
 70
    32
  0
VERTEX
  5
1C10
  8
241
 10
170.136
 20
-16.717300000000002
 30
0.0
 70
    32
  0
VERTEX
  5
1C11
  8
241
 10
170.143
 20
-16.722000000000001
 30
0.0
 70
    32
  0
VERTEX
  5
1C12
  8
241
 10
170.149
 20
-16.726800000000001
 30
0.0
 70
    32
  0
VERTEX
  5
1C13
  8
241
 10
170.155
 20
-16.7315
 30
0.0
 70
    32
  0
VERTEX
  5
1C14
  8
241
 10
170.161
 20
-16.7362
 30
0.0
 70
    32
  0
VERTEX
  5
1C15
  8
241
 10
170.16800000000001
 20
-16.7409
 30
0.0
 70
    32
  0
VERTEX
  5
1C16
  8
241
 10
170.17400000000001
 20
-16.7456
 30
0.0
 70
    32
  0
VERTEX
  5
1C17
  8
241
 10
170.18000000000001
 20
-16.7502
 30
0.0
 70
    32
  0
VERTEX
  5
1C18
  8
241
 10
170.18700000000001
 20
-16.754899999999999
 30
0.0
 70
    32
  0
VERTEX
  5
1C19
  8
241
 10
170.19300000000001
 20
-16.759499999999999
 30
0.0
 70
    32
  0
VERTEX
  5
1C1A
  8
241
 10
170.19900000000001
 20
-16.764099999999999
 30
0.0
 70
    32
  0
VERTEX
  5
1C1B
  8
241
 10
170.20599999999999
 20
-16.768699999999999
 30
0.0
 70
    32
  0
VERTEX
  5
1C1C
  8
241
 10
170.21199999999999
 20
-16.773199999999999
 30
0.0
 70
    32
  0
VERTEX
  5
1C1D
  8
241
 10
170.21899999999999
 20
-16.777799999999999
 30
0.0
 70
    32
  0
VERTEX
  5
1C1E
  8
241
 10
170.22499999999999
 20
-16.782299999999999
 30
0.0
 70
    32
  0
VERTEX
  5
1C1F
  8
241
 10
170.232
 20
-16.786799999999999
 30
0.0
 70
    32
  0
VERTEX
  5
1C20
  8
241
 10
170.238
 20
-16.7913
 30
0.0
 70
    32
  0
VERTEX
  5
1C21
  8
241
 10
170.244
 20
-16.7958
 30
0.0
 70
    32
  0
VERTEX
  5
1C22
  8
241
 10
170.251
 20
-16.8002
 30
0.0
 70
    32
  0
VERTEX
  5
1C23
  8
241
 10
170.25700000000001
 20
-16.8047
 30
0.0
 70
    32
  0
VERTEX
  5
1C24
  8
241
 10
170.26400000000001
 20
-16.809100000000001
 30
0.0
 70
    32
  0
VERTEX
  5
1C25
  8
241
 10
170.27000000000001
 20
-16.813500000000001
 30
0.0
 70
    32
  0
VERTEX
  5
1C26
  8
241
 10
170.27699999999999
 20
-16.817900000000002
 30
0.0
 70
    32
  0
VERTEX
  5
1C27
  8
241
 10
170.28399999999999
 20
-16.822299999999998
 30
0.0
 70
    32
  0
VERTEX
  5
1C28
  8
241
 10
170.28999999999999
 20
-16.826599999999999
 30
0.0
 70
    32
  0
VERTEX
  5
1C29
  8
241
 10
170.297
 20
-16.8309
 30
0.0
 70
    32
  0
VERTEX
  5
1C2A
  8
241
 10
170.303
 20
-16.8352
 30
0.0
 70
    32
  0
VERTEX
  5
1C2B
  8
241
 10
170.31
 20
-16.839500000000001
 30
0.0
 70
    32
  0
VERTEX
  5
1C2C
  8
241
 10
170.31700000000001
 20
-16.843800000000002
 30
0.0
 70
    32
  0
VERTEX
  5
1C2D
  8
241
 10
170.32300000000001
 20
-16.848099999999999
 30
0.0
 70
    32
  0
VERTEX
  5
1C2E
  8
241
 10
170.33000000000001
 20
-16.8523
 30
0.0
 70
    32
  0
VERTEX
  5
1C2F
  8
241
 10
170.33699999999999
 20
-16.8565
 30
0.0
 70
    32
  0
VERTEX
  5
1C30
  8
241
 10
170.34299999999999
 20
-16.860700000000001
 30
0.0
 70
    32
  0
VERTEX
  5
1C31
  8
241
 10
170.34999999999999
 20
-16.864899999999999
 30
0.0
 70
    32
  0
VERTEX
  5
1C32
  8
241
 10
170.357
 20
-16.8691
 30
0.0
 70
    32
  0
VERTEX
  5
1C33
  8
241
 10
170.364
 20
-16.8733
 30
0.0
 70
    32
  0
VERTEX
  5
1C34
  8
241
 10
170.37
 20
-16.877400000000002
 30
0.0
 70
    32
  0
VERTEX
  5
1C35
  8
241
 10
170.37700000000001
 20
-16.881499999999999
 30
0.0
 70
    32
  0
VERTEX
  5
1C36
  8
241
 10
170.38399999999999
 20
-16.8856
 30
0.0
 70
    32
  0
VERTEX
  5
1C37
  8
241
 10
170.39099999999999
 20
-16.889700000000001
 30
0.0
 70
    32
  0
VERTEX
  5
1C38
  8
241
 10
170.39699999999999
 20
-16.893699999999999
 30
0.0
 70
    32
  0
VERTEX
  5
1C39
  8
241
 10
170.404
 20
-16.8978
 30
0.0
 70
    32
  0
VERTEX
  5
1C3A
  8
241
 10
170.411
 20
-16.901800000000001
 30
0.0
 70
    32
  0
VERTEX
  5
1C3B
  8
241
 10
170.41800000000001
 20
-16.905799999999999
 30
0.0
 70
    32
  0
VERTEX
  5
1C3C
  8
241
 10
170.42500000000001
 20
-16.909800000000001
 30
0.0
 70
    32
  0
VERTEX
  5
1C3D
  8
241
 10
170.43199999999999
 20
-16.913799999999998
 30
0.0
 70
    32
  0
VERTEX
  5
1C3E
  8
241
 10
170.43899999999999
 20
-16.9177
 30
0.0
 70
    32
  0
VERTEX
  5
1C3F
  8
241
 10
170.446
 20
-16.921700000000001
 30
0.0
 70
    32
  0
VERTEX
  5
1C40
  8
241
 10
170.453
 20
-16.925599999999999
 30
0.0
 70
    32
  0
VERTEX
  5
1C41
  8
241
 10
170.459
 20
-16.929500000000001
 30
0.0
 70
    32
  0
VERTEX
  5
1C42
  8
241
 10
170.46600000000001
 20
-16.933399999999999
 30
0.0
 70
    32
  0
VERTEX
  5
1C43
  8
241
 10
170.47300000000001
 20
-16.9373
 30
0.0
 70
    32
  0
VERTEX
  5
1C44
  8
241
 10
170.47999999999999
 20
-16.941099999999999
 30
0.0
 70
    32
  0
VERTEX
  5
1C45
  8
241
 10
170.48699999999999
 20
-16.945
 30
0.0
 70
    32
  0
VERTEX
  5
1C46
  8
241
 10
170.494
 20
-16.948799999999999
 30
0.0
 70
    32
  0
VERTEX
  5
1C47
  8
241
 10
170.50200000000001
 20
-16.9526
 30
0.0
 70
    32
  0
VERTEX
  5
1C48
  8
241
 10
170.50899999999999
 20
-16.956399999999999
 30
0.0
 70
    32
  0
VERTEX
  5
1C49
  8
241
 10
170.51599999999999
 20
-16.960100000000001
 30
0.0
 70
    32
  0
VERTEX
  5
1C4A
  8
241
 10
170.523
 20
-16.963899999999999
 30
0.0
 70
    32
  0
VERTEX
  5
1C4B
  8
241
 10
170.53
 20
-16.967600000000001
 30
0.0
 70
    32
  0
VERTEX
  5
1C4C
  8
241
 10
170.53700000000001
 20
-16.971299999999999
 30
0.0
 70
    32
  0
VERTEX
  5
1C4D
  8
241
 10
170.54400000000001
 20
-16.975000000000001
 30
0.0
 70
    32
  0
VERTEX
  5
1C4E
  8
241
 10
170.55099999999999
 20
-16.9787
 30
0.0
 70
    32
  0
VERTEX
  5
1C4F
  8
241
 10
170.559
 20
-16.982399999999998
 30
0.0
 70
    32
  0
VERTEX
  5
1C50
  8
241
 10
170.56599999999989
 20
-16.986000000000001
 30
0.0
 70
    32
  0
VERTEX
  5
1C51
  8
241
 10
170.57299999999989
 20
-16.989599999999999
 30
0.0
 70
    32
  0
VERTEX
  5
1C52
  8
241
 10
170.58000000000001
 20
-16.993300000000001
 30
0.0
 70
    32
  0
VERTEX
  5
1C53
  8
241
 10
170.58699999999999
 20
-16.9968
 30
0.0
 70
    32
  0
VERTEX
  5
1C54
  8
241
 10
170.595
 20
-17.000399999999999
 30
0.0
 70
    32
  0
VERTEX
  5
1C55
  8
241
 10
170.602
 20
-17.004000000000001
 30
0.0
 70
    32
  0
VERTEX
  5
1C56
  8
241
 10
170.60900000000001
 20
-17.0075
 30
0.0
 70
    32
  0
VERTEX
  5
1C57
  8
241
 10
170.61600000000001
 20
-17.010999999999999
 30
0.0
 70
    32
  0
VERTEX
  5
1C58
  8
241
 10
170.624
 20
-17.014500000000002
 30
0.0
 70
    32
  0
VERTEX
  5
1C59
  8
241
 10
170.631
 20
-17.018000000000001
 30
0.0
 70
    32
  0
VERTEX
  5
1C5A
  8
241
 10
170.63800000000001
 20
-17.0215
 30
0.0
 70
    32
  0
VERTEX
  5
1C5B
  8
241
 10
170.64599999999999
 20
-17.024899999999999
 30
0.0
 70
    32
  0
VERTEX
  5
1C5C
  8
241
 10
170.65299999999999
 20
-17.028400000000001
 30
0.0
 70
    32
  0
VERTEX
  5
1C5D
  8
241
 10
170.66099999999989
 20
-17.0318
 30
0.0
 70
    32
  0
VERTEX
  5
1C5E
  8
241
 10
170.66800000000001
 20
-17.0352
 30
0.0
 70
    32
  0
VERTEX
  5
1C5F
  8
241
 10
170.67500000000001
 20
-17.038599999999999
 30
0.0
 70
    32
  0
VERTEX
  5
1C60
  8
241
 10
170.68299999999999
 20
-17.041899999999998
 30
0.0
 70
    32
  0
VERTEX
  5
1C61
  8
241
 10
170.69
 20
-17.045300000000001
 30
0.0
 70
    32
  0
VERTEX
  5
1C62
  8
241
 10
170.69799999999989
 20
-17.0486
 30
0.0
 70
    32
  0
VERTEX
  5
1C63
  8
241
 10
170.70500000000001
 20
-17.0519
 30
0.0
 70
    32
  0
VERTEX
  5
1C64
  8
241
 10
170.71299999999999
 20
-17.055199999999999
 30
0.0
 70
    32
  0
VERTEX
  5
1C65
  8
241
 10
170.72
 20
-17.058399999999999
 30
0.0
 70
    32
  0
VERTEX
  5
1C66
  8
241
 10
170.72800000000001
 20
-17.061699999999998
 30
0.0
 70
    32
  0
VERTEX
  5
1C67
  8
241
 10
170.73500000000001
 20
-17.064900000000002
 30
0.0
 70
    32
  0
VERTEX
  5
1C68
  8
241
 10
170.74299999999999
 20
-17.068100000000001
 30
0.0
 70
    32
  0
VERTEX
  5
1C69
  8
241
 10
170.75
 20
-17.071300000000001
 30
0.0
 70
    32
  0
VERTEX
  5
1C6A
  8
241
 10
170.75800000000001
 20
-17.0745
 30
0.0
 70
    32
  0
VERTEX
  5
1C6B
  8
241
 10
170.76499999999999
 20
-17.0776
 30
0.0
 70
    32
  0
VERTEX
  5
1C6C
  8
241
 10
170.773
 20
-17.0807
 30
0.0
 70
    32
  0
VERTEX
  5
1C6D
  8
241
 10
170.78100000000001
 20
-17.0838
 30
0.0
 70
    32
  0
VERTEX
  5
1C6E
  8
241
 10
170.78800000000001
 20
-17.0869
 30
0.0
 70
    32
  0
VERTEX
  5
1C6F
  8
241
 10
170.79599999999999
 20
-17.09
 30
0.0
 70
    32
  0
VERTEX
  5
1C70
  8
241
 10
170.803
 20
-17.0931
 30
0.0
 70
    32
  0
VERTEX
  5
1C71
  8
241
 10
170.81100000000001
 20
-17.0961
 30
0.0
 70
    32
  0
VERTEX
  5
1C72
  8
241
 10
170.81899999999999
 20
-17.0991
 30
0.0
 70
    32
  0
VERTEX
  5
1C73
  8
241
 10
170.82599999999999
 20
-17.1021
 30
0.0
 70
    32
  0
VERTEX
  5
1C74
  8
241
 10
170.834
 20
-17.1051
 30
0.0
 70
    32
  0
VERTEX
  5
1C75
  8
241
 10
170.84200000000001
 20
-17.108000000000001
 30
0.0
 70
    32
  0
VERTEX
  5
1C76
  8
241
 10
170.84899999999999
 20
-17.111000000000001
 30
0.0
 70
    32
  0
VERTEX
  5
1C77
  8
241
 10
170.857
 20
-17.113900000000001
 30
0.0
 70
    32
  0
VERTEX
  5
1C78
  8
241
 10
170.86500000000001
 20
-17.116800000000001
 30
0.0
 70
    32
  0
VERTEX
  5
1C79
  8
241
 10
170.87200000000001
 20
-17.119599999999998
 30
0.0
 70
    32
  0
VERTEX
  5
1C7A
  8
241
 10
170.88
 20
-17.122499999999999
 30
0.0
 70
    32
  0
VERTEX
  5
1C7B
  8
241
 10
170.88800000000001
 20
-17.125299999999999
 30
0.0
 70
    32
  0
VERTEX
  5
1C7C
  8
241
 10
170.89599999999999
 20
-17.1281
 30
0.0
 70
    32
  0
VERTEX
  5
1C7D
  8
241
 10
170.90299999999999
 20
-17.1309
 30
0.0
 70
    32
  0
VERTEX
  5
1C7E
  8
241
 10
170.91099999999989
 20
-17.133700000000001
 30
0.0
 70
    32
  0
VERTEX
  5
1C7F
  8
241
 10
170.91900000000001
 20
-17.136500000000002
 30
0.0
 70
    32
  0
VERTEX
  5
1C80
  8
241
 10
170.92699999999999
 20
-17.139199999999999
 30
0.0
 70
    32
  0
VERTEX
  5
1C81
  8
241
 10
170.935
 20
-17.1419
 30
0.0
 70
    32
  0
VERTEX
  5
1C82
  8
241
 10
170.94200000000001
 20
-17.144600000000001
 30
0.0
 70
    32
  0
VERTEX
  5
1C83
  8
241
 10
170.94999999999999
 20
-17.147300000000001
 30
0.0
 70
    32
  0
VERTEX
  5
1C84
  8
241
 10
170.958
 20
-17.149899999999999
 30
0.0
 70
    32
  0
VERTEX
  5
1C85
  8
241
 10
170.96599999999989
 20
-17.1525
 30
0.0
 70
    32
  0
VERTEX
  5
1C86
  8
241
 10
170.97399999999999
 20
-17.155100000000001
 30
0.0
 70
    32
  0
VERTEX
  5
1C87
  8
241
 10
170.98099999999999
 20
-17.157699999999998
 30
0.0
 70
    32
  0
VERTEX
  5
1C88
  8
241
 10
170.989
 20
-17.160299999999999
 30
0.0
 70
    32
  0
VERTEX
  5
1C89
  8
241
 10
170.99700000000001
 20
-17.162800000000001
 30
0.0
 70
    32
  0
VERTEX
  5
1C8A
  8
241
 10
171.005
 20
-17.165299999999998
 30
0.0
 70
    32
  0
VERTEX
  5
1C8B
  8
241
 10
171.01300000000001
 20
-17.167899999999999
 30
0.0
 70
    32
  0
VERTEX
  5
1C8C
  8
241
 10
171.02099999999999
 20
-17.170300000000001
 30
0.0
 70
    32
  0
VERTEX
  5
1C8D
  8
241
 10
171.029
 20
-17.172799999999999
 30
0.0
 70
    32
  0
VERTEX
  5
1C8E
  8
241
 10
171.03700000000001
 20
-17.1752
 30
0.0
 70
    32
  0
VERTEX
  5
1C8F
  8
241
 10
171.04400000000001
 20
-17.177700000000002
 30
0.0
 70
    32
  0
VERTEX
  5
1C90
  8
241
 10
171.05199999999999
 20
-17.180099999999999
 30
0.0
 70
    32
  0
VERTEX
  5
1C91
  8
241
 10
171.06
 20
-17.182400000000001
 30
0.0
 70
    32
  0
VERTEX
  5
1C92
  8
241
 10
171.06800000000001
 20
-17.184799999999999
 30
0.0
 70
    32
  0
VERTEX
  5
1C93
  8
241
 10
171.07599999999999
 20
-17.187100000000001
 30
0.0
 70
    32
  0
VERTEX
  5
1C94
  8
241
 10
171.084
 20
-17.189499999999999
 30
0.0
 70
    32
  0
VERTEX
  5
1C95
  8
241
 10
171.09200000000001
 20
-17.191700000000001
 30
0.0
 70
    32
  0
VERTEX
  5
1C96
  8
241
 10
171.09999999999999
 20
-17.193999999999999
 30
0.0
 70
    32
  0
VERTEX
  5
1C97
  8
241
 10
171.108
 20
-17.196300000000001
 30
0.0
 70
    32
  0
VERTEX
  5
1C98
  8
241
 10
171.11600000000001
 20
-17.198499999999999
 30
0.0
 70
    32
  0
VERTEX
  5
1C99
  8
241
 10
171.124
 20
-17.200700000000001
 30
0.0
 70
    32
  0
VERTEX
  5
1C9A
  8
241
 10
171.13200000000001
 20
-17.2029
 30
0.0
 70
    32
  0
VERTEX
  5
1C9B
  8
241
 10
171.13999999999999
 20
-17.205100000000002
 30
0.0
 70
    32
  0
VERTEX
  5
1C9C
  8
241
 10
171.148
 20
-17.2073
 30
0.0
 70
    32
  0
VERTEX
  5
1C9D
  8
241
 10
171.15599999999989
 20
-17.209399999999999
 30
0.0
 70
    32
  0
VERTEX
  5
1C9E
  8
241
 10
171.16399999999999
 20
-17.211500000000001
 30
0.0
 70
    32
  0
VERTEX
  5
1C9F
  8
241
 10
171.172
 20
-17.2136
 30
0.0
 70
    32
  0
VERTEX
  5
1CA0
  8
241
 10
171.18000000000001
 20
-17.215699999999998
 30
0.0
 70
    32
  0
VERTEX
  5
1CA1
  8
241
 10
171.18799999999999
 20
-17.217700000000001
 30
0.0
 70
    32
  0
VERTEX
  5
1CA2
  8
241
 10
171.196
 20
-17.2197
 30
0.0
 70
    32
  0
VERTEX
  5
1CA3
  8
241
 10
171.20400000000001
 20
-17.221699999999998
 30
0.0
 70
    32
  0
VERTEX
  5
1CA4
  8
241
 10
171.21199999999999
 20
-17.223700000000001
 30
0.0
 70
    32
  0
VERTEX
  5
1CA5
  8
241
 10
171.22
 20
-17.2257
 30
0.0
 70
    32
  0
VERTEX
  5
1CA6
  8
241
 10
171.22799999999989
 20
-17.227699999999999
 30
0.0
 70
    32
  0
VERTEX
  5
1CA7
  8
241
 10
171.23599999999999
 20
-17.229600000000001
 30
0.0
 70
    32
  0
VERTEX
  5
1CA8
  8
241
 10
171.244
 20
-17.2315
 30
0.0
 70
    32
  0
VERTEX
  5
1CA9
  8
241
 10
171.25200000000001
 20
-17.2334
 30
0.0
 70
    32
  0
VERTEX
  5
1CAA
  8
241
 10
171.25999999999999
 20
-17.235199999999999
 30
0.0
 70
    32
  0
VERTEX
  5
1CAB
  8
241
 10
171.268
 20
-17.237100000000002
 30
0.0
 70
    32
  0
VERTEX
  5
1CAC
  8
241
 10
171.27600000000001
 20
-17.238900000000001
 30
0.0
 70
    32
  0
VERTEX
  5
1CAD
  8
241
 10
171.285
 20
-17.2407
 30
0.0
 70
    32
  0
VERTEX
  5
1CAE
  8
241
 10
171.29300000000001
 20
-17.2425
 30
0.0
 70
    32
  0
VERTEX
  5
1CAF
  8
241
 10
171.30099999999999
 20
-17.244299999999999
 30
0.0
 70
    32
  0
VERTEX
  5
1CB0
  8
241
 10
171.309
 20
-17.245999999999999
 30
0.0
 70
    32
  0
VERTEX
  5
1CB1
  8
241
 10
171.31700000000001
 20
-17.247699999999998
 30
0.0
 70
    32
  0
VERTEX
  5
1CB2
  8
241
 10
171.32499999999999
 20
-17.249400000000001
 30
0.0
 70
    32
  0
VERTEX
  5
1CB3
  8
241
 10
171.333
 20
-17.251100000000001
 30
0.0
 70
    32
  0
VERTEX
  5
1CB4
  8
241
 10
171.34200000000001
 20
-17.252800000000001
 30
0.0
 70
    32
  0
VERTEX
  5
1CB5
  8
241
 10
171.34999999999999
 20
-17.2544
 30
0.0
 70
    32
  0
VERTEX
  5
1CB6
  8
241
 10
171.358
 20
-17.256
 30
0.0
 70
    32
  0
VERTEX
  5
1CB7
  8
241
 10
171.36600000000001
 20
-17.2576
 30
0.0
 70
    32
  0
VERTEX
  5
1CB8
  8
241
 10
171.374
 20
-17.2592
 30
0.0
 70
    32
  0
VERTEX
  5
1CB9
  8
241
 10
171.38200000000001
 20
-17.2608
 30
0.0
 70
    32
  0
VERTEX
  5
1CBA
  8
241
 10
171.39099999999999
 20
-17.2623
 30
0.0
 70
    32
  0
VERTEX
  5
1CBB
  8
241
 10
171.399
 20
-17.2638
 30
0.0
 70
    32
  0
VERTEX
  5
1CBC
  8
241
 10
171.40700000000001
 20
-17.2653
 30
0.0
 70
    32
  0
VERTEX
  5
1CBD
  8
241
 10
171.41499999999999
 20
-17.2668
 30
0.0
 70
    32
  0
VERTEX
  5
1CBE
  8
241
 10
171.42400000000001
 20
-17.2683
 30
0.0
 70
    32
  0
VERTEX
  5
1CBF
  8
241
 10
171.43199999999999
 20
-17.2697
 30
0.0
 70
    32
  0
VERTEX
  5
1CC0
  8
241
 10
171.44
 20
-17.271100000000001
 30
0.0
 70
    32
  0
VERTEX
  5
1CC1
  8
241
 10
171.44800000000001
 20
-17.272500000000001
 30
0.0
 70
    32
  0
VERTEX
  5
1CC2
  8
241
 10
171.45699999999999
 20
-17.273900000000001
 30
0.0
 70
    32
  0
VERTEX
  5
1CC3
  8
241
 10
171.465
 20
-17.275300000000001
 30
0.0
 70
    32
  0
VERTEX
  5
1CC4
  8
241
 10
171.47300000000001
 20
-17.276599999999998
 30
0.0
 70
    32
  0
VERTEX
  5
1CC5
  8
241
 10
171.48099999999999
 20
-17.277899999999999
 30
0.0
 70
    32
  0
VERTEX
  5
1CC6
  8
241
 10
171.49000000000001
 20
-17.279199999999999
 30
0.0
 70
    32
  0
VERTEX
  5
1CC7
  8
241
 10
171.49799999999999
 20
-17.2805
 30
0.0
 70
    32
  0
VERTEX
  5
1CC8
  8
241
 10
171.506
 20
-17.281700000000001
 30
0.0
 70
    32
  0
VERTEX
  5
1CC9
  8
241
 10
171.51499999999999
 20
-17.283000000000001
 30
0.0
 70
    32
  0
VERTEX
  5
1CCA
  8
241
 10
171.523
 20
-17.284199999999998
 30
0.0
 70
    32
  0
VERTEX
  5
1CCB
  8
241
 10
171.53100000000001
 20
-17.285399999999999
 30
0.0
 70
    32
  0
VERTEX
  5
1CCC
  8
241
 10
171.53999999999999
 20
-17.2866
 30
0.0
 70
    32
  0
VERTEX
  5
1CCD
  8
241
 10
171.548
 20
-17.287700000000001
 30
0.0
 70
    32
  0
VERTEX
  5
1CCE
  8
241
 10
171.55600000000001
 20
-17.288799999999998
 30
0.0
 70
    32
  0
VERTEX
  5
1CCF
  8
241
 10
171.565
 20
-17.289899999999999
 30
0.0
 70
    32
  0
VERTEX
  5
1CD0
  8
241
 10
171.57299999999989
 20
-17.291
 30
0.0
 70
    32
  0
VERTEX
  5
1CD1
  8
241
 10
171.58099999999999
 20
-17.292100000000001
 30
0.0
 70
    32
  0
VERTEX
  5
1CD2
  8
241
 10
171.59
 20
-17.293099999999999
 30
0.0
 70
    32
  0
VERTEX
  5
1CD3
  8
241
 10
171.59800000000001
 20
-17.2942
 30
0.0
 70
    32
  0
VERTEX
  5
1CD4
  8
241
 10
171.60599999999999
 20
-17.295200000000001
 30
0.0
 70
    32
  0
VERTEX
  5
1CD5
  8
241
 10
171.61500000000001
 20
-17.296099999999999
 30
0.0
 70
    32
  0
VERTEX
  5
1CD6
  8
241
 10
171.62299999999999
 20
-17.2971
 30
0.0
 70
    32
  0
VERTEX
  5
1CD7
  8
241
 10
171.63200000000001
 20
-17.297999999999998
 30
0.0
 70
    32
  0
VERTEX
  5
1CD8
  8
241
 10
171.63999999999999
 20
-17.298999999999999
 30
0.0
 70
    32
  0
VERTEX
  5
1CD9
  8
241
 10
171.648
 20
-17.299900000000001
 30
0.0
 70
    32
  0
VERTEX
  5
1CDA
  8
241
 10
171.65700000000001
 20
-17.300699999999999
 30
0.0
 70
    32
  0
VERTEX
  5
1CDB
  8
241
 10
171.66499999999999
 20
-17.301600000000001
 30
0.0
 70
    32
  0
VERTEX
  5
1CDC
  8
241
 10
171.67400000000001
 20
-17.302399999999999
 30
0.0
 70
    32
  0
VERTEX
  5
1CDD
  8
241
 10
171.68199999999999
 20
-17.3032
 30
0.0
 70
    32
  0
VERTEX
  5
1CDE
  8
241
 10
171.69099999999989
 20
-17.303999999999998
 30
0.0
 70
    32
  0
VERTEX
  5
1CDF
  8
241
 10
171.69900000000001
 20
-17.3048
 30
0.0
 70
    32
  0
VERTEX
  5
1CE0
  8
241
 10
171.70699999999999
 20
-17.305599999999998
 30
0.0
 70
    32
  0
VERTEX
  5
1CE1
  8
241
 10
171.71599999999989
 20
-17.3063
 30
0.0
 70
    32
  0
VERTEX
  5
1CE2
  8
241
 10
171.72399999999999
 20
-17.306999999999999
 30
0.0
 70
    32
  0
VERTEX
  5
1CE3
  8
241
 10
171.733
 20
-17.307700000000001
 30
0.0
 70
    32
  0
VERTEX
  5
1CE4
  8
241
 10
171.74100000000001
 20
-17.308299999999999
 30
0.0
 70
    32
  0
VERTEX
  5
1CE5
  8
241
 10
171.75
 20
-17.309000000000001
 30
0.0
 70
    32
  0
VERTEX
  5
1CE6
  8
241
 10
171.75800000000001
 20
-17.3096
 30
0.0
 70
    32
  0
VERTEX
  5
1CE7
  8
241
 10
171.767
 20
-17.310199999999998
 30
0.0
 70
    32
  0
VERTEX
  5
1CE8
  8
241
 10
171.77500000000001
 20
-17.3108
 30
0.0
 70
    32
  0
VERTEX
  5
1CE9
  8
241
 10
171.78399999999999
 20
-17.311399999999999
 30
0.0
 70
    32
  0
VERTEX
  5
1CEA
  8
241
 10
171.792
 20
-17.311900000000001
 30
0.0
 70
    32
  0
VERTEX
  5
1CEB
  8
241
 10
171.80000000000001
 20
-17.3124
 30
0.0
 70
    32
  0
VERTEX
  5
1CEC
  8
241
 10
171.809
 20
-17.312899999999999
 30
0.0
 70
    32
  0
VERTEX
  5
1CED
  8
241
 10
171.81700000000001
 20
-17.313400000000001
 30
0.0
 70
    32
  0
VERTEX
  5
1CEE
  8
241
 10
171.82599999999999
 20
-17.313800000000001
 30
0.0
 70
    32
  0
VERTEX
  5
1CEF
  8
241
 10
171.834
 20
-17.314299999999999
 30
0.0
 70
    32
  0
VERTEX
  5
1CF0
  8
241
 10
171.84299999999999
 20
-17.314699999999998
 30
0.0
 70
    32
  0
VERTEX
  5
1CF1
  8
241
 10
171.851
 20
-17.315100000000001
 30
0.0
 70
    32
  0
VERTEX
  5
1CF2
  8
241
 10
171.86000000000001
 20
-17.3154
 30
0.0
 70
    32
  0
VERTEX
  5
1CF3
  8
241
 10
171.86799999999999
 20
-17.315799999999999
 30
0.0
 70
    32
  0
VERTEX
  5
1CF4
  8
241
 10
171.87700000000001
 20
-17.316099999999999
 30
0.0
 70
    32
  0
VERTEX
  5
1CF5
  8
241
 10
171.88499999999999
 20
-17.316400000000002
 30
0.0
 70
    32
  0
VERTEX
  5
1CF6
  8
241
 10
171.89400000000001
 20
-17.316700000000001
 30
0.0
 70
    32
  0
VERTEX
  5
1CF7
  8
241
 10
171.90199999999999
 20
-17.317
 30
0.0
 70
    32
  0
VERTEX
  5
1CF8
  8
241
 10
171.91
 20
-17.3172
 30
0.0
 70
    32
  0
VERTEX
  5
1CF9
  8
241
 10
171.91900000000001
 20
-17.317399999999999
 30
0.0
 70
    32
  0
VERTEX
  5
1CFA
  8
241
 10
171.92699999999999
 20
-17.317599999999999
 30
0.0
 70
    32
  0
VERTEX
  5
1CFB
  8
241
 10
171.93599999999989
 20
-17.317799999999998
 30
0.0
 70
    32
  0
VERTEX
  5
1CFC
  8
241
 10
171.94399999999999
 20
-17.317900000000002
 30
0.0
 70
    32
  0
VERTEX
  5
1CFD
  8
241
 10
171.953
 20
-17.318100000000001
 30
0.0
 70
    32
  0
VERTEX
  5
1CFE
  8
241
 10
171.96100000000001
 20
-17.318200000000001
 30
0.0
 70
    32
  0
VERTEX
  5
1CFF
  8
241
 10
171.97
 20
-17.318300000000001
 30
0.0
 70
    32
  0
VERTEX
  5
1D00
  8
241
 10
171.97800000000001
 20
-17.318300000000001
 30
0.0
 70
    32
  0
VERTEX
  5
1D01
  8
241
 10
171.98599999999999
 20
-17.3184
 30
0.0
 70
    32
  0
VERTEX
  5
1D02
  8
241
 10
171.995
 20
-17.3184
 30
0.0
 70
    32
  0
VERTEX
  5
1D03
  8
241
 10
172.00299999999999
 20
-17.3184
 30
0.0
 70
    32
  0
VERTEX
  5
1D04
  8
241
 10
172.012
 20
-17.3184
 30
0.0
 70
    32
  0
VERTEX
  5
1D05
  8
241
 10
172.02000000000001
 20
-17.3184
 30
0.0
 70
    32
  0
VERTEX
  5
1D06
  8
241
 10
172.02799999999999
 20
-17.318300000000001
 30
0.0
 70
    32
  0
VERTEX
  5
1D07
  8
241
 10
172.03700000000001
 20
-17.318200000000001
 30
0.0
 70
    32
  0
VERTEX
  5
1D08
  8
241
 10
172.04499999999999
 20
-17.318100000000001
 30
0.0
 70
    32
  0
VERTEX
  5
1D09
  8
241
 10
172.054
 20
-17.318000000000001
 30
0.0
 70
    32
  0
VERTEX
  5
1D0A
  8
241
 10
172.06200000000001
 20
-17.317799999999998
 30
0.0
 70
    32
  0
VERTEX
  5
1D0B
  8
241
 10
172.06999999999999
 20
-17.317699999999999
 30
0.0
 70
    32
  0
VERTEX
  5
1D0C
  8
241
 10
172.07900000000001
 20
-17.317499999999999
 30
0.0
 70
    32
  0
VERTEX
  5
1D0D
  8
241
 10
172.08699999999999
 20
-17.317299999999999
 30
0.0
 70
    32
  0
VERTEX
  5
1D0E
  8
241
 10
172.096
 20
-17.3171
 30
0.0
 70
    32
  0
VERTEX
  5
1D0F
  8
241
 10
172.10400000000001
 20
-17.316800000000001
 30
0.0
 70
    32
  0
VERTEX
  5
1D10
  8
241
 10
172.113
 20
-17.316500000000001
 30
0.0
 70
    32
  0
VERTEX
  5
1D11
  8
241
 10
172.12100000000001
 20
-17.316199999999998
 30
0.0
 70
    32
  0
VERTEX
  5
1D12
  8
241
 10
172.12899999999999
 20
-17.315899999999999
 30
0.0
 70
    32
  0
VERTEX
  5
1D13
  8
241
 10
172.13800000000001
 20
-17.3156
 30
0.0
 70
    32
  0
VERTEX
  5
1D14
  8
241
 10
172.14599999999999
 20
-17.315200000000001
 30
0.0
 70
    32
  0
VERTEX
  5
1D15
  8
241
 10
172.154
 20
-17.314900000000002
 30
0.0
 70
    32
  0
VERTEX
  5
1D16
  8
241
 10
172.16300000000001
 20
-17.314499999999999
 30
0.0
 70
    32
  0
VERTEX
  5
1D17
  8
241
 10
172.17099999999999
 20
-17.3141
 30
0.0
 70
    32
  0
VERTEX
  5
1D18
  8
241
 10
172.18000000000001
 20
-17.313600000000001
 30
0.0
 70
    32
  0
VERTEX
  5
1D19
  8
241
 10
172.18799999999999
 20
-17.313199999999998
 30
0.0
 70
    32
  0
VERTEX
  5
1D1A
  8
241
 10
172.196
 20
-17.3127
 30
0.0
 70
    32
  0
VERTEX
  5
1D1B
  8
241
 10
172.20500000000001
 20
-17.312200000000001
 30
0.0
 70
    32
  0
VERTEX
  5
1D1C
  8
241
 10
172.21299999999999
 20
-17.311699999999998
 30
0.0
 70
    32
  0
VERTEX
  5
1D1D
  8
241
 10
172.22200000000001
 20
-17.3111
 30
0.0
 70
    32
  0
VERTEX
  5
1D1E
  8
241
 10
172.22999999999999
 20
-17.310500000000001
 30
0.0
 70
    32
  0
VERTEX
  5
1D1F
  8
241
 10
172.238
 20
-17.309999999999999
 30
0.0
 70
    32
  0
VERTEX
  5
1D20
  8
241
 10
172.24700000000001
 20
-17.3094
 30
0.0
 70
    32
  0
VERTEX
  5
1D21
  8
241
 10
172.255
 20
-17.308700000000002
 30
0.0
 70
    32
  0
VERTEX
  5
1D22
  8
241
 10
172.26300000000001
 20
-17.3081
 30
0.0
 70
    32
  0
VERTEX
  5
1D23
  8
241
 10
172.27199999999999
 20
-17.307400000000001
 30
0.0
 70
    32
  0
VERTEX
  5
1D24
  8
241
 10
172.28
 20
-17.306699999999999
 30
0.0
 70
    32
  0
VERTEX
  5
1D25
  8
241
 10
172.28899999999999
 20
-17.306000000000001
 30
0.0
 70
    32
  0
VERTEX
  5
1D26
  8
241
 10
172.297
 20
-17.305299999999999
 30
0.0
 70
    32
  0
VERTEX
  5
1D27
  8
241
 10
172.30500000000001
 20
-17.304500000000001
 30
0.0
 70
    32
  0
VERTEX
  5
1D28
  8
241
 10
172.31399999999999
 20
-17.303699999999999
 30
0.0
 70
    32
  0
VERTEX
  5
1D29
  8
241
 10
172.322
 20
-17.302900000000001
 30
0.0
 70
    32
  0
VERTEX
  5
1D2A
  8
241
 10
172.33000000000001
 20
-17.302099999999999
 30
0.0
 70
    32
  0
VERTEX
  5
1D2B
  8
241
 10
172.339
 20
-17.301300000000001
 30
0.0
 70
    32
  0
VERTEX
  5
1D2C
  8
241
 10
172.34700000000001
 20
-17.3004
 30
0.0
 70
    32
  0
VERTEX
  5
1D2D
  8
241
 10
172.35499999999999
 20
-17.299499999999998
 30
0.0
 70
    32
  0
VERTEX
  5
1D2E
  8
241
 10
172.364
 20
-17.2986
 30
0.0
 70
    32
  0
VERTEX
  5
1D2F
  8
241
 10
172.37200000000001
 20
-17.297699999999999
 30
0.0
 70
    32
  0
VERTEX
  5
1D30
  8
241
 10
172.38
 20
-17.296700000000001
 30
0.0
 70
    32
  0
VERTEX
  5
1D31
  8
241
 10
172.38900000000001
 20
-17.2958
 30
0.0
 70
    32
  0
VERTEX
  5
1D32
  8
241
 10
172.39699999999999
 20
-17.294799999999999
 30
0.0
 70
    32
  0
VERTEX
  5
1D33
  8
241
 10
172.40599999999989
 20
-17.293800000000001
 30
0.0
 70
    32
  0
VERTEX
  5
1D34
  8
241
 10
172.41399999999999
 20
-17.2927
 30
0.0
 70
    32
  0
VERTEX
  5
1D35
  8
241
 10
172.422
 20
-17.291699999999999
 30
0.0
 70
    32
  0
VERTEX
  5
1D36
  8
241
 10
172.43100000000001
 20
-17.290600000000001
 30
0.0
 70
    32
  0
VERTEX
  5
1D37
  8
241
 10
172.43899999999999
 20
-17.2895
 30
0.0
 70
    32
  0
VERTEX
  5
1D38
  8
241
 10
172.447
 20
-17.288399999999999
 30
0.0
 70
    32
  0
VERTEX
  5
1D39
  8
241
 10
172.45599999999999
 20
-17.287299999999998
 30
0.0
 70
    32
  0
VERTEX
  5
1D3A
  8
241
 10
172.464
 20
-17.286100000000001
 30
0.0
 70
    32
  0
VERTEX
  5
1D3B
  8
241
 10
172.47200000000001
 20
-17.2849
 30
0.0
 70
    32
  0
VERTEX
  5
1D3C
  8
241
 10
172.48099999999999
 20
-17.2837
 30
0.0
 70
    32
  0
VERTEX
  5
1D3D
  8
241
 10
172.489
 20
-17.282499999999999
 30
0.0
 70
    32
  0
VERTEX
  5
1D3E
  8
241
 10
172.49700000000001
 20
-17.281199999999998
 30
0.0
 70
    32
  0
VERTEX
  5
1D3F
  8
241
 10
172.506
 20
-17.280000000000001
 30
0.0
 70
    32
  0
VERTEX
  5
1D40
  8
241
 10
172.51400000000001
 20
-17.278700000000001
 30
0.0
 70
    32
  0
VERTEX
  5
1D41
  8
241
 10
172.52199999999999
 20
-17.2774
 30
0.0
 70
    32
  0
VERTEX
  5
1D42
  8
241
 10
172.53
 20
-17.276
 30
0.0
 70
    32
  0
VERTEX
  5
1D43
  8
241
 10
172.53899999999999
 20
-17.274699999999999
 30
0.0
 70
    32
  0
VERTEX
  5
1D44
  8
241
 10
172.547
 20
-17.273299999999999
 30
0.0
 70
    32
  0
VERTEX
  5
1D45
  8
241
 10
172.55500000000001
 20
-17.271899999999999
 30
0.0
 70
    32
  0
VERTEX
  5
1D46
  8
241
 10
172.56399999999999
 20
-17.270499999999998
 30
0.0
 70
    32
  0
VERTEX
  5
1D47
  8
241
 10
172.572
 20
-17.269100000000002
 30
0.0
 70
    32
  0
VERTEX
  5
1D48
  8
241
 10
172.58000000000001
 20
-17.267600000000002
 30
0.0
 70
    32
  0
VERTEX
  5
1D49
  8
241
 10
172.589
 20
-17.266100000000002
 30
0.0
 70
    32
  0
VERTEX
  5
1D4A
  8
241
 10
172.59700000000001
 20
-17.264600000000002
 30
0.0
 70
    32
  0
VERTEX
  5
1D4B
  8
241
 10
172.60499999999999
 20
-17.263100000000001
 30
0.0
 70
    32
  0
VERTEX
  5
1D4C
  8
241
 10
172.613
 20
-17.261600000000001
 30
0.0
 70
    32
  0
VERTEX
  5
1D4D
  8
241
 10
172.62200000000001
 20
-17.260000000000002
 30
0.0
 70
    32
  0
VERTEX
  5
1D4E
  8
241
 10
172.63
 20
-17.258400000000002
 30
0.0
 70
    32
  0
VERTEX
  5
1D4F
  8
241
 10
172.63800000000001
 20
-17.256799999999998
 30
0.0
 70
    32
  0
VERTEX
  5
1D50
  8
241
 10
172.64599999999999
 20
-17.255199999999999
 30
0.0
 70
    32
  0
VERTEX
  5
1D51
  8
241
 10
172.655
 20
-17.253499999999999
 30
0.0
 70
    32
  0
VERTEX
  5
1D52
  8
241
 10
172.66300000000001
 20
-17.251899999999999
 30
0.0
 70
    32
  0
VERTEX
  5
1D53
  8
241
 10
172.67099999999999
 20
-17.2502
 30
0.0
 70
    32
  0
VERTEX
  5
1D54
  8
241
 10
172.679
 20
-17.2485
 30
0.0
 70
    32
  0
VERTEX
  5
1D55
  8
241
 10
172.68799999999999
 20
-17.246700000000001
 30
0.0
 70
    32
  0
VERTEX
  5
1D56
  8
241
 10
172.696
 20
-17.245000000000001
 30
0.0
 70
    32
  0
VERTEX
  5
1D57
  8
241
 10
172.70400000000001
 20
-17.243200000000002
 30
0.0
 70
    32
  0
VERTEX
  5
1D58
  8
241
 10
172.71199999999999
 20
-17.241399999999999
 30
0.0
 70
    32
  0
VERTEX
  5
1D59
  8
241
 10
172.72
 20
-17.239599999999999
 30
0.0
 70
    32
  0
VERTEX
  5
1D5A
  8
241
 10
172.72800000000001
 20
-17.2378
 30
0.0
 70
    32
  0
VERTEX
  5
1D5B
  8
241
 10
172.73699999999999
 20
-17.235900000000001
 30
0.0
 70
    32
  0
VERTEX
  5
1D5C
  8
241
 10
172.745
 20
-17.234000000000002
 30
0.0
 70
    32
  0
VERTEX
  5
1D5D
  8
241
 10
172.7529999999999
 20
-17.232099999999999
 30
0.0
 70
    32
  0
VERTEX
  5
1D5E
  8
241
 10
172.761
 20
-17.2302
 30
0.0
 70
    32
  0
VERTEX
  5
1D5F
  8
241
 10
172.76900000000001
 20
-17.228300000000001
 30
0.0
 70
    32
  0
VERTEX
  5
1D60
  8
241
 10
172.77699999999999
 20
-17.226299999999998
 30
0.0
 70
    32
  0
VERTEX
  5
1D61
  8
241
 10
172.785
 20
-17.224399999999999
 30
0.0
 70
    32
  0
VERTEX
  5
1D62
  8
241
 10
172.79300000000001
 20
-17.2224
 30
0.0
 70
    32
  0
VERTEX
  5
1D63
  8
241
 10
172.80199999999999
 20
-17.220300000000002
 30
0.0
 70
    32
  0
VERTEX
  5
1D64
  8
241
 10
172.81
 20
-17.218299999999999
 30
0.0
 70
    32
  0
VERTEX
  5
1D65
  8
241
 10
172.81800000000001
 20
-17.2163
 30
0.0
 70
    32
  0
VERTEX
  5
1D66
  8
241
 10
172.82599999999999
 20
-17.214200000000002
 30
0.0
 70
    32
  0
VERTEX
  5
1D67
  8
241
 10
172.834
 20
-17.2121
 30
0.0
 70
    32
  0
VERTEX
  5
1D68
  8
241
 10
172.84200000000001
 20
-17.210000000000001
 30
0.0
 70
    32
  0
VERTEX
  5
1D69
  8
241
 10
172.84999999999999
 20
-17.207799999999999
 30
0.0
 70
    32
  0
VERTEX
  5
1D6A
  8
241
 10
172.858
 20
-17.2057
 30
0.0
 70
    32
  0
VERTEX
  5
1D6B
  8
241
 10
172.86600000000001
 20
-17.203499999999998
 30
0.0
 70
    32
  0
VERTEX
  5
1D6C
  8
241
 10
172.874
 20
-17.2013
 30
0.0
 70
    32
  0
VERTEX
  5
1D6D
  8
241
 10
172.88200000000001
 20
-17.199100000000001
 30
0.0
 70
    32
  0
VERTEX
  5
1D6E
  8
241
 10
172.88999999999999
 20
-17.1968
 30
0.0
 70
    32
  0
VERTEX
  5
1D6F
  8
241
 10
172.898
 20
-17.194600000000001
 30
0.0
 70
    32
  0
VERTEX
  5
1D70
  8
241
 10
172.90600000000001
 20
-17.192299999999999
 30
0.0
 70
    32
  0
VERTEX
  5
1D71
  8
241
 10
172.91399999999999
 20
-17.190000000000001
 30
0.0
 70
    32
  0
VERTEX
  5
1D72
  8
241
 10
172.922
 20
-17.1877
 30
0.0
 70
    32
  0
VERTEX
  5
1D73
  8
241
 10
172.93000000000001
 20
-17.185400000000001
 30
0.0
 70
    32
  0
VERTEX
  5
1D74
  8
241
 10
172.93799999999999
 20
-17.183
 30
0.0
 70
    32
  0
VERTEX
  5
1D75
  8
241
 10
172.946
 20
-17.180599999999998
 30
0.0
 70
    32
  0
VERTEX
  5
1D76
  8
241
 10
172.95400000000001
 20
-17.1783
 30
0.0
 70
    32
  0
VERTEX
  5
1D77
  8
241
 10
172.96100000000001
 20
-17.175799999999999
 30
0.0
 70
    32
  0
VERTEX
  5
1D78
  8
241
 10
172.96899999999999
 20
-17.173400000000001
 30
0.0
 70
    32
  0
VERTEX
  5
1D79
  8
241
 10
172.977
 20
-17.170999999999999
 30
0.0
 70
    32
  0
VERTEX
  5
1D7A
  8
241
 10
172.98500000000001
 20
-17.168500000000002
 30
0.0
 70
    32
  0
VERTEX
  5
1D7B
  8
241
 10
172.99299999999999
 20
-17.166
 30
0.0
 70
    32
  0
VERTEX
  5
1D7C
  8
241
 10
173.001
 20
-17.163499999999999
 30
0.0
 70
    32
  0
VERTEX
  5
1D7D
  8
241
 10
173.00899999999999
 20
-17.161000000000001
 30
0.0
 70
    32
  0
VERTEX
  5
1D7E
  8
241
 10
173.01599999999999
 20
-17.1584
 30
0.0
 70
    32
  0
VERTEX
  5
1D7F
  8
241
 10
173.024
 20
-17.155799999999999
 30
0.0
 70
    32
  0
VERTEX
  5
1D80
  8
241
 10
173.03200000000001
 20
-17.153199999999998
 30
0.0
 70
    32
  0
VERTEX
  5
1D81
  8
241
 10
173.03999999999999
 20
-17.150600000000001
 30
0.0
 70
    32
  0
VERTEX
  5
1D82
  8
241
 10
173.048
 20
-17.148
 30
0.0
 70
    32
  0
VERTEX
  5
1D83
  8
241
 10
173.05500000000001
 20
-17.145399999999999
 30
0.0
 70
    32
  0
VERTEX
  5
1D84
  8
241
 10
173.06299999999999
 20
-17.142700000000001
 30
0.0
 70
    32
  0
VERTEX
  5
1D85
  8
241
 10
173.071
 20
-17.140000000000001
 30
0.0
 70
    32
  0
VERTEX
  5
1D86
  8
241
 10
173.07900000000001
 20
-17.1373
 30
0.0
 70
    32
  0
VERTEX
  5
1D87
  8
241
 10
173.08600000000001
 20
-17.134599999999999
 30
0.0
 70
    32
  0
VERTEX
  5
1D88
  8
241
 10
173.09399999999999
 20
-17.131799999999998
 30
0.0
 70
    32
  0
VERTEX
  5
1D89
  8
241
 10
173.102
 20
-17.129100000000001
 30
0.0
 70
    32
  0
VERTEX
  5
1D8A
  8
241
 10
173.10900000000001
 20
-17.126300000000001
 30
0.0
 70
    32
  0
VERTEX
  5
1D8B
  8
241
 10
173.11699999999999
 20
-17.1235
 30
0.0
 70
    32
  0
VERTEX
  5
1D8C
  8
241
 10
173.125
 20
-17.1206
 30
0.0
 70
    32
  0
VERTEX
  5
1D8D
  8
241
 10
173.1329999999999
 20
-17.117799999999999
 30
0.0
 70
    32
  0
VERTEX
  5
1D8E
  8
241
 10
173.13999999999999
 20
-17.114899999999999
 30
0.0
 70
    32
  0
VERTEX
  5
1D8F
  8
241
 10
173.148
 20
-17.111999999999998
 30
0.0
 70
    32
  0
VERTEX
  5
1D90
  8
241
 10
173.15599999999989
 20
-17.109100000000002
 30
0.0
 70
    32
  0
VERTEX
  5
1D91
  8
241
 10
173.16300000000001
 20
-17.106200000000001
 30
0.0
 70
    32
  0
VERTEX
  5
1D92
  8
241
 10
173.17099999999999
 20
-17.103300000000001
 30
0.0
 70
    32
  0
VERTEX
  5
1D93
  8
241
 10
173.178
 20
-17.100300000000001
 30
0.0
 70
    32
  0
VERTEX
  5
1D94
  8
241
 10
173.18599999999989
 20
-17.097300000000001
 30
0.0
 70
    32
  0
VERTEX
  5
1D95
  8
241
 10
173.19399999999999
 20
-17.0943
 30
0.0
 70
    32
  0
VERTEX
  5
1D96
  8
241
 10
173.20099999999999
 20
-17.0913
 30
0.0
 70
    32
  0
VERTEX
  5
1D97
  8
241
 10
173.209
 20
-17.088200000000001
 30
0.0
 70
    32
  0
VERTEX
  5
1D98
  8
241
 10
173.21600000000001
 20
-17.0852
 30
0.0
 70
    32
  0
VERTEX
  5
1D99
  8
241
 10
173.22399999999999
 20
-17.082100000000001
 30
0.0
 70
    32
  0
VERTEX
  5
1D9A
  8
241
 10
173.23099999999999
 20
-17.079000000000001
 30
0.0
 70
    32
  0
VERTEX
  5
1D9B
  8
241
 10
173.239
 20
-17.075800000000001
 30
0.0
 70
    32
  0
VERTEX
  5
1D9C
  8
241
 10
173.24700000000001
 20
-17.072700000000001
 30
0.0
 70
    32
  0
VERTEX
  5
1D9D
  8
241
 10
173.25399999999999
 20
-17.069500000000001
 30
0.0
 70
    32
  0
VERTEX
  5
1D9E
  8
241
 10
173.262
 20
-17.066299999999998
 30
0.0
 70
    32
  0
VERTEX
  5
1D9F
  8
241
 10
173.26900000000001
 20
-17.063099999999999
 30
0.0
 70
    32
  0
VERTEX
  5
1DA0
  8
241
 10
173.27699999999999
 20
-17.059899999999999
 30
0.0
 70
    32
  0
VERTEX
  5
1DA1
  8
241
 10
173.28399999999999
 20
-17.056699999999999
 30
0.0
 70
    32
  0
VERTEX
  5
1DA2
  8
241
 10
173.291
 20
-17.0534
 30
0.0
 70
    32
  0
VERTEX
  5
1DA3
  8
241
 10
173.29900000000001
 20
-17.0501
 30
0.0
 70
    32
  0
VERTEX
  5
1DA4
  8
241
 10
173.30600000000001
 20
-17.046800000000001
 30
0.0
 70
    32
  0
VERTEX
  5
1DA5
  8
241
 10
173.31399999999999
 20
-17.043500000000002
 30
0.0
 70
    32
  0
VERTEX
  5
1DA6
  8
241
 10
173.321
 20
-17.040099999999999
 30
0.0
 70
    32
  0
VERTEX
  5
1DA7
  8
241
 10
173.32900000000001
 20
-17.036799999999999
 30
0.0
 70
    32
  0
VERTEX
  5
1DA8
  8
241
 10
173.33600000000001
 20
-17.0334
 30
0.0
 70
    32
  0
VERTEX
  5
1DA9
  8
241
 10
173.34299999999999
 20
-17.030000000000001
 30
0.0
 70
    32
  0
VERTEX
  5
1DAA
  8
241
 10
173.351
 20
-17.026599999999998
 30
0.0
 70
    32
  0
VERTEX
  5
1DAB
  8
241
 10
173.358
 20
-17.023099999999999
 30
0.0
 70
    32
  0
VERTEX
  5
1DAC
  8
241
 10
173.36500000000001
 20
-17.0197
 30
0.0
 70
    32
  0
VERTEX
  5
1DAD
  8
241
 10
173.37299999999999
 20
-17.016200000000001
 30
0.0
 70
    32
  0
VERTEX
  5
1DAE
  8
241
 10
173.38
 20
-17.012699999999999
 30
0.0
 70
    32
  0
VERTEX
  5
1DAF
  8
241
 10
173.387
 20
-17.0092
 30
0.0
 70
    32
  0
VERTEX
  5
1DB0
  8
241
 10
173.39500000000001
 20
-17.005600000000001
 30
0.0
 70
    32
  0
VERTEX
  5
1DB1
  8
241
 10
173.40199999999999
 20
-17.002099999999999
 30
0.0
 70
    32
  0
VERTEX
  5
1DB2
  8
241
 10
173.40899999999999
 20
-16.9985
 30
0.0
 70
    32
  0
VERTEX
  5
1DB3
  8
241
 10
173.417
 20
-16.994900000000001
 30
0.0
 70
    32
  0
VERTEX
  5
1DB4
  8
241
 10
173.42400000000001
 20
-16.991299999999999
 30
0.0
 70
    32
  0
VERTEX
  5
1DB5
  8
241
 10
173.4309999999999
 20
-16.9877
 30
0.0
 70
    32
  0
VERTEX
  5
1DB6
  8
241
 10
173.4379999999999
 20
-16.984000000000002
 30
0.0
 70
    32
  0
VERTEX
  5
1DB7
  8
241
 10
173.44499999999999
 20
-16.9803
 30
0.0
 70
    32
  0
VERTEX
  5
1DB8
  8
241
 10
173.453
 20
-16.976700000000001
 30
0.0
 70
    32
  0
VERTEX
  5
1DB9
  8
241
 10
173.46000000000001
 20
-16.972899999999999
 30
0.0
 70
    32
  0
VERTEX
  5
1DBA
  8
241
 10
173.46700000000001
 20
-16.969200000000001
 30
0.0
 70
    32
  0
VERTEX
  5
1DBB
  8
241
 10
173.47399999999999
 20
-16.965499999999999
 30
0.0
 70
    32
  0
VERTEX
  5
1DBC
  8
241
 10
173.48099999999999
 20
-16.9617
 30
0.0
 70
    32
  0
VERTEX
  5
1DBD
  8
241
 10
173.489
 20
-16.957899999999999
 30
0.0
 70
    32
  0
VERTEX
  5
1DBE
  8
241
 10
173.49600000000001
 20
-16.9541
 30
0.0
 70
    32
  0
VERTEX
  5
1DBF
  8
241
 10
173.50299999999999
 20
-16.950299999999999
 30
0.0
 70
    32
  0
VERTEX
  5
1DC0
  8
241
 10
173.50999999999999
 20
-16.946400000000001
 30
0.0
 70
    32
  0
VERTEX
  5
1DC1
  8
241
 10
173.517
 20
-16.942599999999999
 30
0.0
 70
    32
  0
VERTEX
  5
1DC2
  8
241
 10
173.524
 20
-16.938700000000001
 30
0.0
 70
    32
  0
VERTEX
  5
1DC3
  8
241
 10
173.53100000000001
 20
-16.934799999999999
 30
0.0
 70
    32
  0
VERTEX
  5
1DC4
  8
241
 10
173.53800000000001
 20
-16.930900000000001
 30
0.0
 70
    32
  0
VERTEX
  5
1DC5
  8
241
 10
173.54499999999999
 20
-16.9269
 30
0.0
 70
    32
  0
VERTEX
  5
1DC6
  8
241
 10
173.55199999999999
 20
-16.922999999999998
 30
0.0
 70
    32
  0
VERTEX
  5
1DC7
  8
241
 10
173.559
 20
-16.919
 30
0.0
 70
    32
  0
VERTEX
  5
1DC8
  8
241
 10
173.566
 20
-16.914999999999999
 30
0.0
 70
    32
  0
VERTEX
  5
1DC9
  8
241
 10
173.57300000000001
 20
-16.911000000000001
 30
0.0
 70
    32
  0
VERTEX
  5
1DCA
  8
241
 10
173.58000000000001
 20
-16.907
 30
0.0
 70
    32
  0
VERTEX
  5
1DCB
  8
241
 10
173.58699999999999
 20
-16.902999999999999
 30
0.0
 70
    32
  0
VERTEX
  5
1DCC
  8
241
 10
173.59399999999999
 20
-16.898900000000001
 30
0.0
 70
    32
  0
VERTEX
  5
1DCD
  8
241
 10
173.601
 20
-16.8949
 30
0.0
 70
    32
  0
VERTEX
  5
1DCE
  8
241
 10
173.607
 20
-16.890799999999999
 30
0.0
 70
    32
  0
VERTEX
  5
1DCF
  8
241
 10
173.614
 20
-16.886700000000001
 30
0.0
 70
    32
  0
VERTEX
  5
1DD0
  8
241
 10
173.6209999999999
 20
-16.8826
 30
0.0
 70
    32
  0
VERTEX
  5
1DD1
  8
241
 10
173.62799999999999
 20
-16.878499999999999
 30
0.0
 70
    32
  0
VERTEX
  5
1DD2
  8
241
 10
173.63499999999999
 20
-16.874300000000002
 30
0.0
 70
    32
  0
VERTEX
  5
1DD3
  8
241
 10
173.642
 20
-16.870100000000001
 30
0.0
 70
    32
  0
VERTEX
  5
1DD4
  8
241
 10
173.648
 20
-16.866
 30
0.0
 70
    32
  0
VERTEX
  5
1DD5
  8
241
 10
173.655
 20
-16.861799999999999
 30
0.0
 70
    32
  0
VERTEX
  5
1DD6
  8
241
 10
173.66200000000001
 20
-16.857600000000001
 30
0.0
 70
    32
  0
VERTEX
  5
1DD7
  8
241
 10
173.66800000000001
 20
-16.853300000000001
 30
0.0
 70
    32
  0
VERTEX
  5
1DD8
  8
241
 10
173.67500000000001
 20
-16.8491
 30
0.0
 70
    32
  0
VERTEX
  5
1DD9
  8
241
 10
173.68199999999999
 20
-16.844799999999999
 30
0.0
 70
    32
  0
VERTEX
  5
1DDA
  8
241
 10
173.68799999999999
 20
-16.840499999999999
 30
0.0
 70
    32
  0
VERTEX
  5
1DDB
  8
241
 10
173.69499999999999
 20
-16.836200000000002
 30
0.0
 70
    32
  0
VERTEX
  5
1DDC
  8
241
 10
173.702
 20
-16.831900000000001
 30
0.0
 70
    32
  0
VERTEX
  5
1DDD
  8
241
 10
173.708
 20
-16.8276
 30
0.0
 70
    32
  0
VERTEX
  5
1DDE
  8
241
 10
173.715
 20
-16.8233
 30
0.0
 70
    32
  0
VERTEX
  5
1DDF
  8
241
 10
173.72099999999989
 20
-16.818899999999999
 30
0.0
 70
    32
  0
VERTEX
  5
1DE0
  8
241
 10
173.72800000000001
 20
-16.814499999999999
 30
0.0
 70
    32
  0
VERTEX
  5
1DE1
  8
241
 10
173.73500000000001
 20
-16.810099999999998
 30
0.0
 70
    32
  0
VERTEX
  5
1DE2
  8
241
 10
173.74100000000001
 20
-16.805700000000002
 30
0.0
 70
    32
  0
VERTEX
  5
1DE3
  8
241
 10
173.74799999999999
 20
-16.801300000000001
 30
0.0
 70
    32
  0
VERTEX
  5
1DE4
  8
241
 10
173.75399999999999
 20
-16.796800000000001
 30
0.0
 70
    32
  0
VERTEX
  5
1DE5
  8
241
 10
173.75999999999999
 20
-16.792400000000001
 30
0.0
 70
    32
  0
VERTEX
  5
1DE6
  8
241
 10
173.767
 20
-16.7879
 30
0.0
 70
    32
  0
VERTEX
  5
1DE7
  8
241
 10
173.773
 20
-16.7834
 30
0.0
 70
    32
  0
VERTEX
  5
1DE8
  8
241
 10
173.78
 20
-16.7789
 30
0.0
 70
    32
  0
VERTEX
  5
1DE9
  8
241
 10
173.78599999999989
 20
-16.7744
 30
0.0
 70
    32
  0
VERTEX
  5
1DEA
  8
241
 10
173.79300000000001
 20
-16.7698
 30
0.0
 70
    32
  0
VERTEX
  5
1DEB
  8
241
 10
173.79900000000001
 20
-16.7653
 30
0.0
 70
    32
  0
VERTEX
  5
1DEC
  8
241
 10
173.80500000000001
 20
-16.7607
 30
0.0
 70
    32
  0
VERTEX
  5
1DED
  8
241
 10
173.81200000000001
 20
-16.7561
 30
0.0
 70
    32
  0
VERTEX
  5
1DEE
  8
241
 10
173.81800000000001
 20
-16.7515
 30
0.0
 70
    32
  0
VERTEX
  5
1DEF
  8
241
 10
173.82400000000001
 20
-16.7469
 30
0.0
 70
    32
  0
VERTEX
  5
1DF0
  8
241
 10
173.83000000000001
 20
-16.7422
 30
0.0
 70
    32
  0
VERTEX
  5
1DF1
  8
241
 10
173.83699999999999
 20
-16.7376
 30
0.0
 70
    32
  0
VERTEX
  5
1DF2
  8
241
 10
173.84299999999999
 20
-16.732900000000001
 30
0.0
 70
    32
  0
VERTEX
  5
1DF3
  8
241
 10
173.84899999999999
 20
-16.728200000000001
 30
0.0
 70
    32
  0
VERTEX
  5
1DF4
  8
241
 10
173.85499999999999
 20
-16.723500000000001
 30
0.0
 70
    32
  0
VERTEX
  5
1DF5
  8
241
 10
173.86199999999999
 20
-16.718800000000002
 30
0.0
 70
    32
  0
VERTEX
  5
1DF6
  8
241
 10
173.86799999999999
 20
-16.713999999999999
 30
0.0
 70
    32
  0
VERTEX
  5
1DF7
  8
241
 10
173.874
 20
-16.709299999999999
 30
0.0
 70
    32
  0
VERTEX
  5
1DF8
  8
241
 10
173.88
 20
-16.704499999999999
 30
0.0
 70
    32
  0
VERTEX
  5
1DF9
  8
241
 10
173.886
 20
-16.6997
 30
0.0
 70
    32
  0
VERTEX
  5
1DFA
  8
241
 10
173.892
 20
-16.694900000000001
 30
0.0
 70
    32
  0
VERTEX
  5
1DFB
  8
241
 10
173.898
 20
-16.690100000000001
 30
0.0
 70
    32
  0
VERTEX
  5
1DFC
  8
241
 10
173.904
 20
-16.685300000000002
 30
0.0
 70
    32
  0
VERTEX
  5
1DFD
  8
241
 10
173.91
 20
-16.680399999999999
 30
0.0
 70
    32
  0
VERTEX
  5
1DFE
  8
241
 10
173.916
 20
-16.6755
 30
0.0
 70
    32
  0
VERTEX
  5
1DFF
  8
241
 10
173.922
 20
-16.6707
 30
0.0
 70
    32
  0
VERTEX
  5
1E00
  8
241
 10
173.928
 20
-16.665800000000001
 30
0.0
 70
    32
  0
VERTEX
  5
1E01
  8
241
 10
173.934
 20
-16.660799999999998
 30
0.0
 70
    32
  0
VERTEX
  5
1E02
  8
241
 10
173.94
 20
-16.655899999999999
 30
0.0
 70
    32
  0
VERTEX
  5
1E03
  8
241
 10
173.946
 20
-16.6509
 30
0.0
 70
    32
  0
VERTEX
  5
1E04
  8
241
 10
173.952
 20
-16.646000000000001
 30
0.0
 70
    32
  0
VERTEX
  5
1E05
  8
241
 10
173.958
 20
-16.640999999999998
 30
0.0
 70
    32
  0
VERTEX
  5
1E06
  8
241
 10
173.964
 20
-16.635999999999999
 30
0.0
 70
    32
  0
VERTEX
  5
1E07
  8
241
 10
173.97
 20
-16.631
 30
0.0
 70
    32
  0
VERTEX
  5
1E08
  8
241
 10
173.976
 20
-16.625900000000001
 30
0.0
 70
    32
  0
VERTEX
  5
1E09
  8
241
 10
173.982
 20
-16.620799999999999
 30
0.0
 70
    32
  0
VERTEX
  5
1E0A
  8
241
 10
173.988
 20
-16.6158
 30
0.0
 70
    32
  0
VERTEX
  5
1E0B
  8
241
 10
173.99299999999999
 20
-16.610700000000001
 30
0.0
 70
    32
  0
VERTEX
  5
1E0C
  8
241
 10
173.999
 20
-16.605599999999999
 30
0.0
 70
    32
  0
VERTEX
  5
1E0D
  8
241
 10
174.005
 20
-16.6004
 30
0.0
 70
    32
  0
VERTEX
  5
1E0E
  8
241
 10
174.011
 20
-16.595300000000002
 30
0.0
 70
    32
  0
VERTEX
  5
1E0F
  8
241
 10
174.017
 20
-16.5901
 30
0.0
 70
    32
  0
VERTEX
  5
1E10
  8
241
 10
174.02199999999999
 20
-16.584900000000001
 30
0.0
 70
    32
  0
VERTEX
  5
1E11
  8
241
 10
174.02799999999999
 20
-16.579699999999999
 30
0.0
 70
    32
  0
VERTEX
  5
1E12
  8
241
 10
174.03399999999999
 20
-16.5745
 30
0.0
 70
    32
  0
VERTEX
  5
1E13
  8
241
 10
174.03899999999999
 20
-16.569299999999998
 30
0.0
 70
    32
  0
VERTEX
  5
1E14
  8
241
 10
174.04499999999999
 20
-16.564
 30
0.0
 70
    32
  0
VERTEX
  5
1E15
  8
241
 10
174.05099999999999
 20
-16.558800000000002
 30
0.0
 70
    32
  0
VERTEX
  5
1E16
  8
241
 10
174.05600000000001
 20
-16.5535
 30
0.0
 70
    32
  0
VERTEX
  5
1E17
  8
241
 10
174.06200000000001
 20
-16.548200000000001
 30
0.0
 70
    32
  0
VERTEX
  5
1E18
  8
241
 10
174.06700000000001
 20
-16.542899999999999
 30
0.0
 70
    32
  0
VERTEX
  5
1E19
  8
241
 10
174.07300000000001
 20
-16.537500000000001
 30
0.0
 70
    32
  0
VERTEX
  5
1E1A
  8
241
 10
174.07900000000001
 20
-16.5322
 30
0.0
 70
    32
  0
VERTEX
  5
1E1B
  8
241
 10
174.084
 20
-16.526800000000001
 30
0.0
 70
    32
  0
VERTEX
  5
1E1C
  8
241
 10
174.09
 20
-16.5214
 30
0.0
 70
    32
  0
VERTEX
  5
1E1D
  8
241
 10
174.095
 20
-16.516100000000002
 30
0.0
 70
    32
  0
VERTEX
  5
1E1E
  8
241
 10
174.101
 20
-16.5106
 30
0.0
 70
    32
  0
VERTEX
  5
1E1F
  8
241
 10
174.10599999999999
 20
-16.505199999999999
 30
0.0
 70
    32
  0
VERTEX
  5
1E20
  8
241
 10
174.11199999999999
 20
-16.4998
 30
0.0
 70
    32
  0
VERTEX
  5
1E21
  8
241
 10
174.11699999999999
 20
-16.494299999999999
 30
0.0
 70
    32
  0
VERTEX
  5
1E22
  8
241
 10
174.12200000000001
 20
-16.488900000000001
 30
0.0
 70
    32
  0
VERTEX
  5
1E23
  8
241
 10
174.12799999999999
 20
-16.4834
 30
0.0
 70
    32
  0
VERTEX
  5
1E24
  8
241
 10
174.13300000000001
 20
-16.477900000000002
 30
0.0
 70
    32
  0
VERTEX
  5
1E25
  8
241
 10
174.13800000000001
 20
-16.4724
 30
0.0
 70
    32
  0
VERTEX
  5
1E26
  8
241
 10
174.14400000000001
 20
-16.466799999999999
 30
0.0
 70
    32
  0
VERTEX
  5
1E27
  8
241
 10
174.149
 20
-16.461300000000001
 30
0.0
 70
    32
  0
VERTEX
  5
1E28
  8
241
 10
174.154
 20
-16.4557
 30
0.0
 70
    32
  0
VERTEX
  5
1E29
  8
241
 10
174.16
 20
-16.450199999999999
 30
0.0
 70
    32
  0
VERTEX
  5
1E2A
  8
241
 10
174.16499999999999
 20
-16.444600000000001
 30
0.0
 70
    32
  0
VERTEX
  5
1E2B
  8
241
 10
174.1699999999999
 20
-16.439
 30
0.0
 70
    32
  0
VERTEX
  5
1E2C
  8
241
 10
174.17500000000001
 20
-16.433399999999999
 30
0.0
 70
    32
  0
VERTEX
  5
1E2D
  8
241
 10
174.18000000000001
 20
-16.427800000000001
 30
0.0
 70
    32
  0
VERTEX
  5
1E2E
  8
241
 10
174.18599999999989
 20
-16.4221
 30
0.0
 70
    32
  0
VERTEX
  5
1E2F
  8
241
 10
174.191
 20
-16.416499999999999
 30
0.0
 70
    32
  0
VERTEX
  5
1E30
  8
241
 10
174.196
 20
-16.410799999999998
 30
0.0
 70
    32
  0
VERTEX
  5
1E31
  8
241
 10
174.20099999999999
 20
-16.405100000000001
 30
0.0
 70
    32
  0
VERTEX
  5
1E32
  8
241
 10
174.20599999999999
 20
-16.3994
 30
0.0
 70
    32
  0
VERTEX
  5
1E33
  8
241
 10
174.21100000000001
 20
-16.393699999999999
 30
0.0
 70
    32
  0
VERTEX
  5
1E34
  8
241
 10
174.21600000000001
 20
-16.388000000000002
 30
0.0
 70
    32
  0
VERTEX
  5
1E35
  8
241
 10
174.221
 20
-16.382300000000001
 30
0.0
 70
    32
  0
VERTEX
  5
1E36
  8
241
 10
174.226
 20
-16.3766
 30
0.0
 70
    32
  0
VERTEX
  5
1E37
  8
241
 10
174.23099999999999
 20
-16.370799999999999
 30
0.0
 70
    32
  0
VERTEX
  5
1E38
  8
241
 10
174.23599999999999
 20
-16.365100000000002
 30
0.0
 70
    32
  0
VERTEX
  5
1E39
  8
241
 10
174.24100000000001
 20
-16.359300000000001
 30
0.0
 70
    32
  0
VERTEX
  5
1E3A
  8
241
 10
174.24600000000001
 20
-16.3535
 30
0.0
 70
    32
  0
VERTEX
  5
1E3B
  8
241
 10
174.251
 20
-16.3477
 30
0.0
 70
    32
  0
VERTEX
  5
1E3C
  8
241
 10
174.255
 20
-16.341899999999999
 30
0.0
 70
    32
  0
VERTEX
  5
1E3D
  8
241
 10
174.25999999999999
 20
-16.336099999999998
 30
0.0
 70
    32
  0
VERTEX
  5
1E3E
  8
241
 10
174.26499999999999
 20
-16.330200000000001
 30
0.0
 70
    32
  0
VERTEX
  5
1E3F
  8
241
 10
174.27000000000001
 20
-16.324400000000001
 30
0.0
 70
    32
  0
VERTEX
  5
1E40
  8
241
 10
174.27500000000001
 20
-16.3185
 30
0.0
 70
    32
  0
VERTEX
  5
1E41
  8
241
 10
174.279
 20
-16.3127
 30
0.0
 70
    32
  0
VERTEX
  5
1E42
  8
241
 10
174.28399999999999
 20
-16.306799999999999
 30
0.0
 70
    32
  0
VERTEX
  5
1E43
  8
241
 10
174.28899999999999
 20
-16.300899999999999
 30
0.0
 70
    32
  0
VERTEX
  5
1E44
  8
241
 10
174.29300000000001
 20
-16.295000000000002
 30
0.0
 70
    32
  0
VERTEX
  5
1E45
  8
241
 10
174.298
 20
-16.289100000000001
 30
0.0
 70
    32
  0
VERTEX
  5
1E46
  8
241
 10
174.303
 20
-16.283100000000001
 30
0.0
 70
    32
  0
VERTEX
  5
1E47
  8
241
 10
174.30699999999999
 20
-16.277200000000001
 30
0.0
 70
    32
  0
VERTEX
  5
1E48
  8
241
 10
174.31200000000001
 20
-16.2713
 30
0.0
 70
    32
  0
VERTEX
  5
1E49
  8
241
 10
174.316
 20
-16.2653
 30
0.0
 70
    32
  0
VERTEX
  5
1E4A
  8
241
 10
174.321
 20
-16.2593
 30
0.0
 70
    32
  0
VERTEX
  5
1E4B
  8
241
 10
174.32499999999999
 20
-16.253399999999999
 30
0.0
 70
    32
  0
VERTEX
  5
1E4C
  8
241
 10
174.33000000000001
 20
-16.247399999999999
 30
0.0
 70
    32
  0
VERTEX
  5
1E4D
  8
241
 10
174.334
 20
-16.241399999999999
 30
0.0
 70
    32
  0
VERTEX
  5
1E4E
  8
241
 10
174.339
 20
-16.235399999999998
 30
0.0
 70
    32
  0
VERTEX
  5
1E4F
  8
241
 10
174.34299999999999
 20
-16.229299999999999
 30
0.0
 70
    32
  0
VERTEX
  5
1E50
  8
241
 10
174.34800000000001
 20
-16.223299999999998
 30
0.0
 70
    32
  0
VERTEX
  5
1E51
  8
241
 10
174.352
 20
-16.217199999999998
 30
0.0
 70
    32
  0
VERTEX
  5
1E52
  8
241
 10
174.35599999999999
 20
-16.211200000000002
 30
0.0
 70
    32
  0
VERTEX
  5
1E53
  8
241
 10
174.36099999999999
 20
-16.205100000000002
 30
0.0
 70
    32
  0
VERTEX
  5
1E54
  8
241
 10
174.36500000000001
 20
-16.199000000000002
 30
0.0
 70
    32
  0
VERTEX
  5
1E55
  8
241
 10
174.369
 20
-16.192900000000002
 30
0.0
 70
    32
  0
VERTEX
  5
1E56
  8
241
 10
174.37299999999999
 20
-16.186800000000002
 30
0.0
 70
    32
  0
VERTEX
  5
1E57
  8
241
 10
174.37799999999999
 20
-16.180700000000002
 30
0.0
 70
    32
  0
VERTEX
  5
1E58
  8
241
 10
174.38200000000001
 20
-16.174600000000002
 30
0.0
 70
    32
  0
VERTEX
  5
1E59
  8
241
 10
174.386
 20
-16.168500000000002
 30
0.0
 70
    32
  0
VERTEX
  5
1E5A
  8
241
 10
174.38999999999999
 20
-16.162299999999998
 30
0.0
 70
    32
  0
VERTEX
  5
1E5B
  8
241
 10
174.39400000000001
 20
-16.156099999999999
 30
0.0
 70
    32
  0
VERTEX
  5
1E5C
  8
241
 10
174.399
 20
-16.149999999999999
 30
0.0
 70
    32
  0
VERTEX
  5
1E5D
  8
241
 10
174.40299999999999
 20
-16.143799999999999
 30
0.0
 70
    32
  0
VERTEX
  5
1E5E
  8
241
 10
174.40700000000001
 20
-16.137599999999999
 30
0.0
 70
    32
  0
VERTEX
  5
1E5F
  8
241
 10
174.411
 20
-16.131399999999999
 30
0.0
 70
    32
  0
VERTEX
  5
1E60
  8
241
 10
174.41499999999999
 20
-16.1252
 30
0.0
 70
    32
  0
VERTEX
  5
1E61
  8
241
 10
174.41900000000001
 20
-16.1189
 30
0.0
 70
    32
  0
VERTEX
  5
1E62
  8
241
 10
174.423
 20
-16.1127
 30
0.0
 70
    32
  0
VERTEX
  5
1E63
  8
241
 10
174.42699999999999
 20
-16.1065
 30
0.0
 70
    32
  0
VERTEX
  5
1E64
  8
241
 10
174.43100000000001
 20
-16.100200000000001
 30
0.0
 70
    32
  0
VERTEX
  5
1E65
  8
241
 10
174.435
 20
-16.093900000000001
 30
0.0
 70
    32
  0
VERTEX
  5
1E66
  8
241
 10
174.43799999999999
 20
-16.087599999999998
 30
0.0
 70
    32
  0
VERTEX
  5
1E67
  8
241
 10
174.44200000000001
 20
-16.081299999999999
 30
0.0
 70
    32
  0
VERTEX
  5
1E68
  8
241
 10
174.446
 20
-16.074999999999999
 30
0.0
 70
    32
  0
VERTEX
  5
1E69
  8
241
 10
174.44999999999999
 20
-16.0687
 30
0.0
 70
    32
  0
VERTEX
  5
1E6A
  8
241
 10
174.45400000000001
 20
-16.0624
 30
0.0
 70
    32
  0
VERTEX
  5
1E6B
  8
241
 10
174.458
 20
-16.056000000000001
 30
0.0
 70
    32
  0
VERTEX
  5
1E6C
  8
241
 10
174.4609999999999
 20
-16.049700000000001
 30
0.0
 70
    32
  0
VERTEX
  5
1E6D
  8
241
 10
174.465
 20
-16.043299999999999
 30
0.0
 70
    32
  0
VERTEX
  5
1E6E
  8
241
 10
174.46899999999999
 20
-16.036899999999999
 30
0.0
 70
    32
  0
VERTEX
  5
1E6F
  8
241
 10
174.47200000000001
 20
-16.0305
 30
0.0
 70
    32
  0
VERTEX
  5
1E70
  8
241
 10
174.476
 20
-16.024100000000001
 30
0.0
 70
    32
  0
VERTEX
  5
1E71
  8
241
 10
174.47999999999999
 20
-16.017700000000001
 30
0.0
 70
    32
  0
VERTEX
  5
1E72
  8
241
 10
174.483
 20
-16.011299999999999
 30
0.0
 70
    32
  0
VERTEX
  5
1E73
  8
241
 10
174.48699999999999
 20
-16.004899999999999
 30
0.0
 70
    32
  0
VERTEX
  5
1E74
  8
241
 10
174.49100000000001
 20
-15.9984
 30
0.0
 70
    32
  0
VERTEX
  5
1E75
  8
241
 10
174.494
 20
-15.992000000000001
 30
0.0
 70
    32
  0
VERTEX
  5
1E76
  8
241
 10
174.49799999999999
 20
-15.9855
 30
0.0
 70
    32
  0
VERTEX
  5
1E77
  8
241
 10
174.50099999999989
 20
-15.978999999999999
 30
0.0
 70
    32
  0
VERTEX
  5
1E78
  8
241
 10
174.505
 20
-15.9725
 30
0.0
 70
    32
  0
VERTEX
  5
1E79
  8
241
 10
174.5079999999999
 20
-15.965999999999999
 30
0.0
 70
    32
  0
VERTEX
  5
1E7A
  8
241
 10
174.512
 20
-15.9595
 30
0.0
 70
    32
  0
VERTEX
  5
1E7B
  8
241
 10
174.51499999999999
 20
-15.952999999999999
 30
0.0
 70
    32
  0
VERTEX
  5
1E7C
  8
241
 10
174.518
 20
-15.946400000000001
 30
0.0
 70
    32
  0
VERTEX
  5
1E7D
  8
241
 10
174.52199999999999
 20
-15.9399
 30
0.0
 70
    32
  0
VERTEX
  5
1E7E
  8
241
 10
174.52500000000001
 20
-15.933299999999999
 30
0.0
 70
    32
  0
VERTEX
  5
1E7F
  8
241
 10
174.52799999999999
 20
-15.9267
 30
0.0
 70
    32
  0
VERTEX
  5
1E80
  8
241
 10
174.53200000000001
 20
-15.9201
 30
0.0
 70
    32
  0
VERTEX
  5
1E81
  8
241
 10
174.535
 20
-15.913500000000001
 30
0.0
 70
    32
  0
VERTEX
  5
1E82
  8
241
 10
174.53800000000001
 20
-15.9069
 30
0.0
 70
    32
  0
VERTEX
  5
1E83
  8
241
 10
174.542
 20
-15.9003
 30
0.0
 70
    32
  0
VERTEX
  5
1E84
  8
241
 10
174.54499999999999
 20
-15.893700000000001
 30
0.0
 70
    32
  0
VERTEX
  5
1E85
  8
241
 10
174.548
 20
-15.887
 30
0.0
 70
    32
  0
VERTEX
  5
1E86
  8
241
 10
174.55099999999999
 20
-15.8804
 30
0.0
 70
    32
  0
VERTEX
  5
1E87
  8
241
 10
174.554
 20
-15.873699999999999
 30
0.0
 70
    32
  0
VERTEX
  5
1E88
  8
241
 10
174.55699999999999
 20
-15.867000000000001
 30
0.0
 70
    32
  0
VERTEX
  5
1E89
  8
241
 10
174.56100000000001
 20
-15.8604
 30
0.0
 70
    32
  0
VERTEX
  5
1E8A
  8
241
 10
174.56399999999999
 20
-15.8537
 30
0.0
 70
    32
  0
VERTEX
  5
1E8B
  8
241
 10
174.56700000000001
 20
-15.8469
 30
0.0
 70
    32
  0
VERTEX
  5
1E8C
  8
241
 10
174.56999999999999
 20
-15.840199999999999
 30
0.0
 70
    32
  0
VERTEX
  5
1E8D
  8
241
 10
174.57300000000001
 20
-15.833500000000001
 30
0.0
 70
    32
  0
VERTEX
  5
1E8E
  8
241
 10
174.57599999999999
 20
-15.8268
 30
0.0
 70
    32
  0
VERTEX
  5
1E8F
  8
241
 10
174.57900000000001
 20
-15.82
 30
0.0
 70
    32
  0
VERTEX
  5
1E90
  8
241
 10
174.58199999999999
 20
-15.8133
 30
0.0
 70
    32
  0
VERTEX
  5
1E91
  8
241
 10
174.584
 20
-15.8065
 30
0.0
 70
    32
  0
VERTEX
  5
1E92
  8
241
 10
174.58699999999999
 20
-15.7997
 30
0.0
 70
    32
  0
VERTEX
  5
1E93
  8
241
 10
174.59
 20
-15.792899999999999
 30
0.0
 70
    32
  0
VERTEX
  5
1E94
  8
241
 10
174.59299999999999
 20
-15.786099999999999
 30
0.0
 70
    32
  0
VERTEX
  5
1E95
  8
241
 10
174.596
 20
-15.779299999999999
 30
0.0
 70
    32
  0
VERTEX
  5
1E96
  8
241
 10
174.59899999999999
 20
-15.772500000000001
 30
0.0
 70
    32
  0
VERTEX
  5
1E97
  8
241
 10
174.601
 20
-15.765700000000001
 30
0.0
 70
    32
  0
VERTEX
  5
1E98
  8
241
 10
174.60400000000001
 20
-15.758900000000001
 30
0.0
 70
    32
  0
VERTEX
  5
1E99
  8
241
 10
174.607
 20
-15.752000000000001
 30
0.0
 70
    32
  0
VERTEX
  5
1E9A
  8
241
 10
174.60900000000001
 20
-15.745200000000001
 30
0.0
 70
    32
  0
VERTEX
  5
1E9B
  8
241
 10
174.61199999999999
 20
-15.738300000000001
 30
0.0
 70
    32
  0
VERTEX
  5
1E9C
  8
241
 10
174.61500000000001
 20
-15.731400000000001
 30
0.0
 70
    32
  0
VERTEX
  5
1E9D
  8
241
 10
174.61699999999999
 20
-15.724600000000001
 30
0.0
 70
    32
  0
VERTEX
  5
1E9E
  8
241
 10
174.62
 20
-15.717700000000001
 30
0.0
 70
    32
  0
VERTEX
  5
1E9F
  8
241
 10
174.62299999999999
 20
-15.710800000000001
 30
0.0
 70
    32
  0
VERTEX
  5
1EA0
  8
241
 10
174.625
 20
-15.703900000000001
 30
0.0
 70
    32
  0
VERTEX
  5
1EA1
  8
241
 10
174.62799999999999
 20
-15.696999999999999
 30
0.0
 70
    32
  0
VERTEX
  5
1EA2
  8
241
 10
174.63
 20
-15.690099999999999
 30
0.0
 70
    32
  0
VERTEX
  5
1EA3
  8
241
 10
174.63300000000001
 20
-15.683199999999999
 30
0.0
 70
    32
  0
VERTEX
  5
1EA4
  8
241
 10
174.63499999999999
 20
-15.676299999999999
 30
0.0
 70
    32
  0
VERTEX
  5
1EA5
  8
241
 10
174.637
 20
-15.6693
 30
0.0
 70
    32
  0
VERTEX
  5
1EA6
  8
241
 10
174.63999999999999
 20
-15.6624
 30
0.0
 70
    32
  0
VERTEX
  5
1EA7
  8
241
 10
174.642
 20
-15.6555
 30
0.0
 70
    32
  0
VERTEX
  5
1EA8
  8
241
 10
174.64400000000001
 20
-15.6485
 30
0.0
 70
    32
  0
VERTEX
  5
1EA9
  8
241
 10
174.64699999999999
 20
-15.6416
 30
0.0
 70
    32
  0
VERTEX
  5
1EAA
  8
241
 10
174.649
 20
-15.634600000000001
 30
0.0
 70
    32
  0
VERTEX
  5
1EAB
  8
241
 10
174.6509999999999
 20
-15.627599999999999
 30
0.0
 70
    32
  0
VERTEX
  5
1EAC
  8
241
 10
174.654
 20
-15.620699999999999
 30
0.0
 70
    32
  0
VERTEX
  5
1EAD
  8
241
 10
174.65600000000001
 20
-15.6137
 30
0.0
 70
    32
  0
VERTEX
  5
1EAE
  8
241
 10
174.6579999999999
 20
-15.6067
 30
0.0
 70
    32
  0
VERTEX
  5
1EAF
  8
241
 10
174.66
 20
-15.5997
 30
0.0
 70
    32
  0
VERTEX
  5
1EB0
  8
241
 10
174.66200000000001
 20
-15.592700000000001
 30
0.0
 70
    32
  0
VERTEX
  5
1EB1
  8
241
 10
174.66399999999999
 20
-15.585699999999999
 30
0.0
 70
    32
  0
VERTEX
  5
1EB2
  8
241
 10
174.666
 20
-15.5787
 30
0.0
 70
    32
  0
VERTEX
  5
1EB3
  8
241
 10
174.66900000000001
 20
-15.5717
 30
0.0
 70
    32
  0
VERTEX
  5
1EB4
  8
241
 10
174.67099999999999
 20
-15.5647
 30
0.0
 70
    32
  0
VERTEX
  5
1EB5
  8
241
 10
174.673
 20
-15.557700000000001
 30
0.0
 70
    32
  0
VERTEX
  5
1EB6
  8
241
 10
174.67500000000001
 20
-15.550599999999999
 30
0.0
 70
    32
  0
VERTEX
  5
1EB7
  8
241
 10
174.67599999999999
 20
-15.5436
 30
0.0
 70
    32
  0
VERTEX
  5
1EB8
  8
241
 10
174.678
 20
-15.5366
 30
0.0
 70
    32
  0
VERTEX
  5
1EB9
  8
241
 10
174.68000000000001
 20
-15.529500000000001
 30
0.0
 70
    32
  0
VERTEX
  5
1EBA
  8
241
 10
174.68199999999999
 20
-15.522500000000001
 30
0.0
 70
    32
  0
VERTEX
  5
1EBB
  8
241
 10
174.684
 20
-15.515499999999999
 30
0.0
 70
    32
  0
VERTEX
  5
1EBC
  8
241
 10
174.68600000000001
 20
-15.5084
 30
0.0
 70
    32
  0
VERTEX
  5
1EBD
  8
241
 10
174.68799999999999
 20
-15.5014
 30
0.0
 70
    32
  0
VERTEX
  5
1EBE
  8
241
 10
174.68899999999999
 20
-15.494300000000001
 30
0.0
 70
    32
  0
VERTEX
  5
1EBF
  8
241
 10
174.69099999999989
 20
-15.487299999999999
 30
0.0
 70
    32
  0
VERTEX
  5
1EC0
  8
241
 10
174.69300000000001
 20
-15.4802
 30
0.0
 70
    32
  0
VERTEX
  5
1EC1
  8
241
 10
174.69499999999999
 20
-15.473100000000001
 30
0.0
 70
    32
  0
VERTEX
  5
1EC2
  8
241
 10
174.696
 20
-15.466100000000001
 30
0.0
 70
    32
  0
VERTEX
  5
1EC3
  8
241
 10
174.69799999999989
 20
-15.459
 30
0.0
 70
    32
  0
VERTEX
  5
1EC4
  8
241
 10
174.69999999999999
 20
-15.4519
 30
0.0
 70
    32
  0
VERTEX
  5
1EC5
  8
241
 10
174.70099999999999
 20
-15.444900000000001
 30
0.0
 70
    32
  0
VERTEX
  5
1EC6
  8
241
 10
174.703
 20
-15.437799999999999
 30
0.0
 70
    32
  0
VERTEX
  5
1EC7
  8
241
 10
174.70400000000001
 20
-15.4307
 30
0.0
 70
    32
  0
VERTEX
  5
1EC8
  8
241
 10
174.70599999999999
 20
-15.4236
 30
0.0
 70
    32
  0
VERTEX
  5
1EC9
  8
241
 10
174.70699999999999
 20
-15.416499999999999
 30
0.0
 70
    32
  0
VERTEX
  5
1ECA
  8
241
 10
174.709
 20
-15.4094
 30
0.0
 70
    32
  0
VERTEX
  5
1ECB
  8
241
 10
174.71000000000001
 20
-15.4023
 30
0.0
 70
    32
  0
VERTEX
  5
1ECC
  8
241
 10
174.71199999999999
 20
-15.395200000000001
 30
0.0
 70
    32
  0
VERTEX
  5
1ECD
  8
241
 10
174.71299999999999
 20
-15.3881
 30
0.0
 70
    32
  0
VERTEX
  5
1ECE
  8
241
 10
174.714
 20
-15.381
 30
0.0
 70
    32
  0
VERTEX
  5
1ECF
  8
241
 10
174.71600000000001
 20
-15.373900000000001
 30
0.0
 70
    32
  0
VERTEX
  5
1ED0
  8
241
 10
174.71700000000001
 20
-15.3667
 30
0.0
 70
    32
  0
VERTEX
  5
1ED1
  8
241
 10
174.71799999999999
 20
-15.3596
 30
0.0
 70
    32
  0
VERTEX
  5
1ED2
  8
241
 10
174.71899999999999
 20
-15.352499999999999
 30
0.0
 70
    32
  0
VERTEX
  5
1ED3
  8
241
 10
174.72099999999989
 20
-15.3453
 30
0.0
 70
    32
  0
VERTEX
  5
1ED4
  8
241
 10
174.72200000000001
 20
-15.338200000000001
 30
0.0
 70
    32
  0
VERTEX
  5
1ED5
  8
241
 10
174.72300000000001
 20
-15.331
 30
0.0
 70
    32
  0
VERTEX
  5
1ED6
  8
241
 10
174.72399999999999
 20
-15.3239
 30
0.0
 70
    32
  0
VERTEX
  5
1ED7
  8
241
 10
174.72499999999999
 20
-15.316700000000001
 30
0.0
 70
    32
  0
VERTEX
  5
1ED8
  8
241
 10
174.727
 20
-15.3095
 30
0.0
 70
    32
  0
VERTEX
  5
1ED9
  8
241
 10
174.72800000000001
 20
-15.3024
 30
0.0
 70
    32
  0
VERTEX
  5
1EDA
  8
241
 10
174.72900000000001
 20
-15.295199999999999
 30
0.0
 70
    32
  0
VERTEX
  5
1EDB
  8
241
 10
174.72999999999999
 20
-15.288
 30
0.0
 70
    32
  0
VERTEX
  5
1EDC
  8
241
 10
174.73099999999999
 20
-15.280799999999999
 30
0.0
 70
    32
  0
VERTEX
  5
1EDD
  8
241
 10
174.732
 20
-15.2736
 30
0.0
 70
    32
  0
VERTEX
  5
1EDE
  8
241
 10
174.733
 20
-15.266400000000001
 30
0.0
 70
    32
  0
VERTEX
  5
1EDF
  8
241
 10
174.73400000000001
 20
-15.2592
 30
0.0
 70
    32
  0
VERTEX
  5
1EE0
  8
241
 10
174.73500000000001
 20
-15.252000000000001
 30
0.0
 70
    32
  0
VERTEX
  5
1EE1
  8
241
 10
174.73500000000001
 20
-15.2448
 30
0.0
 70
    32
  0
VERTEX
  5
1EE2
  8
241
 10
174.73599999999999
 20
-15.2376
 30
0.0
 70
    32
  0
VERTEX
  5
1EE3
  8
241
 10
174.73699999999999
 20
-15.230399999999999
 30
0.0
 70
    32
  0
VERTEX
  5
1EE4
  8
241
 10
174.738
 20
-15.2232
 30
0.0
 70
    32
  0
VERTEX
  5
1EE5
  8
241
 10
174.739
 20
-15.2159
 30
0.0
 70
    32
  0
VERTEX
  5
1EE6
  8
241
 10
174.739
 20
-15.2087
 30
0.0
 70
    32
  0
VERTEX
  5
1EE7
  8
241
 10
174.74000000000001
 20
-15.201499999999999
 30
0.0
 70
    32
  0
VERTEX
  5
1EE8
  8
241
 10
174.74100000000001
 20
-15.1942
 30
0.0
 70
    32
  0
VERTEX
  5
1EE9
  8
241
 10
174.74199999999999
 20
-15.186999999999999
 30
0.0
 70
    32
  0
VERTEX
  5
1EEA
  8
241
 10
174.74199999999999
 20
-15.1797
 30
0.0
 70
    32
  0
VERTEX
  5
1EEB
  8
241
 10
174.74299999999999
 20
-15.172499999999999
 30
0.0
 70
    32
  0
VERTEX
  5
1EEC
  8
241
 10
174.74299999999999
 20
-15.1652
 30
0.0
 70
    32
  0
VERTEX
  5
1EED
  8
241
 10
174.744
 20
-15.1579
 30
0.0
 70
    32
  0
VERTEX
  5
1EEE
  8
241
 10
174.744
 20
-15.150600000000001
 30
0.0
 70
    32
  0
VERTEX
  5
1EEF
  8
241
 10
174.745
 20
-15.1434
 30
0.0
 70
    32
  0
VERTEX
  5
1EF0
  8
241
 10
174.74600000000001
 20
-15.136100000000001
 30
0.0
 70
    32
  0
VERTEX
  5
1EF1
  8
241
 10
174.74600000000001
 20
-15.1288
 30
0.0
 70
    32
  0
VERTEX
  5
1EF2
  8
241
 10
174.74600000000001
 20
-15.121499999999999
 30
0.0
 70
    32
  0
VERTEX
  5
1EF3
  8
241
 10
174.74700000000001
 20
-15.1142
 30
0.0
 70
    32
  0
VERTEX
  5
1EF4
  8
241
 10
174.74700000000001
 20
-15.1069
 30
0.0
 70
    32
  0
VERTEX
  5
1EF5
  8
241
 10
174.74799999999999
 20
-15.099600000000001
 30
0.0
 70
    32
  0
VERTEX
  5
1EF6
  8
241
 10
174.74799999999999
 20
-15.0923
 30
0.0
 70
    32
  0
VERTEX
  5
1EF7
  8
241
 10
174.74799999999999
 20
-15.085000000000001
 30
0.0
 70
    32
  0
VERTEX
  5
1EF8
  8
241
 10
174.749
 20
-15.0776
 30
0.0
 70
    32
  0
VERTEX
  5
1EF9
  8
241
 10
174.749
 20
-15.0703
 30
0.0
 70
    32
  0
VERTEX
  5
1EFA
  8
241
 10
174.749
 20
-15.063000000000001
 30
0.0
 70
    32
  0
VERTEX
  5
1EFB
  8
241
 10
174.749
 20
-15.0556
 30
0.0
 70
    32
  0
VERTEX
  5
1EFC
  8
241
 10
174.749
 20
-15.048299999999999
 30
0.0
 70
    32
  0
VERTEX
  5
1EFD
  8
241
 10
174.75
 20
-15.041
 30
0.0
 70
    32
  0
VERTEX
  5
1EFE
  8
241
 10
174.75
 20
-15.0336
 30
0.0
 70
    32
  0
VERTEX
  5
1EFF
  8
241
 10
174.75
 20
-15.026199999999999
 30
0.0
 70
    32
  0
VERTEX
  5
1F00
  8
241
 10
174.75
 20
-15.0189
 30
0.0
 70
    32
  0
VERTEX
  5
1F01
  8
241
 10
174.75
 20
-15.0115
 30
0.0
 70
    32
  0
VERTEX
  5
1F02
  8
241
 10
174.75
 20
-15.004099999999999
 30
0.0
 70
    32
  0
VERTEX
  5
1F03
  8
241
 10
174.75
 20
-14.9968
 30
0.0
 70
    32
  0
VERTEX
  5
1F04
  8
241
 10
174.75
 20
-14.9894
 30
0.0
 70
    32
  0
VERTEX
  5
1F05
  8
241
 10
174.75
 20
-14.981999999999999
 30
0.0
 70
    32
  0
VERTEX
  5
1F06
  8
241
 10
174.75
 20
-14.974600000000001
 30
0.0
 70
    32
  0
VERTEX
  5
1F07
  8
241
 10
174.75
 20
-14.9673
 30
0.0
 70
    32
  0
VERTEX
  5
1F08
  8
241
 10
174.75
 20
-14.959899999999999
 30
0.0
 70
    32
  0
VERTEX
  5
1F09
  8
241
 10
174.749
 20
-14.9526
 30
0.0
 70
    32
  0
VERTEX
  5
1F0A
  8
241
 10
174.749
 20
-14.9452
 30
0.0
 70
    32
  0
VERTEX
  5
1F0B
  8
241
 10
174.749
 20
-14.937799999999999
 30
0.0
 70
    32
  0
VERTEX
  5
1F0C
  8
241
 10
174.749
 20
-14.9305
 30
0.0
 70
    32
  0
VERTEX
  5
1F0D
  8
241
 10
174.749
 20
-14.9231
 30
0.0
 70
    32
  0
VERTEX
  5
1F0E
  8
241
 10
174.74799999999999
 20
-14.915800000000001
 30
0.0
 70
    32
  0
VERTEX
  5
1F0F
  8
241
 10
174.74799999999999
 20
-14.9084
 30
0.0
 70
    32
  0
VERTEX
  5
1F10
  8
241
 10
174.74799999999999
 20
-14.9011
 30
0.0
 70
    32
  0
VERTEX
  5
1F11
  8
241
 10
174.74700000000001
 20
-14.893700000000001
 30
0.0
 70
    32
  0
VERTEX
  5
1F12
  8
241
 10
174.74700000000001
 20
-14.8864
 30
0.0
 70
    32
  0
VERTEX
  5
1F13
  8
241
 10
174.74600000000001
 20
-14.879
 30
0.0
 70
    32
  0
VERTEX
  5
1F14
  8
241
 10
174.74600000000001
 20
-14.871700000000001
 30
0.0
 70
    32
  0
VERTEX
  5
1F15
  8
241
 10
174.74600000000001
 20
-14.8644
 30
0.0
 70
    32
  0
VERTEX
  5
1F16
  8
241
 10
174.745
 20
-14.856999999999999
 30
0.0
 70
    32
  0
VERTEX
  5
1F17
  8
241
 10
174.745
 20
-14.8497
 30
0.0
 70
    32
  0
VERTEX
  5
1F18
  8
241
 10
174.744
 20
-14.8424
 30
0.0
 70
    32
  0
VERTEX
  5
1F19
  8
241
 10
174.74299999999999
 20
-14.835000000000001
 30
0.0
 70
    32
  0
VERTEX
  5
1F1A
  8
241
 10
174.74299999999999
 20
-14.8277
 30
0.0
 70
    32
  0
VERTEX
  5
1F1B
  8
241
 10
174.74199999999999
 20
-14.820399999999999
 30
0.0
 70
    32
  0
VERTEX
  5
1F1C
  8
241
 10
174.74199999999999
 20
-14.8131
 30
0.0
 70
    32
  0
VERTEX
  5
1F1D
  8
241
 10
174.74100000000001
 20
-14.8057
 30
0.0
 70
    32
  0
VERTEX
  5
1F1E
  8
241
 10
174.74000000000001
 20
-14.798400000000001
 30
0.0
 70
    32
  0
VERTEX
  5
1F1F
  8
241
 10
174.739
 20
-14.7911
 30
0.0
 70
    32
  0
VERTEX
  5
1F20
  8
241
 10
174.739
 20
-14.783799999999999
 30
0.0
 70
    32
  0
VERTEX
  5
1F21
  8
241
 10
174.738
 20
-14.7765
 30
0.0
 70
    32
  0
VERTEX
  5
1F22
  8
241
 10
174.73699999999999
 20
-14.7692
 30
0.0
 70
    32
  0
VERTEX
  5
1F23
  8
241
 10
174.73599999999999
 20
-14.761900000000001
 30
0.0
 70
    32
  0
VERTEX
  5
1F24
  8
241
 10
174.73500000000001
 20
-14.7546
 30
0.0
 70
    32
  0
VERTEX
  5
1F25
  8
241
 10
174.73500000000001
 20
-14.747299999999999
 30
0.0
 70
    32
  0
VERTEX
  5
1F26
  8
241
 10
174.73400000000001
 20
-14.74
 30
0.0
 70
    32
  0
VERTEX
  5
1F27
  8
241
 10
174.733
 20
-14.732699999999999
 30
0.0
 70
    32
  0
VERTEX
  5
1F28
  8
241
 10
174.732
 20
-14.7254
 30
0.0
 70
    32
  0
VERTEX
  5
1F29
  8
241
 10
174.73099999999999
 20
-14.7181
 30
0.0
 70
    32
  0
VERTEX
  5
1F2A
  8
241
 10
174.72999999999999
 20
-14.710800000000001
 30
0.0
 70
    32
  0
VERTEX
  5
1F2B
  8
241
 10
174.72900000000001
 20
-14.7036
 30
0.0
 70
    32
  0
VERTEX
  5
1F2C
  8
241
 10
174.72800000000001
 20
-14.696300000000001
 30
0.0
 70
    32
  0
VERTEX
  5
1F2D
  8
241
 10
174.727
 20
-14.689
 30
0.0
 70
    32
  0
VERTEX
  5
1F2E
  8
241
 10
174.726
 20
-14.681699999999999
 30
0.0
 70
    32
  0
VERTEX
  5
1F2F
  8
241
 10
174.72399999999999
 20
-14.6745
 30
0.0
 70
    32
  0
VERTEX
  5
1F30
  8
241
 10
174.72300000000001
 20
-14.667199999999999
 30
0.0
 70
    32
  0
VERTEX
  5
1F31
  8
241
 10
174.72200000000001
 20
-14.6599
 30
0.0
 70
    32
  0
VERTEX
  5
1F32
  8
241
 10
174.72099999999989
 20
-14.652699999999999
 30
0.0
 70
    32
  0
VERTEX
  5
1F33
  8
241
 10
174.72
 20
-14.6454
 30
0.0
 70
    32
  0
VERTEX
  5
1F34
  8
241
 10
174.71799999999999
 20
-14.6381
 30
0.0
 70
    32
  0
VERTEX
  5
1F35
  8
241
 10
174.71700000000001
 20
-14.6309
 30
0.0
 70
    32
  0
VERTEX
  5
1F36
  8
241
 10
174.71600000000001
 20
-14.6236
 30
0.0
 70
    32
  0
VERTEX
  5
1F37
  8
241
 10
174.714
 20
-14.616400000000001
 30
0.0
 70
    32
  0
VERTEX
  5
1F38
  8
241
 10
174.71299999999999
 20
-14.6091
 30
0.0
 70
    32
  0
VERTEX
  5
1F39
  8
241
 10
174.71199999999999
 20
-14.601900000000001
 30
0.0
 70
    32
  0
VERTEX
  5
1F3A
  8
241
 10
174.71000000000001
 20
-14.5946
 30
0.0
 70
    32
  0
VERTEX
  5
1F3B
  8
241
 10
174.709
 20
-14.587400000000001
 30
0.0
 70
    32
  0
VERTEX
  5
1F3C
  8
241
 10
174.70699999999999
 20
-14.5802
 30
0.0
 70
    32
  0
VERTEX
  5
1F3D
  8
241
 10
174.70599999999999
 20
-14.572900000000001
 30
0.0
 70
    32
  0
VERTEX
  5
1F3E
  8
241
 10
174.70400000000001
 20
-14.5657
 30
0.0
 70
    32
  0
VERTEX
  5
1F3F
  8
241
 10
174.703
 20
-14.5585
 30
0.0
 70
    32
  0
VERTEX
  5
1F40
  8
241
 10
174.70099999999999
 20
-14.551299999999999
 30
0.0
 70
    32
  0
VERTEX
  5
1F41
  8
241
 10
174.69999999999999
 20
-14.5441
 30
0.0
 70
    32
  0
VERTEX
  5
1F42
  8
241
 10
174.69799999999989
 20
-14.536799999999999
 30
0.0
 70
    32
  0
VERTEX
  5
1F43
  8
241
 10
174.696
 20
-14.5296
 30
0.0
 70
    32
  0
VERTEX
  5
1F44
  8
241
 10
174.69499999999999
 20
-14.522399999999999
 30
0.0
 70
    32
  0
VERTEX
  5
1F45
  8
241
 10
174.69300000000001
 20
-14.5152
 30
0.0
 70
    32
  0
VERTEX
  5
1F46
  8
241
 10
174.69099999999989
 20
-14.507999999999999
 30
0.0
 70
    32
  0
VERTEX
  5
1F47
  8
241
 10
174.69
 20
-14.5008
 30
0.0
 70
    32
  0
VERTEX
  5
1F48
  8
241
 10
174.68799999999999
 20
-14.493600000000001
 30
0.0
 70
    32
  0
VERTEX
  5
1F49
  8
241
 10
174.68600000000001
 20
-14.4864
 30
0.0
 70
    32
  0
VERTEX
  5
1F4A
  8
241
 10
174.684
 20
-14.479100000000001
 30
0.0
 70
    32
  0
VERTEX
  5
1F4B
  8
241
 10
174.68199999999999
 20
-14.4719
 30
0.0
 70
    32
  0
VERTEX
  5
1F4C
  8
241
 10
174.68000000000001
 20
-14.464700000000001
 30
0.0
 70
    32
  0
VERTEX
  5
1F4D
  8
241
 10
174.679
 20
-14.4575
 30
0.0
 70
    32
  0
VERTEX
  5
1F4E
  8
241
 10
174.67699999999999
 20
-14.4503
 30
0.0
 70
    32
  0
VERTEX
  5
1F4F
  8
241
 10
174.67500000000001
 20
-14.443099999999999
 30
0.0
 70
    32
  0
VERTEX
  5
1F50
  8
241
 10
174.673
 20
-14.4359
 30
0.0
 70
    32
  0
VERTEX
  5
1F51
  8
241
 10
174.67099999999999
 20
-14.428699999999999
 30
0.0
 70
    32
  0
VERTEX
  5
1F52
  8
241
 10
174.66900000000001
 20
-14.4216
 30
0.0
 70
    32
  0
VERTEX
  5
1F53
  8
241
 10
174.667
 20
-14.414400000000001
 30
0.0
 70
    32
  0
VERTEX
  5
1F54
  8
241
 10
174.66499999999999
 20
-14.4072
 30
0.0
 70
    32
  0
VERTEX
  5
1F55
  8
241
 10
174.66200000000001
 20
-14.4
 30
0.0
 70
    32
  0
VERTEX
  5
1F56
  8
241
 10
174.66
 20
-14.392799999999999
 30
0.0
 70
    32
  0
VERTEX
  5
1F57
  8
241
 10
174.6579999999999
 20
-14.3856
 30
0.0
 70
    32
  0
VERTEX
  5
1F58
  8
241
 10
174.65600000000001
 20
-14.378500000000001
 30
0.0
 70
    32
  0
VERTEX
  5
1F59
  8
241
 10
174.654
 20
-14.3713
 30
0.0
 70
    32
  0
VERTEX
  5
1F5A
  8
241
 10
174.65199999999999
 20
-14.364100000000001
 30
0.0
 70
    32
  0
VERTEX
  5
1F5B
  8
241
 10
174.649
 20
-14.356999999999999
 30
0.0
 70
    32
  0
VERTEX
  5
1F5C
  8
241
 10
174.64699999999999
 20
-14.3498
 30
0.0
 70
    32
  0
VERTEX
  5
1F5D
  8
241
 10
174.64500000000001
 20
-14.342599999999999
 30
0.0
 70
    32
  0
VERTEX
  5
1F5E
  8
241
 10
174.642
 20
-14.3355
 30
0.0
 70
    32
  0
VERTEX
  5
1F5F
  8
241
 10
174.63999999999999
 20
-14.3283
 30
0.0
 70
    32
  0
VERTEX
  5
1F60
  8
241
 10
174.63800000000001
 20
-14.321199999999999
 30
0.0
 70
    32
  0
VERTEX
  5
1F61
  8
241
 10
174.63499999999999
 20
-14.3141
 30
0.0
 70
    32
  0
VERTEX
  5
1F62
  8
241
 10
174.63300000000001
 20
-14.306900000000001
 30
0.0
 70
    32
  0
VERTEX
  5
1F63
  8
241
 10
174.63
 20
-14.299799999999999
 30
0.0
 70
    32
  0
VERTEX
  5
1F64
  8
241
 10
174.62799999999999
 20
-14.2927
 30
0.0
 70
    32
  0
VERTEX
  5
1F65
  8
241
 10
174.625
 20
-14.285600000000001
 30
0.0
 70
    32
  0
VERTEX
  5
1F66
  8
241
 10
174.62299999999999
 20
-14.2784
 30
0.0
 70
    32
  0
VERTEX
  5
1F67
  8
241
 10
174.62
 20
-14.2713
 30
0.0
 70
    32
  0
VERTEX
  5
1F68
  8
241
 10
174.61799999999999
 20
-14.264200000000001
 30
0.0
 70
    32
  0
VERTEX
  5
1F69
  8
241
 10
174.61500000000001
 20
-14.257099999999999
 30
0.0
 70
    32
  0
VERTEX
  5
1F6A
  8
241
 10
174.61199999999999
 20
-14.25
 30
0.0
 70
    32
  0
VERTEX
  5
1F6B
  8
241
 10
174.61000000000001
 20
-14.243
 30
0.0
 70
    32
  0
VERTEX
  5
1F6C
  8
241
 10
174.607
 20
-14.235900000000001
 30
0.0
 70
    32
  0
VERTEX
  5
1F6D
  8
241
 10
174.60400000000001
 20
-14.2288
 30
0.0
 70
    32
  0
VERTEX
  5
1F6E
  8
241
 10
174.602
 20
-14.2217
 30
0.0
 70
    32
  0
VERTEX
  5
1F6F
  8
241
 10
174.59899999999999
 20
-14.214700000000001
 30
0.0
 70
    32
  0
VERTEX
  5
1F70
  8
241
 10
174.596
 20
-14.207599999999999
 30
0.0
 70
    32
  0
VERTEX
  5
1F71
  8
241
 10
174.59299999999999
 20
-14.2006
 30
0.0
 70
    32
  0
VERTEX
  5
1F72
  8
241
 10
174.59
 20
-14.1935
 30
0.0
 70
    32
  0
VERTEX
  5
1F73
  8
241
 10
174.58799999999999
 20
-14.186500000000001
 30
0.0
 70
    32
  0
VERTEX
  5
1F74
  8
241
 10
174.58500000000001
 20
-14.179500000000001
 30
0.0
 70
    32
  0
VERTEX
  5
1F75
  8
241
 10
174.58199999999999
 20
-14.172499999999999
 30
0.0
 70
    32
  0
VERTEX
  5
1F76
  8
241
 10
174.57900000000001
 20
-14.1654
 30
0.0
 70
    32
  0
VERTEX
  5
1F77
  8
241
 10
174.57599999999999
 20
-14.1584
 30
0.0
 70
    32
  0
VERTEX
  5
1F78
  8
241
 10
174.57300000000001
 20
-14.151400000000001
 30
0.0
 70
    32
  0
VERTEX
  5
1F79
  8
241
 10
174.56999999999999
 20
-14.144500000000001
 30
0.0
 70
    32
  0
VERTEX
  5
1F7A
  8
241
 10
174.56700000000001
 20
-14.137499999999999
 30
0.0
 70
    32
  0
VERTEX
  5
1F7B
  8
241
 10
174.56399999999999
 20
-14.1305
 30
0.0
 70
    32
  0
VERTEX
  5
1F7C
  8
241
 10
174.56100000000001
 20
-14.1235
 30
0.0
 70
    32
  0
VERTEX
  5
1F7D
  8
241
 10
174.55799999999999
 20
-14.1166
 30
0.0
 70
    32
  0
VERTEX
  5
1F7E
  8
241
 10
174.55500000000001
 20
-14.1096
 30
0.0
 70
    32
  0
VERTEX
  5
1F7F
  8
241
 10
174.55099999999999
 20
-14.1027
 30
0.0
 70
    32
  0
VERTEX
  5
1F80
  8
241
 10
174.548
 20
-14.095800000000001
 30
0.0
 70
    32
  0
VERTEX
  5
1F81
  8
241
 10
174.54499999999999
 20
-14.088900000000001
 30
0.0
 70
    32
  0
VERTEX
  5
1F82
  8
241
 10
174.542
 20
-14.081899999999999
 30
0.0
 70
    32
  0
VERTEX
  5
1F83
  8
241
 10
174.53899999999999
 20
-14.074999999999999
 30
0.0
 70
    32
  0
VERTEX
  5
1F84
  8
241
 10
174.535
 20
-14.068099999999999
 30
0.0
 70
    32
  0
VERTEX
  5
1F85
  8
241
 10
174.53200000000001
 20
-14.061299999999999
 30
0.0
 70
    32
  0
VERTEX
  5
1F86
  8
241
 10
174.529
 20
-14.054399999999999
 30
0.0
 70
    32
  0
VERTEX
  5
1F87
  8
241
 10
174.52500000000001
 20
-14.047499999999999
 30
0.0
 70
    32
  0
VERTEX
  5
1F88
  8
241
 10
174.52199999999999
 20
-14.040699999999999
 30
0.0
 70
    32
  0
VERTEX
  5
1F89
  8
241
 10
174.51900000000001
 20
-14.033799999999999
 30
0.0
 70
    32
  0
VERTEX
  5
1F8A
  8
241
 10
174.51499999999999
 20
-14.026999999999999
 30
0.0
 70
    32
  0
VERTEX
  5
1F8B
  8
241
 10
174.512
 20
-14.020200000000001
 30
0.0
 70
    32
  0
VERTEX
  5
1F8C
  8
241
 10
174.5079999999999
 20
-14.013400000000001
 30
0.0
 70
    32
  0
VERTEX
  5
1F8D
  8
241
 10
174.505
 20
-14.006600000000001
 30
0.0
 70
    32
  0
VERTEX
  5
1F8E
  8
241
 10
174.50200000000001
 20
-13.9998
 30
0.0
 70
    32
  0
VERTEX
  5
1F8F
  8
241
 10
174.49799999999999
 20
-13.993
 30
0.0
 70
    32
  0
VERTEX
  5
1F90
  8
241
 10
174.494
 20
-13.9862
 30
0.0
 70
    32
  0
VERTEX
  5
1F91
  8
241
 10
174.49100000000001
 20
-13.9795
 30
0.0
 70
    32
  0
VERTEX
  5
1F92
  8
241
 10
174.48699999999999
 20
-13.9727
 30
0.0
 70
    32
  0
VERTEX
  5
1F93
  8
241
 10
174.48400000000001
 20
-13.965999999999999
 30
0.0
 70
    32
  0
VERTEX
  5
1F94
  8
241
 10
174.47999999999999
 20
-13.959300000000001
 30
0.0
 70
    32
  0
VERTEX
  5
1F95
  8
241
 10
174.476
 20
-13.952500000000001
 30
0.0
 70
    32
  0
VERTEX
  5
1F96
  8
241
 10
174.47300000000001
 20
-13.9458
 30
0.0
 70
    32
  0
VERTEX
  5
1F97
  8
241
 10
174.46899999999999
 20
-13.9391
 30
0.0
 70
    32
  0
VERTEX
  5
1F98
  8
241
 10
174.465
 20
-13.932399999999999
 30
0.0
 70
    32
  0
VERTEX
  5
1F99
  8
241
 10
174.46199999999999
 20
-13.925800000000001
 30
0.0
 70
    32
  0
VERTEX
  5
1F9A
  8
241
 10
174.458
 20
-13.9191
 30
0.0
 70
    32
  0
VERTEX
  5
1F9B
  8
241
 10
174.45400000000001
 20
-13.9124
 30
0.0
 70
    32
  0
VERTEX
  5
1F9C
  8
241
 10
174.44999999999999
 20
-13.905799999999999
 30
0.0
 70
    32
  0
VERTEX
  5
1F9D
  8
241
 10
174.446
 20
-13.8992
 30
0.0
 70
    32
  0
VERTEX
  5
1F9E
  8
241
 10
174.44300000000001
 20
-13.8925
 30
0.0
 70
    32
  0
VERTEX
  5
1F9F
  8
241
 10
174.43899999999999
 20
-13.885899999999999
 30
0.0
 70
    32
  0
VERTEX
  5
1FA0
  8
241
 10
174.435
 20
-13.879300000000001
 30
0.0
 70
    32
  0
VERTEX
  5
1FA1
  8
241
 10
174.43100000000001
 20
-13.8727
 30
0.0
 70
    32
  0
VERTEX
  5
1FA2
  8
241
 10
174.42699999999999
 20
-13.866099999999999
 30
0.0
 70
    32
  0
VERTEX
  5
1FA3
  8
241
 10
174.423
 20
-13.8596
 30
0.0
 70
    32
  0
VERTEX
  5
1FA4
  8
241
 10
174.41900000000001
 20
-13.853
 30
0.0
 70
    32
  0
VERTEX
  5
1FA5
  8
241
 10
174.41499999999999
 20
-13.846399999999999
 30
0.0
 70
    32
  0
VERTEX
  5
1FA6
  8
241
 10
174.411
 20
-13.8399
 30
0.0
 70
    32
  0
VERTEX
  5
1FA7
  8
241
 10
174.40700000000001
 20
-13.833399999999999
 30
0.0
 70
    32
  0
VERTEX
  5
1FA8
  8
241
 10
174.40299999999999
 20
-13.8268
 30
0.0
 70
    32
  0
VERTEX
  5
1FA9
  8
241
 10
174.399
 20
-13.8203
 30
0.0
 70
    32
  0
VERTEX
  5
1FAA
  8
241
 10
174.39500000000001
 20
-13.813800000000001
 30
0.0
 70
    32
  0
VERTEX
  5
1FAB
  8
241
 10
174.39099999999999
 20
-13.8073
 30
0.0
 70
    32
  0
VERTEX
  5
1FAC
  8
241
 10
174.386
 20
-13.800800000000001
 30
0.0
 70
    32
  0
VERTEX
  5
1FAD
  8
241
 10
174.38200000000001
 20
-13.7944
 30
0.0
 70
    32
  0
VERTEX
  5
1FAE
  8
241
 10
174.37799999999999
 20
-13.7879
 30
0.0
 70
    32
  0
VERTEX
  5
1FAF
  8
241
 10
174.374
 20
-13.781499999999999
 30
0.0
 70
    32
  0
VERTEX
  5
1FB0
  8
241
 10
174.37
 20
-13.775
 30
0.0
 70
    32
  0
VERTEX
  5
1FB1
  8
241
 10
174.36500000000001
 20
-13.768599999999999
 30
0.0
 70
    32
  0
VERTEX
  5
1FB2
  8
241
 10
174.36099999999999
 20
-13.7622
 30
0.0
 70
    32
  0
VERTEX
  5
1FB3
  8
241
 10
174.357
 20
-13.755800000000001
 30
0.0
 70
    32
  0
VERTEX
  5
1FB4
  8
241
 10
174.352
 20
-13.7494
 30
0.0
 70
    32
  0
VERTEX
  5
1FB5
  8
241
 10
174.34800000000001
 20
-13.743
 30
0.0
 70
    32
  0
VERTEX
  5
1FB6
  8
241
 10
174.34399999999999
 20
-13.736599999999999
 30
0.0
 70
    32
  0
VERTEX
  5
1FB7
  8
241
 10
174.339
 20
-13.7302
 30
0.0
 70
    32
  0
VERTEX
  5
1FB8
  8
241
 10
174.33500000000001
 20
-13.7239
 30
0.0
 70
    32
  0
VERTEX
  5
1FB9
  8
241
 10
174.33000000000001
 20
-13.717499999999999
 30
0.0
 70
    32
  0
VERTEX
  5
1FBA
  8
241
 10
174.32599999999999
 20
-13.7112
 30
0.0
 70
    32
  0
VERTEX
  5
1FBB
  8
241
 10
174.321
 20
-13.704800000000001
 30
0.0
 70
    32
  0
VERTEX
  5
1FBC
  8
241
 10
174.31700000000001
 20
-13.698499999999999
 30
0.0
 70
    32
  0
VERTEX
  5
1FBD
  8
241
 10
174.31200000000001
 20
-13.6922
 30
0.0
 70
    32
  0
VERTEX
  5
1FBE
  8
241
 10
174.30799999999999
 20
-13.6859
 30
0.0
 70
    32
  0
VERTEX
  5
1FBF
  8
241
 10
174.303
 20
-13.679600000000001
 30
0.0
 70
    32
  0
VERTEX
  5
1FC0
  8
241
 10
174.298
 20
-13.673400000000001
 30
0.0
 70
    32
  0
VERTEX
  5
1FC1
  8
241
 10
174.29400000000001
 20
-13.6671
 30
0.0
 70
    32
  0
VERTEX
  5
1FC2
  8
241
 10
174.28899999999999
 20
-13.6608
 30
0.0
 70
    32
  0
VERTEX
  5
1FC3
  8
241
 10
174.28399999999999
 20
-13.6546
 30
0.0
 70
    32
  0
VERTEX
  5
1FC4
  8
241
 10
174.28
 20
-13.648400000000001
 30
0.0
 70
    32
  0
VERTEX
  5
1FC5
  8
241
 10
174.27500000000001
 20
-13.642099999999999
 30
0.0
 70
    32
  0
VERTEX
  5
1FC6
  8
241
 10
174.27000000000001
 20
-13.635899999999999
 30
0.0
 70
    32
  0
VERTEX
  5
1FC7
  8
241
 10
174.26499999999999
 20
-13.6297
 30
0.0
 70
    32
  0
VERTEX
  5
1FC8
  8
241
 10
174.261
 20
-13.6235
 30
0.0
 70
    32
  0
VERTEX
  5
1FC9
  8
241
 10
174.25599999999989
 20
-13.6173
 30
0.0
 70
    32
  0
VERTEX
  5
1FCA
  8
241
 10
174.251
 20
-13.6111
 30
0.0
 70
    32
  0
VERTEX
  5
1FCB
  8
241
 10
174.24600000000001
 20
-13.605
 30
0.0
 70
    32
  0
VERTEX
  5
1FCC
  8
241
 10
174.24100000000001
 20
-13.598800000000001
 30
0.0
 70
    32
  0
VERTEX
  5
1FCD
  8
241
 10
174.23599999999999
 20
-13.592700000000001
 30
0.0
 70
    32
  0
VERTEX
  5
1FCE
  8
241
 10
174.23099999999999
 20
-13.586600000000001
 30
0.0
 70
    32
  0
VERTEX
  5
1FCF
  8
241
 10
174.226
 20
-13.580399999999999
 30
0.0
 70
    32
  0
VERTEX
  5
1FD0
  8
241
 10
174.221
 20
-13.574299999999999
 30
0.0
 70
    32
  0
VERTEX
  5
1FD1
  8
241
 10
174.21600000000001
 20
-13.568199999999999
 30
0.0
 70
    32
  0
VERTEX
  5
1FD2
  8
241
 10
174.21100000000001
 20
-13.562099999999999
 30
0.0
 70
    32
  0
VERTEX
  5
1FD3
  8
241
 10
174.20599999999999
 20
-13.556100000000001
 30
0.0
 70
    32
  0
VERTEX
  5
1FD4
  8
241
 10
174.20099999999999
 20
-13.550000000000001
 30
0.0
 70
    32
  0
VERTEX
  5
1FD5
  8
241
 10
174.196
 20
-13.544
 30
0.0
 70
    32
  0
VERTEX
  5
1FD6
  8
241
 10
174.191
 20
-13.5379
 30
0.0
 70
    32
  0
VERTEX
  5
1FD7
  8
241
 10
174.18599999999989
 20
-13.5319
 30
0.0
 70
    32
  0
VERTEX
  5
1FD8
  8
241
 10
174.18100000000001
 20
-13.5259
 30
0.0
 70
    32
  0
VERTEX
  5
1FD9
  8
241
 10
174.17599999999999
 20
-13.5199
 30
0.0
 70
    32
  0
VERTEX
  5
1FDA
  8
241
 10
174.1699999999999
 20
-13.5139
 30
0.0
 70
    32
  0
VERTEX
  5
1FDB
  8
241
 10
174.16499999999999
 20
-13.507899999999999
 30
0.0
 70
    32
  0
VERTEX
  5
1FDC
  8
241
 10
174.16
 20
-13.501899999999999
 30
0.0
 70
    32
  0
VERTEX
  5
1FDD
  8
241
 10
174.155
 20
-13.496
 30
0.0
 70
    32
  0
VERTEX
  5
1FDE
  8
241
 10
174.149
 20
-13.4901
 30
0.0
 70
    32
  0
VERTEX
  5
1FDF
  8
241
 10
174.14400000000001
 20
-13.4841
 30
0.0
 70
    32
  0
VERTEX
  5
1FE0
  8
241
 10
174.13900000000001
 20
-13.478199999999999
 30
0.0
 70
    32
  0
VERTEX
  5
1FE1
  8
241
 10
174.13399999999999
 20
-13.472300000000001
 30
0.0
 70
    32
  0
VERTEX
  5
1FE2
  8
241
 10
174.12799999999999
 20
-13.4665
 30
0.0
 70
    32
  0
VERTEX
  5
1FE3
  8
241
 10
174.12299999999999
 20
-13.460599999999999
 30
0.0
 70
    32
  0
VERTEX
  5
1FE4
  8
241
 10
174.11699999999999
 20
-13.454700000000001
 30
0.0
 70
    32
  0
VERTEX
  5
1FE5
  8
241
 10
174.11199999999999
 20
-13.4489
 30
0.0
 70
    32
  0
VERTEX
  5
1FE6
  8
241
 10
174.107
 20
-13.443099999999999
 30
0.0
 70
    32
  0
VERTEX
  5
1FE7
  8
241
 10
174.101
 20
-13.4373
 30
0.0
 70
    32
  0
VERTEX
  5
1FE8
  8
241
 10
174.096
 20
-13.4315
 30
0.0
 70
    32
  0
VERTEX
  5
1FE9
  8
241
 10
174.09
 20
-13.425700000000001
 30
0.0
 70
    32
  0
VERTEX
  5
1FEA
  8
241
 10
174.08500000000001
 20
-13.4199
 30
0.0
 70
    32
  0
VERTEX
  5
1FEB
  8
241
 10
174.07900000000001
 20
-13.414199999999999
 30
0.0
 70
    32
  0
VERTEX
  5
1FEC
  8
241
 10
174.07300000000001
 20
-13.4084
 30
0.0
 70
    32
  0
VERTEX
  5
1FED
  8
241
 10
174.06800000000001
 20
-13.402699999999999
 30
0.0
 70
    32
  0
VERTEX
  5
1FEE
  8
241
 10
174.06200000000001
 20
-13.397
 30
0.0
 70
    32
  0
VERTEX
  5
1FEF
  8
241
 10
174.05699999999999
 20
-13.391299999999999
 30
0.0
 70
    32
  0
VERTEX
  5
1FF0
  8
241
 10
174.05099999999999
 20
-13.3857
 30
0.0
 70
    32
  0
VERTEX
  5
1FF1
  8
241
 10
174.04499999999999
 20
-13.380000000000001
 30
0.0
 70
    32
  0
VERTEX
  5
1FF2
  8
241
 10
174.03999999999999
 20
-13.3744
 30
0.0
 70
    32
  0
VERTEX
  5
1FF3
  8
241
 10
174.03399999999999
 20
-13.3687
 30
0.0
 70
    32
  0
VERTEX
  5
1FF4
  8
241
 10
174.02799999999999
 20
-13.363099999999999
 30
0.0
 70
    32
  0
VERTEX
  5
1FF5
  8
241
 10
174.023
 20
-13.3576
 30
0.0
 70
    32
  0
VERTEX
  5
1FF6
  8
241
 10
174.017
 20
-13.352
 30
0.0
 70
    32
  0
VERTEX
  5
1FF7
  8
241
 10
174.011
 20
-13.346399999999999
 30
0.0
 70
    32
  0
VERTEX
  5
1FF8
  8
241
 10
174.005
 20
-13.3409
 30
0.0
 70
    32
  0
VERTEX
  5
1FF9
  8
241
 10
174.0
 20
-13.3354
 30
0.0
 70
    32
  0
VERTEX
  5
1FFA
  8
241
 10
173.994
 20
-13.3299
 30
0.0
 70
    32
  0
VERTEX
  5
1FFB
  8
241
 10
173.988
 20
-13.324400000000001
 30
0.0
 70
    32
  0
VERTEX
  5
1FFC
  8
241
 10
173.982
 20
-13.318899999999999
 30
0.0
 70
    32
  0
VERTEX
  5
1FFD
  8
241
 10
173.976
 20
-13.313499999999999
 30
0.0
 70
    32
  0
VERTEX
  5
1FFE
  8
241
 10
173.97
 20
-13.308
 30
0.0
 70
    32
  0
VERTEX
  5
1FFF
  8
241
 10
173.965
 20
-13.3026
 30
0.0
 70
    32
  0
VERTEX
  5
2000
  8
241
 10
173.959
 20
-13.2972
 30
0.0
 70
    32
  0
VERTEX
  5
2001
  8
241
 10
173.953
 20
-13.2918
 30
0.0
 70
    32
  0
VERTEX
  5
2002
  8
241
 10
173.947
 20
-13.2865
 30
0.0
 70
    32
  0
VERTEX
  5
2003
  8
241
 10
173.94099999999989
 20
-13.2811
 30
0.0
 70
    32
  0
VERTEX
  5
2004
  8
241
 10
173.935
 20
-13.2758
 30
0.0
 70
    32
  0
VERTEX
  5
2005
  8
241
 10
173.929
 20
-13.2705
 30
0.0
 70
    32
  0
VERTEX
  5
2006
  8
241
 10
173.923
 20
-13.2652
 30
0.0
 70
    32
  0
VERTEX
  5
2007
  8
241
 10
173.917
 20
-13.2599
 30
0.0
 70
    32
  0
VERTEX
  5
2008
  8
241
 10
173.91099999999989
 20
-13.2547
 30
0.0
 70
    32
  0
VERTEX
  5
2009
  8
241
 10
173.905
 20
-13.2494
 30
0.0
 70
    32
  0
VERTEX
  5
200A
  8
241
 10
173.899
 20
-13.244199999999999
 30
0.0
 70
    32
  0
VERTEX
  5
200B
  8
241
 10
173.893
 20
-13.239000000000001
 30
0.0
 70
    32
  0
VERTEX
  5
200C
  8
241
 10
173.887
 20
-13.2338
 30
0.0
 70
    32
  0
VERTEX
  5
200D
  8
241
 10
173.88
 20
-13.2286
 30
0.0
 70
    32
  0
VERTEX
  5
200E
  8
241
 10
173.874
 20
-13.2235
 30
0.0
 70
    32
  0
VERTEX
  5
200F
  8
241
 10
173.86799999999999
 20
-13.218299999999999
 30
0.0
 70
    32
  0
VERTEX
  5
2010
  8
241
 10
173.86199999999999
 20
-13.213200000000001
 30
0.0
 70
    32
  0
VERTEX
  5
2011
  8
241
 10
173.85599999999999
 20
-13.2081
 30
0.0
 70
    32
  0
VERTEX
  5
2012
  8
241
 10
173.84999999999999
 20
-13.202999999999999
 30
0.0
 70
    32
  0
VERTEX
  5
2013
  8
241
 10
173.84299999999999
 20
-13.197900000000001
 30
0.0
 70
    32
  0
VERTEX
  5
2014
  8
241
 10
173.83699999999999
 20
-13.1929
 30
0.0
 70
    32
  0
VERTEX
  5
2015
  8
241
 10
173.83099999999999
 20
-13.187799999999999
 30
0.0
 70
    32
  0
VERTEX
  5
2016
  8
241
 10
173.82499999999999
 20
-13.1828
 30
0.0
 70
    32
  0
VERTEX
  5
2017
  8
241
 10
173.81800000000001
 20
-13.1778
 30
0.0
 70
    32
  0
VERTEX
  5
2018
  8
241
 10
173.81200000000001
 20
-13.172800000000001
 30
0.0
 70
    32
  0
VERTEX
  5
2019
  8
241
 10
173.80600000000001
 20
-13.1678
 30
0.0
 70
    32
  0
VERTEX
  5
201A
  8
241
 10
173.79900000000001
 20
-13.1629
 30
0.0
 70
    32
  0
VERTEX
  5
201B
  8
241
 10
173.79300000000001
 20
-13.1579
 30
0.0
 70
    32
  0
VERTEX
  5
201C
  8
241
 10
173.78700000000001
 20
-13.153
 30
0.0
 70
    32
  0
VERTEX
  5
201D
  8
241
 10
173.78
 20
-13.148099999999999
 30
0.0
 70
    32
  0
VERTEX
  5
201E
  8
241
 10
173.774
 20
-13.1432
 30
0.0
 70
    32
  0
VERTEX
  5
201F
  8
241
 10
173.767
 20
-13.138299999999999
 30
0.0
 70
    32
  0
VERTEX
  5
2020
  8
241
 10
173.761
 20
-13.1335
 30
0.0
 70
    32
  0
VERTEX
  5
2021
  8
241
 10
173.75399999999999
 20
-13.1287
 30
0.0
 70
    32
  0
VERTEX
  5
2022
  8
241
 10
173.74799999999999
 20
-13.123799999999999
 30
0.0
 70
    32
  0
VERTEX
  5
2023
  8
241
 10
173.74199999999999
 20
-13.119
 30
0.0
 70
    32
  0
VERTEX
  5
2024
  8
241
 10
173.73500000000001
 20
-13.1142
 30
0.0
 70
    32
  0
VERTEX
  5
2025
  8
241
 10
173.72800000000001
 20
-13.109500000000001
 30
0.0
 70
    32
  0
VERTEX
  5
2026
  8
241
 10
173.72200000000001
 20
-13.104699999999999
 30
0.0
 70
    32
  0
VERTEX
  5
2027
  8
241
 10
173.715
 20
-13.1
 30
0.0
 70
    32
  0
VERTEX
  5
2028
  8
241
 10
173.709
 20
-13.0952
 30
0.0
 70
    32
  0
VERTEX
  5
2029
  8
241
 10
173.702
 20
-13.0905
 30
0.0
 70
    32
  0
VERTEX
  5
202A
  8
241
 10
173.696
 20
-13.085900000000001
 30
0.0
 70
    32
  0
VERTEX
  5
202B
  8
241
 10
173.68899999999999
 20
-13.081200000000001
 30
0.0
 70
    32
  0
VERTEX
  5
202C
  8
241
 10
173.68199999999999
 20
-13.076499999999999
 30
0.0
 70
    32
  0
VERTEX
  5
202D
  8
241
 10
173.67599999999999
 20
-13.071899999999999
 30
0.0
 70
    32
  0
VERTEX
  5
202E
  8
241
 10
173.66900000000001
 20
-13.067299999999999
 30
0.0
 70
    32
  0
VERTEX
  5
202F
  8
241
 10
173.66200000000001
 20
-13.0627
 30
0.0
 70
    32
  0
VERTEX
  5
2030
  8
241
 10
173.65600000000001
 20
-13.0581
 30
0.0
 70
    32
  0
VERTEX
  5
2031
  8
241
 10
173.649
 20
-13.0535
 30
0.0
 70
    32
  0
VERTEX
  5
2032
  8
241
 10
173.642
 20
-13.048999999999999
 30
0.0
 70
    32
  0
VERTEX
  5
2033
  8
241
 10
173.63499999999999
 20
-13.0444
 30
0.0
 70
    32
  0
VERTEX
  5
2034
  8
241
 10
173.62799999999999
 20
-13.039899999999999
 30
0.0
 70
    32
  0
VERTEX
  5
2035
  8
241
 10
173.62200000000001
 20
-13.035399999999999
 30
0.0
 70
    32
  0
VERTEX
  5
2036
  8
241
 10
173.61500000000001
 20
-13.030900000000001
 30
0.0
 70
    32
  0
VERTEX
  5
2037
  8
241
 10
173.608
 20
-13.0265
 30
0.0
 70
    32
  0
VERTEX
  5
2038
  8
241
 10
173.601
 20
-13.022
 30
0.0
 70
    32
  0
VERTEX
  5
2039
  8
241
 10
173.59399999999999
 20
-13.0176
 30
0.0
 70
    32
  0
VERTEX
  5
203A
  8
241
 10
173.58699999999999
 20
-13.013199999999999
 30
0.0
 70
    32
  0
VERTEX
  5
203B
  8
241
 10
173.58099999999999
 20
-13.008800000000001
 30
0.0
 70
    32
  0
VERTEX
  5
203C
  8
241
 10
173.57400000000001
 20
-13.0044
 30
0.0
 70
    32
  0
VERTEX
  5
203D
  8
241
 10
173.56700000000001
 20
-13.0
 30
0.0
 70
    32
  0
VERTEX
  5
203E
  8
241
 10
173.56
 20
-12.995699999999999
 30
0.0
 70
    32
  0
VERTEX
  5
203F
  8
241
 10
173.553
 20
-12.991400000000001
 30
0.0
 70
    32
  0
VERTEX
  5
2040
  8
241
 10
173.54599999999999
 20
-12.9871
 30
0.0
 70
    32
  0
VERTEX
  5
2041
  8
241
 10
173.53899999999999
 20
-12.982799999999999
 30
0.0
 70
    32
  0
VERTEX
  5
2042
  8
241
 10
173.53200000000001
 20
-12.9785
 30
0.0
 70
    32
  0
VERTEX
  5
2043
  8
241
 10
173.52500000000001
 20
-12.9742
 30
0.0
 70
    32
  0
VERTEX
  5
2044
  8
241
 10
173.518
 20
-12.970000000000001
 30
0.0
 70
    32
  0
VERTEX
  5
2045
  8
241
 10
173.50999999999999
 20
-12.9658
 30
0.0
 70
    32
  0
VERTEX
  5
2046
  8
241
 10
173.50299999999999
 20
-12.961600000000001
 30
0.0
 70
    32
  0
VERTEX
  5
2047
  8
241
 10
173.49600000000001
 20
-12.9574
 30
0.0
 70
    32
  0
VERTEX
  5
2048
  8
241
 10
173.489
 20
-12.953200000000001
 30
0.0
 70
    32
  0
VERTEX
  5
2049
  8
241
 10
173.482
 20
-12.9491
 30
0.0
 70
    32
  0
VERTEX
  5
204A
  8
241
 10
173.47499999999999
 20
-12.945
 30
0.0
 70
    32
  0
VERTEX
  5
204B
  8
241
 10
173.46799999999999
 20
-12.940899999999999
 30
0.0
 70
    32
  0
VERTEX
  5
204C
  8
241
 10
173.46100000000001
 20
-12.9368
 30
0.0
 70
    32
  0
VERTEX
  5
204D
  8
241
 10
173.453
 20
-12.932700000000001
 30
0.0
 70
    32
  0
VERTEX
  5
204E
  8
241
 10
173.446
 20
-12.928699999999999
 30
0.0
 70
    32
  0
VERTEX
  5
204F
  8
241
 10
173.43899999999999
 20
-12.9247
 30
0.0
 70
    32
  0
VERTEX
  5
2050
  8
241
 10
173.43199999999999
 20
-12.9207
 30
0.0
 70
    32
  0
VERTEX
  5
2051
  8
241
 10
173.42500000000001
 20
-12.916700000000001
 30
0.0
 70
    32
  0
VERTEX
  5
2052
  8
241
 10
173.417
 20
-12.912699999999999
 30
0.0
 70
    32
  0
VERTEX
  5
2053
  8
241
 10
173.41
 20
-12.908799999999999
 30
0.0
 70
    32
  0
VERTEX
  5
2054
  8
241
 10
173.40299999999999
 20
-12.9049
 30
0.0
 70
    32
  0
VERTEX
  5
2055
  8
241
 10
173.39500000000001
 20
-12.901
 30
0.0
 70
    32
  0
VERTEX
  5
2056
  8
241
 10
173.38800000000001
 20
-12.8971
 30
0.0
 70
    32
  0
VERTEX
  5
2057
  8
241
 10
173.381
 20
-12.8932
 30
0.0
 70
    32
  0
VERTEX
  5
2058
  8
241
 10
173.37299999999999
 20
-12.8894
 30
0.0
 70
    32
  0
VERTEX
  5
2059
  8
241
 10
173.36600000000001
 20
-12.8856
 30
0.0
 70
    32
  0
VERTEX
  5
205A
  8
241
 10
173.35900000000001
 20
-12.8818
 30
0.0
 70
    32
  0
VERTEX
  5
205B
  8
241
 10
173.351
 20
-12.878
 30
0.0
 70
    32
  0
VERTEX
  5
205C
  8
241
 10
173.34399999999999
 20
-12.8742
 30
0.0
 70
    32
  0
VERTEX
  5
205D
  8
241
 10
173.33699999999999
 20
-12.8705
 30
0.0
 70
    32
  0
VERTEX
  5
205E
  8
241
 10
173.32900000000001
 20
-12.8668
 30
0.0
 70
    32
  0
VERTEX
  5
205F
  8
241
 10
173.322
 20
-12.863099999999999
 30
0.0
 70
    32
  0
VERTEX
  5
2060
  8
241
 10
173.31399999999999
 20
-12.859400000000001
 30
0.0
 70
    32
  0
VERTEX
  5
2061
  8
241
 10
173.30699999999999
 20
-12.8558
 30
0.0
 70
    32
  0
VERTEX
  5
2062
  8
241
 10
173.30000000000001
 20
-12.8521
 30
0.0
 70
    32
  0
VERTEX
  5
2063
  8
241
 10
173.292
 20
-12.8485
 30
0.0
 70
    32
  0
VERTEX
  5
2064
  8
241
 10
173.285
 20
-12.844900000000001
 30
0.0
 70
    32
  0
VERTEX
  5
2065
  8
241
 10
173.27699999999999
 20
-12.8414
 30
0.0
 70
    32
  0
VERTEX
  5
2066
  8
241
 10
173.27000000000001
 20
-12.8378
 30
0.0
 70
    32
  0
VERTEX
  5
2067
  8
241
 10
173.262
 20
-12.834300000000001
 30
0.0
 70
    32
  0
VERTEX
  5
2068
  8
241
 10
173.255
 20
-12.8308
 30
0.0
 70
    32
  0
VERTEX
  5
2069
  8
241
 10
173.24700000000001
 20
-12.827299999999999
 30
0.0
 70
    32
  0
VERTEX
  5
206A
  8
241
 10
173.24000000000001
 20
-12.8238
 30
0.0
 70
    32
  0
VERTEX
  5
206B
  8
241
 10
173.232
 20
-12.820399999999999
 30
0.0
 70
    32
  0
VERTEX
  5
206C
  8
241
 10
173.22499999999999
 20
-12.817
 30
0.0
 70
    32
  0
VERTEX
  5
206D
  8
241
 10
173.21700000000001
 20
-12.813599999999999
 30
0.0
 70
    32
  0
VERTEX
  5
206E
  8
241
 10
173.209
 20
-12.8102
 30
0.0
 70
    32
  0
VERTEX
  5
206F
  8
241
 10
173.202
 20
-12.806800000000001
 30
0.0
 70
    32
  0
VERTEX
  5
2070
  8
241
 10
173.19399999999999
 20
-12.8035
 30
0.0
 70
    32
  0
VERTEX
  5
2071
  8
241
 10
173.18700000000001
 20
-12.8002
 30
0.0
 70
    32
  0
VERTEX
  5
2072
  8
241
 10
173.179
 20
-12.796900000000001
 30
0.0
 70
    32
  0
VERTEX
  5
2073
  8
241
 10
173.17099999999999
 20
-12.7936
 30
0.0
 70
    32
  0
VERTEX
  5
2074
  8
241
 10
173.16399999999999
 20
-12.7904
 30
0.0
 70
    32
  0
VERTEX
  5
2075
  8
241
 10
173.15599999999989
 20
-12.787100000000001
 30
0.0
 70
    32
  0
VERTEX
  5
2076
  8
241
 10
173.148
 20
-12.783899999999999
 30
0.0
 70
    32
  0
VERTEX
  5
2077
  8
241
 10
173.14099999999999
 20
-12.780799999999999
 30
0.0
 70
    32
  0
VERTEX
  5
2078
  8
241
 10
173.1329999999999
 20
-12.7776
 30
0.0
 70
    32
  0
VERTEX
  5
2079
  8
241
 10
173.125
 20
-12.7745
 30
0.0
 70
    32
  0
VERTEX
  5
207A
  8
241
 10
173.11799999999999
 20
-12.7713
 30
0.0
 70
    32
  0
VERTEX
  5
207B
  8
241
 10
173.11000000000001
 20
-12.7682
 30
0.0
 70
    32
  0
VERTEX
  5
207C
  8
241
 10
173.102
 20
-12.7652
 30
0.0
 70
    32
  0
VERTEX
  5
207D
  8
241
 10
173.095
 20
-12.7621
 30
0.0
 70
    32
  0
VERTEX
  5
207E
  8
241
 10
173.08699999999999
 20
-12.7591
 30
0.0
 70
    32
  0
VERTEX
  5
207F
  8
241
 10
173.07900000000001
 20
-12.7561
 30
0.0
 70
    32
  0
VERTEX
  5
2080
  8
241
 10
173.071
 20
-12.7531
 30
0.0
 70
    32
  0
VERTEX
  5
2081
  8
241
 10
173.06399999999999
 20
-12.7501
 30
0.0
 70
    32
  0
VERTEX
  5
2082
  8
241
 10
173.05600000000001
 20
-12.747199999999999
 30
0.0
 70
    32
  0
VERTEX
  5
2083
  8
241
 10
173.048
 20
-12.744300000000001
 30
0.0
 70
    32
  0
VERTEX
  5
2084
  8
241
 10
173.03999999999999
 20
-12.741400000000001
 30
0.0
 70
    32
  0
VERTEX
  5
2085
  8
241
 10
173.03299999999999
 20
-12.7385
 30
0.0
 70
    32
  0
VERTEX
  5
2086
  8
241
 10
173.02500000000001
 20
-12.7356
 30
0.0
 70
    32
  0
VERTEX
  5
2087
  8
241
 10
173.017
 20
-12.732799999999999
 30
0.0
 70
    32
  0
VERTEX
  5
2088
  8
241
 10
173.00899999999999
 20
-12.73
 30
0.0
 70
    32
  0
VERTEX
  5
2089
  8
241
 10
173.001
 20
-12.7272
 30
0.0
 70
    32
  0
VERTEX
  5
208A
  8
241
 10
172.994
 20
-12.724399999999999
 30
0.0
 70
    32
  0
VERTEX
  5
208B
  8
241
 10
172.98599999999999
 20
-12.7217
 30
0.0
 70
    32
  0
VERTEX
  5
208C
  8
241
 10
172.97800000000001
 20
-12.718999999999999
 30
0.0
 70
    32
  0
VERTEX
  5
208D
  8
241
 10
172.97
 20
-12.716200000000001
 30
0.0
 70
    32
  0
VERTEX
  5
208E
  8
241
 10
172.96199999999999
 20
-12.7136
 30
0.0
 70
    32
  0
VERTEX
  5
208F
  8
241
 10
172.95400000000001
 20
-12.710900000000001
 30
0.0
 70
    32
  0
VERTEX
  5
2090
  8
241
 10
172.946
 20
-12.708299999999999
 30
0.0
 70
    32
  0
VERTEX
  5
2091
  8
241
 10
172.93799999999999
 20
-12.7056
 30
0.0
 70
    32
  0
VERTEX
  5
2092
  8
241
 10
172.93100000000001
 20
-12.702999999999999
 30
0.0
 70
    32
  0
VERTEX
  5
2093
  8
241
 10
172.923
 20
-12.7005
 30
0.0
 70
    32
  0
VERTEX
  5
2094
  8
241
 10
172.91499999999999
 20
-12.697900000000001
 30
0.0
 70
    32
  0
VERTEX
  5
2095
  8
241
 10
172.90700000000001
 20
-12.695399999999999
 30
0.0
 70
    32
  0
VERTEX
  5
2096
  8
241
 10
172.899
 20
-12.6929
 30
0.0
 70
    32
  0
VERTEX
  5
2097
  8
241
 10
172.89099999999999
 20
-12.6904
 30
0.0
 70
    32
  0
VERTEX
  5
2098
  8
241
 10
172.88300000000001
 20
-12.687900000000001
 30
0.0
 70
    32
  0
VERTEX
  5
2099
  8
241
 10
172.875
 20
-12.685499999999999
 30
0.0
 70
    32
  0
VERTEX
  5
209A
  8
241
 10
172.86699999999999
 20
-12.6831
 30
0.0
 70
    32
  0
VERTEX
  5
209B
  8
241
 10
172.85900000000001
 20
-12.6807
 30
0.0
 70
    32
  0
VERTEX
  5
209C
  8
241
 10
172.851
 20
-12.6783
 30
0.0
 70
    32
  0
VERTEX
  5
209D
  8
241
 10
172.84299999999999
 20
-12.6759
 30
0.0
 70
    32
  0
VERTEX
  5
209E
  8
241
 10
172.83500000000001
 20
-12.6736
 30
0.0
 70
    32
  0
VERTEX
  5
209F
  8
241
 10
172.827
 20
-12.6713
 30
0.0
 70
    32
  0
VERTEX
  5
20A0
  8
241
 10
172.81899999999999
 20
-12.669
 30
0.0
 70
    32
  0
VERTEX
  5
20A1
  8
241
 10
172.81100000000001
 20
-12.666700000000001
 30
0.0
 70
    32
  0
VERTEX
  5
20A2
  8
241
 10
172.803
 20
-12.6645
 30
0.0
 70
    32
  0
VERTEX
  5
20A3
  8
241
 10
172.79400000000001
 20
-12.6622
 30
0.0
 70
    32
  0
VERTEX
  5
20A4
  8
241
 10
172.78599999999989
 20
-12.66
 30
0.0
 70
    32
  0
VERTEX
  5
20A5
  8
241
 10
172.77799999999999
 20
-12.6579
 30
0.0
 70
    32
  0
VERTEX
  5
20A6
  8
241
 10
172.77000000000001
 20
-12.6557
 30
0.0
 70
    32
  0
VERTEX
  5
20A7
  8
241
 10
172.762
 20
-12.653600000000001
 30
0.0
 70
    32
  0
VERTEX
  5
20A8
  8
241
 10
172.75399999999999
 20
-12.651400000000001
 30
0.0
 70
    32
  0
VERTEX
  5
20A9
  8
241
 10
172.7459999999999
 20
-12.6494
 30
0.0
 70
    32
  0
VERTEX
  5
20AA
  8
241
 10
172.738
 20
-12.6473
 30
0.0
 70
    32
  0
VERTEX
  5
20AB
  8
241
 10
172.72999999999999
 20
-12.645200000000001
 30
0.0
 70
    32
  0
VERTEX
  5
20AC
  8
241
 10
172.72099999999989
 20
-12.6432
 30
0.0
 70
    32
  0
VERTEX
  5
20AD
  8
241
 10
172.71299999999999
 20
-12.6412
 30
0.0
 70
    32
  0
VERTEX
  5
20AE
  8
241
 10
172.70500000000001
 20
-12.639200000000001
 30
0.0
 70
    32
  0
VERTEX
  5
20AF
  8
241
 10
172.697
 20
-12.6373
 30
0.0
 70
    32
  0
VERTEX
  5
20B0
  8
241
 10
172.68899999999999
 20
-12.635300000000001
 30
0.0
 70
    32
  0
VERTEX
  5
20B1
  8
241
 10
172.68100000000001
 20
-12.6334
 30
0.0
 70
    32
  0
VERTEX
  5
20B2
  8
241
 10
172.672
 20
-12.631500000000001
 30
0.0
 70
    32
  0
VERTEX
  5
20B3
  8
241
 10
172.66399999999999
 20
-12.6297
 30
0.0
 70
    32
  0
VERTEX
  5
20B4
  8
241
 10
172.65600000000001
 20
-12.627800000000001
 30
0.0
 70
    32
  0
VERTEX
  5
20B5
  8
241
 10
172.648
 20
-12.625999999999999
 30
0.0
 70
    32
  0
VERTEX
  5
20B6
  8
241
 10
172.63999999999999
 20
-12.6242
 30
0.0
 70
    32
  0
VERTEX
  5
20B7
  8
241
 10
172.63099999999989
 20
-12.622400000000001
 30
0.0
 70
    32
  0
VERTEX
  5
20B8
  8
241
 10
172.62299999999999
 20
-12.620699999999999
 30
0.0
 70
    32
  0
VERTEX
  5
20B9
  8
241
 10
172.61500000000001
 20
-12.6189
 30
0.0
 70
    32
  0
VERTEX
  5
20BA
  8
241
 10
172.607
 20
-12.6172
 30
0.0
 70
    32
  0
VERTEX
  5
20BB
  8
241
 10
172.59800000000001
 20
-12.615500000000001
 30
0.0
 70
    32
  0
VERTEX
  5
20BC
  8
241
 10
172.59
 20
-12.613899999999999
 30
0.0
 70
    32
  0
VERTEX
  5
20BD
  8
241
 10
172.58199999999999
 20
-12.6122
 30
0.0
 70
    32
  0
VERTEX
  5
20BE
  8
241
 10
172.57299999999989
 20
-12.6106
 30
0.0
 70
    32
  0
VERTEX
  5
20BF
  8
241
 10
172.565
 20
-12.609
 30
0.0
 70
    32
  0
VERTEX
  5
20C0
  8
241
 10
172.55699999999999
 20
-12.6074
 30
0.0
 70
    32
  0
VERTEX
  5
20C1
  8
241
 10
172.54900000000001
 20
-12.6059
 30
0.0
 70
    32
  0
VERTEX
  5
20C2
  8
241
 10
172.53999999999999
 20
-12.6044
 30
0.0
 70
    32
  0
VERTEX
  5
20C3
  8
241
 10
172.53200000000001
 20
-12.6028
 30
0.0
 70
    32
  0
VERTEX
  5
20C4
  8
241
 10
172.524
 20
-12.6014
 30
0.0
 70
    32
  0
VERTEX
  5
20C5
  8
241
 10
172.51499999999999
 20
-12.5999
 30
0.0
 70
    32
  0
VERTEX
  5
20C6
  8
241
 10
172.50700000000001
 20
-12.5985
 30
0.0
 70
    32
  0
VERTEX
  5
20C7
  8
241
 10
172.499
 20
-12.597099999999999
 30
0.0
 70
    32
  0
VERTEX
  5
20C8
  8
241
 10
172.49000000000001
 20
-12.595700000000001
 30
0.0
 70
    32
  0
VERTEX
  5
20C9
  8
241
 10
172.482
 20
-12.5943
 30
0.0
 70
    32
  0
VERTEX
  5
20CA
  8
241
 10
172.47399999999999
 20
-12.593
 30
0.0
 70
    32
  0
VERTEX
  5
20CB
  8
241
 10
172.465
 20
-12.5916
 30
0.0
 70
    32
  0
VERTEX
  5
20CC
  8
241
 10
172.45699999999999
 20
-12.590299999999999
 30
0.0
 70
    32
  0
VERTEX
  5
20CD
  8
241
 10
172.44900000000001
 20
-12.5891
 30
0.0
 70
    32
  0
VERTEX
  5
20CE
  8
241
 10
172.44
 20
-12.5878
 30
0.0
 70
    32
  0
VERTEX
  5
20CF
  8
241
 10
172.43199999999999
 20
-12.586600000000001
 30
0.0
 70
    32
  0
VERTEX
  5
20D0
  8
241
 10
172.423
 20
-12.5854
 30
0.0
 70
    32
  0
VERTEX
  5
20D1
  8
241
 10
172.41499999999999
 20
-12.584199999999999
 30
0.0
 70
    32
  0
VERTEX
  5
20D2
  8
241
 10
172.40700000000001
 20
-12.583
 30
0.0
 70
    32
  0
VERTEX
  5
20D3
  8
241
 10
172.398
 20
-12.581899999999999
 30
0.0
 70
    32
  0
VERTEX
  5
20D4
  8
241
 10
172.38999999999999
 20
-12.5808
 30
0.0
 70
    32
  0
VERTEX
  5
20D5
  8
241
 10
172.38200000000001
 20
-12.579700000000001
 30
0.0
 70
    32
  0
VERTEX
  5
20D6
  8
241
 10
172.37299999999999
 20
-12.5786
 30
0.0
 70
    32
  0
VERTEX
  5
20D7
  8
241
 10
172.36500000000001
 20
-12.5776
 30
0.0
 70
    32
  0
VERTEX
  5
20D8
  8
241
 10
172.35599999999999
 20
-12.576599999999999
 30
0.0
 70
    32
  0
VERTEX
  5
20D9
  8
241
 10
172.34800000000001
 20
-12.5756
 30
0.0
 70
    32
  0
VERTEX
  5
20DA
  8
241
 10
172.339
 20
-12.5746
 30
0.0
 70
    32
  0
VERTEX
  5
20DB
  8
241
 10
172.33099999999999
 20
-12.573700000000001
 30
0.0
 70
    32
  0
VERTEX
  5
20DC
  8
241
 10
172.32300000000001
 20
-12.572699999999999
 30
0.0
 70
    32
  0
VERTEX
  5
20DD
  8
241
 10
172.31399999999999
 20
-12.5718
 30
0.0
 70
    32
  0
VERTEX
  5
20DE
  8
241
 10
172.30600000000001
 20
-12.571
 30
0.0
 70
    32
  0
VERTEX
  5
20DF
  8
241
 10
172.297
 20
-12.5701
 30
0.0
 70
    32
  0
VERTEX
  5
20E0
  8
241
 10
172.28899999999999
 20
-12.5693
 30
0.0
 70
    32
  0
VERTEX
  5
20E1
  8
241
 10
172.28
 20
-12.5685
 30
0.0
 70
    32
  0
VERTEX
  5
20E2
  8
241
 10
172.27199999999999
 20
-12.5677
 30
0.0
 70
    32
  0
VERTEX
  5
20E3
  8
241
 10
172.26300000000001
 20
-12.5669
 30
0.0
 70
    32
  0
VERTEX
  5
20E4
  8
241
 10
172.255
 20
-12.5662
 30
0.0
 70
    32
  0
VERTEX
  5
20E5
  8
241
 10
172.24700000000001
 20
-12.5655
 30
0.0
 70
    32
  0
VERTEX
  5
20E6
  8
241
 10
172.238
 20
-12.5648
 30
0.0
 70
    32
  0
VERTEX
  5
20E7
  8
241
 10
172.22999999999999
 20
-12.5641
 30
0.0
 70
    32
  0
VERTEX
  5
20E8
  8
241
 10
172.221
 20
-12.563499999999999
 30
0.0
 70
    32
  0
VERTEX
  5
20E9
  8
241
 10
172.21299999999999
 20
-12.562900000000001
 30
0.0
 70
    32
  0
VERTEX
  5
20EA
  8
241
 10
172.20400000000001
 20
-12.5623
 30
0.0
 70
    32
  0
VERTEX
  5
20EB
  8
241
 10
172.196
 20
-12.5617
 30
0.0
 70
    32
  0
VERTEX
  5
20EC
  8
241
 10
172.18700000000001
 20
-12.561199999999999
 30
0.0
 70
    32
  0
VERTEX
  5
20ED
  8
241
 10
172.179
 20
-12.560600000000001
 30
0.0
 70
    32
  0
VERTEX
  5
20EE
  8
241
 10
172.16999999999999
 20
-12.5601
 30
0.0
 70
    32
  0
VERTEX
  5
20EF
  8
241
 10
172.16200000000001
 20
-12.559699999999999
 30
0.0
 70
    32
  0
VERTEX
  5
20F0
  8
241
 10
172.15299999999999
 20
-12.559200000000001
 30
0.0
 70
    32
  0
VERTEX
  5
20F1
  8
241
 10
172.14500000000001
 20
-12.5588
 30
0.0
 70
    32
  0
VERTEX
  5
20F2
  8
241
 10
172.136
 20
-12.558400000000001
 30
0.0
 70
    32
  0
VERTEX
  5
20F3
  8
241
 10
172.12799999999999
 20
-12.558
 30
0.0
 70
    32
  0
VERTEX
  5
20F4
  8
241
 10
172.119
 20
-12.557700000000001
 30
0.0
 70
    32
  0
VERTEX
  5
20F5
  8
241
 10
172.11099999999999
 20
-12.5573
 30
0.0
 70
    32
  0
VERTEX
  5
20F6
  8
241
 10
172.102
 20
-12.557
 30
0.0
 70
    32
  0
VERTEX
  5
20F7
  8
241
 10
172.09399999999999
 20
-12.556800000000001
 30
0.0
 70
    32
  0
VERTEX
  5
20F8
  8
241
 10
172.08500000000001
 20
-12.5565
 30
0.0
 70
    32
  0
VERTEX
  5
20F9
  8
241
 10
172.077
 20
-12.5563
 30
0.0
 70
    32
  0
VERTEX
  5
20FA
  8
241
 10
172.0679999999999
 20
-12.556100000000001
 30
0.0
 70
    32
  0
VERTEX
  5
20FB
  8
241
 10
172.06
 20
-12.555899999999999
 30
0.0
 70
    32
  0
VERTEX
  5
20FC
  8
241
 10
172.05099999999999
 20
-12.5557
 30
0.0
 70
    32
  0
VERTEX
  5
20FD
  8
241
 10
172.04300000000001
 20
-12.5556
 30
0.0
 70
    32
  0
VERTEX
  5
20FE
  8
241
 10
172.03399999999999
 20
-12.5555
 30
0.0
 70
    32
  0
VERTEX
  5
20FF
  8
241
 10
172.02600000000001
 20
-12.555400000000001
 30
0.0
 70
    32
  0
VERTEX
  5
2100
  8
241
 10
172.017
 20
-12.555300000000001
 30
0.0
 70
    32
  0
VERTEX
  5
2101
  8
241
 10
172.00899999999999
 20
-12.555300000000001
 30
0.0
 70
    32
  0
VERTEX
  5
2102
  8
241
 10
172.0
 20
-12.555300000000001
 30
0.0
 70
    32
  0
SEQEND
  5
2103
  8
241
  0
LINE
  5
142B
  8
241
 10
171.99154768355999
 20
-12.585942434119771
 30
0.0
 11
172.6088207756579
 21
-12.61913577267395
 31
0.0
  0
LINE
  5
1476
  8
244
 10
19.249999999999879
 20
19.0
 30
0.0
 11
3.1443375672972982
 21
19.0
 31
0.0
  0
LINE
  5
1483
  8
244
 10
19.249999999999879
 20
-19.0
 30
0.0
 11
3.1443375672972982
 21
-19.0
 31
0.0
  0
ARC
  5
1484
  8
243
 10
1.0
 20
-20.25
 30
0.0
 40
1.0
 50
90.000000000000057
 51
180.0
1001
ASK_MEN_XD
1005
13D9
1070
     1
1005
13FA
1070
     0
  0
LINE
  5
1485
  8
243
 10
23.74999999999989
 20
18.0
 30
0.0
 11
23.74999999999989
 21
-18.0
 31
0.0
  0
LINE
  5
1486
  8
243
 10
18.499999999999879
 20
18.25
 30
0.0
 11
18.499999999999879
 21
-18.25
 31
0.0
  0
LINE
  5
1487
  8
243
 10
3.577350269189536
 20
18.25
 30
0.0
 11
3.577350269189536
 21
-18.25
 31
0.0
  0
LINE
  5
1488
  8
243
 10
40.79999999999994
 20
18.0
 30
0.0
 11
40.79999999999994
 21
-18.0
 31
0.0
  0
LINE
  5
1489
  8
243
 10
23.74999999999989
 20
-18.0
 30
0.0
 11
22.49999999999989
 21
-19.25
 31
0.0
  0
LINE
  5
148A
  8
243
 10
19.499999999999879
 20
-19.25
 30
0.0
 11
18.499999999999879
 21
-18.25
 31
0.0
  0
LINE
  5
148B
  8
243
 10
22.49999999999989
 20
-19.25
 30
0.0
 11
19.499999999999879
 21
-19.25
 31
0.0
  0
LINE
  5
148C
  8
243
 10
3.577350269189536
 20
-18.25
 30
0.0
 11
2.999999999999885
 21
-19.25
 31
0.0
  0
LINE
  5
148D
  8
243
 10
2.999999999999885
 20
-19.25
 30
0.0
 11
1.0
 21
-19.25
 31
0.0
  0
LINE
  5
148E
  8
243
 10
18.499999999999879
 20
-18.25
 30
0.0
 11
3.577350269189536
 21
-18.25
 31
0.0
  0
LINE
  5
148F
  8
243
 10
40.79999999999994
 20
-18.0
 30
0.0
 11
23.74999999999989
 21
-18.0
 31
0.0
  0
LINE
  5
1490
  8
243
 10
19.49999999999579
 20
-19.25
 30
0.0
 11
19.49999999999579
 21
19.25
 31
0.0
  0
LINE
  5
1491
  8
243
 10
22.49999999999989
 20
-19.25
 30
0.0
 11
22.499999999999918
 21
19.25
 31
0.0
  0
LINE
  5
14D6
  8
241
  6
HIDDEN2
 10
198.0
 20
6.500000011854949
 30
0.0
 11
173.5
 21
6.500000011854949
 31
0.0
  0
LINE
  5
14D7
  8
241
  6
HIDDEN2
 10
198.0
 20
9.5000000118549508
 30
0.0
 11
170.5
 21
9.5000000118549508
 31
0.0
  0
LINE
  5
14D8
  8
240
  6
CONTINUOUS
 10
180.0
 20
11.000000011854951
 30
0.0
 11
196.80000000000001
 21
11.000000011854951
 31
0.0
  0
LINE
  5
14D9
  8
240
  6
CONTINUOUS
 10
180.0
 20
-10.99999998814504
 30
0.0
 11
196.80000000000001
 21
-10.99999998814504
 31
0.0
  0
LINE
  5
14DA
  8
245
 10
172.0
 20
8.0000000118549508
 30
0.0
 11
199.0
 21
8.0000000118549508
 31
0.0
  0
ARC
  5
14DB
  8
241
 10
172.0
 20
0.0000000018549509
 30
0.0
 40
5.0
 50
180.0
 51
270.0
  0
ARC
  5
14DC
  8
241
 10
172.0
 20
0.0000000018549509
 30
0.0
 40
5.0
 50
90.0
 51
180.0
  0
LINE
  5
14DD
  8
245
 10
172.0
 20
8.0000000118549508
 30
0.0
 11
172.0
 21
5.000000011854949
 31
0.0
  0
LINE
  5
14DE
  8
241
  6
CONTINUOUS
 10
185.0
 20
-4.9999999981450491
 30
0.0
 11
185.0
 21
5.0000000018549491
 31
0.0
  0
LINE
  5
14DF
  8
241
  6
CONTINUOUS
 10
174.0
 20
1.7320508118549489
 30
0.0
 11
172.5
 21
0.8660254018549508
 31
0.0
  0
LINE
  5
14E0
  8
241
  6
CONTINUOUS
 10
175.5
 20
0.8660254018549508
 30
0.0
 11
174.0
 21
1.7320508118549489
 31
0.0
  0
CIRCLE
  5
14E1
  8
241
  6
CONTINUOUS
 10
174.0
 20
0.0000000018549509
 30
0.0
 40
3.5
  0
LINE
  5
14E2
  8
241
  6
CONTINUOUS
 10
172.0
 20
-4.9999999981450491
 30
0.0
 11
185.0
 21
-4.9999999981450491
 31
0.0
  0
LINE
  5
14E3
  8
241
  6
CONTINUOUS
 10
172.5
 20
-0.8660253981450491
 30
0.0
 11
174.0
 21
-1.732050808145049
 31
0.0
  0
LINE
  5
14E4
  8
241
  6
CONTINUOUS
 10
172.5
 20
0.8660254018549508
 30
0.0
 11
172.5
 21
-0.8660253981450491
 31
0.0
  0
LINE
  5
14E5
  8
241
  6
CONTINUOUS
 10
175.5
 20
-0.8660253981450491
 30
0.0
 11
175.5
 21
0.8660254018549508
 31
0.0
  0
LINE
  5
14E6
  8
241
  6
CONTINUOUS
 10
174.0
 20
-1.732050808145049
 30
0.0
 11
175.5
 21
-0.8660253981450491
 31
0.0
  0
LINE
  5
14E7
  8
241
  6
CONTINUOUS
 10
180.0
 20
-10.99999998814504
 30
0.0
 11
180.0
 21
-4.9999999981450491
 31
0.0
  0
LINE
  5
14E8
  8
241
  6
CONTINUOUS
 10
172.0
 20
5.0000000018549491
 30
0.0
 11
185.0
 21
5.0000000018549491
 31
0.0
  0
LINE
  5
14E9
  8
241
  6
CONTINUOUS
 10
180.0
 20
11.00000000185495
 30
0.0
 11
180.0
 21
5.0000000018549491
 31
0.0
  0
LINE
  5
14EA
  8
240
  6
CONTINUOUS
 10
203.0
 20
8.0000000118549508
 30
0.0
 11
212.0
 21
8.0000000118549508
 31
0.0
1001
GRPNAME
1000
PASTMD0V
  0
LINE
  5
14EB
  8
241
  6
HIDDEN2
 10
208.0
 20
4.6188021618549513
 30
0.0
 11
213.0
 21
4.6188021618549513
 31
0.0
  0
LINE
  5
14EC
  8
241
  6
HIDDEN2
 10
208.0
 20
2.309401091854951
 30
0.0
 11
213.0
 21
2.309401091854951
 31
0.0
  0
LINE
  5
14ED
  8
240
  6
CONTINUOUS
 10
203.0
 20
-7.9999999881450492
 30
0.0
 11
212.0
 21
-7.9999999881450492
 31
0.0
1001
GRPNAME
1000
PASTMD0V
  0
LINE
  5
14EE
  8
241
 10
203.0
 20
5.000000011854949
 30
0.0
 11
203.0
 21
0.0000000118549509
 31
0.0
  0
LINE
  5
14EF
  8
241
  6
HIDDEN2
 10
208.0
 20
0.0000000118549509
 30
0.0
 11
208.0
 21
4.6188021618549513
 31
0.0
  0
LINE
  5
14F0
  8
241
  6
HIDDEN2
 10
208.0
 20
4.000000011854949
 30
0.0
 11
205.69059892000001
 21
0.0000000118549509
 31
0.0
  0
LINE
  5
14F1
  8
242
  6
CONTINUOUS
 10
200.0
 20
5.000000011854949
 30
0.0
 11
200.0
 21
0.0000000118549509
 31
0.0
1001
GRPNAME
1000
PASTMD0V
  0
LINE
  5
14F2
  8
241
 10
198.0
 20
5.000000011854949
 30
0.0
 11
198.0
 21
0.0000000118549509
 31
0.0
  0
LINE
  5
14F3
  8
242
  6
CONTINUOUS
 10
198.0
 20
-4.2499999881450492
 30
0.0
 11
200.0
 21
-4.2499999881450492
 31
0.0
1001
GRPNAME
1000
PASTMD0V
  0
LINE
  5
14F4
  8
240
  6
CONTINUOUS
 10
198.0
 20
-4.9999999881450492
 30
0.0
 11
203.0
 21
-4.9999999881450492
 31
0.0
1001
GRPNAME
1000
PASTMD0V
  0
LINE
  5
14F5
  8
240
  6
CONTINUOUS
 10
198.0
 20
-9.7999999881450481
 30
0.0
 11
198.0
 21
-4.9999999881450492
 31
0.0
  0
ARC
  5
14F6
  8
240
  6
CONTINUOUS
 10
196.80000000000001
 20
-9.7999999881450481
 30
0.0
 40
1.1999999999999991
 50
270.0
 51
0.00000002
  0
LINE
  5
14F7
  8
241
 10
198.0
 20
-4.9999999881450492
 30
0.0
 11
198.0
 21
0.0000000118549509
 31
0.0
  0
LINE
  5
14F8
  8
240
  6
CONTINUOUS
 10
203.0
 20
-7.9999999881450492
 30
0.0
 11
203.0
 21
-4.9999999881450492
 31
0.0
1001
GRPNAME
1000
PASTMD0V
  0
LINE
  5
14F9
  8
241
 10
203.0
 20
-4.9999999881450492
 30
0.0
 11
203.0
 21
0.0000000118549509
 31
0.0
  0
LINE
  5
14FA
  8
242
  6
CONTINUOUS
 10
200.0
 20
-4.9999999881450492
 30
0.0
 11
200.0
 21
0.0000000118549509
 31
0.0
1001
GRPNAME
1000
PASTMD0V
  0
LINE
  5
14FB
  8
242
  6
CONTINUOUS
 10
198.0
 20
4.250000011854949
 30
0.0
 11
200.0
 21
4.250000011854949
 31
0.0
1001
GRPNAME
1000
PASTMD0V
  0
LINE
  5
14FC
  8
240
  6
CONTINUOUS
 10
198.0
 20
5.000000011854949
 30
0.0
 11
203.0
 21
5.000000011854949
 31
0.0
1001
GRPNAME
1000
PASTMD0V
  0
LINE
  5
14FD
  8
240
  6
CONTINUOUS
 10
198.0
 20
9.8000000118549515
 30
0.0
 11
198.0
 21
5.000000011854949
 31
0.0
  0
ARC
  5
14FE
  8
240
  6
CONTINUOUS
 10
196.80000000000001
 20
9.8000000118549515
 30
0.0
 40
1.1999999999999991
 50
0.0
 51
90.0
  0
LINE
  5
14FF
  8
240
  6
CONTINUOUS
 10
203.0
 20
8.0000000118549508
 30
0.0
 11
203.0
 21
5.000000011854949
 31
0.0
1001
GRPNAME
1000
PASTMD0V
  0
LINE
  5
1500
  8
240
  6
CONTINUOUS
 10
213.0
 20
7.000000011854949
 30
0.0
 11
213.0
 21
0.0000000118549509
 31
0.0
1001
GRPNAME
1000
PASTMD0V
  0
LINE
  5
1501
  8
240
  6
CONTINUOUS
 10
213.0
 20
-6.9999999881450492
 30
0.0
 11
213.0
 21
0.0000000118549509
 31
0.0
1001
GRPNAME
1000
PASTMD0V
  0
LINE
  5
1502
  8
240
  6
CONTINUOUS
 10
213.0
 20
-6.9999999881450492
 30
0.0
 11
212.0
 21
-7.9999999881450492
 31
0.0
1001
GRPNAME
1000
PASTMD0V
  0
LINE
  5
1503
  8
240
  6
CONTINUOUS
 10
213.0
 20
7.000000011854949
 30
0.0
 11
212.0
 21
8.0000000118549508
 31
0.0
1001
GRPNAME
1000
PASTMD0V
  0
LINE
  5
1555
  8
243
 10
173.49999999999989
 20
4.0
 30
0.0
 11
40.799999999999962
 21
4.0
 31
0.0
  0
LINE
  5
155B
  8
243
 10
173.5
 20
-4.0
 30
0.0
 11
40.79999999999994
 21
-4.0
 31
0.0
  0
LINE
  5
1599
  8
243
 10
170.5
 20
9.5000000118549508
 30
0.0
 11
170.5
 21
4.0
 31
0.0
  0
LINE
  5
159F
  8
243
 10
173.5
 20
6.500000011854949
 30
0.0
 11
173.5
 21
-4.0
 31
0.0
  0
LINE
  5
1617
  8
241
 10
156.59807621135329
 20
17.522887767951168
 30
0.0
 11
165.40192378864671
 21
17.522887767951168
 31
0.0
  0
LINE
  5
1618
  8
241
 10
156.59807621135329
 20
12.32673534524451
 30
0.0
 11
165.40192378864671
 21
12.32673534524451
 31
0.0
  0
LINE
  5
1619
  8
241
 10
156.59807621135329
 20
15.815914303745981
 30
0.0
 11
165.40192378864671
 21
15.815914303745981
 31
0.0
  0
ARC
  5
161A
  8
241
 10
156.59807621135329
 20
14.924811556597829
 30
0.0
 40
2.598076211353344
 50
90.0
 51
270.0
  0
ARC
  5
161B
  8
241
 10
165.40192378864671
 20
14.924811556597829
 30
0.0
 40
2.598076211353344
 50
270.0
 51
90.0
  0
LINE
  5
161C
  8
241
 10
156.59807621135329
 20
15.815914303745981
 30
0.0
 11
165.40192378864671
 21
15.815914303745981
 31
0.0
  0
ARC
  5
161D
  8
241
 10
156.59807621135329
 20
13.21783809239264
 30
0.0
 40
2.598076211353344
 50
90.0
 51
160.82180658737181
  0
ARC
  5
161E
  8
241
 10
165.40192378864671
 20
13.21783809239264
 30
0.0
 40
2.598076211353344
 50
19.178193412628161
 51
90.0
  0
LINE
  5
169F
  8
250
 10
180.0
 20
30.5
 30
0.0
 11
180.0
 21
43.0
 31
0.0
  0
LINE
  5
16A0
  8
250
 10
185.0
 20
5.5000000018549491
 30
0.0
 11
185.0
 21
43.0
 31
0.0
  0
LINE
  5
16A1
  8
250
 10
177.77000000000001
 20
42.0
 30
0.0
 11
175.53999999999999
 21
42.0
 31
0.0
  0
LINE
  5
16A2
  8
250
 10
187.22999999999999
 20
42.0
 30
0.0
 11
193.32666666666671
 21
42.0
 31
0.0
  0
LINE
  5
16A3
  8
250
 10
180.0
 20
42.0
 30
0.0
 11
185.0
 21
42.0
 31
0.0
  0
LINE
  5
16A7
  8
250
 10
180.0
 20
30.5
 30
0.0
 11
180.0
 21
50.0
 31
0.0
  0
LINE
  5
16A8
  8
250
 10
198.0
 20
10.000000011854951
 30
0.0
 11
198.0
 21
50.0
 31
0.0
  0
LINE
  5
16A9
  8
250
 10
182.22999999999999
 20
49.0
 30
0.0
 11
195.77000000000001
 21
49.0
 31
0.0
  0
LINE
  5
16AD
  8
250
 10
0.0000000000000143
 20
30.500000000000028
 30
0.0
 11
0.0000000000000155
 21
50.0
 31
0.0
  0
LINE
  5
16AE
  8
250
 10
180.0
 20
30.5
 30
0.0
 11
180.0
 21
50.0
 31
0.0
  0
LINE
  5
16AF
  8
250
 10
2.2300000000000151
 20
49.0
 30
0.0
 11
177.77000000000001
 21
49.0
 31
0.0
  0
LINE
  5
16B3
  8
250
 10
180.5
 20
30.0
 30
0.0
 11
232.0
 21
29.999999999999989
 31
0.0
  0
LINE
  5
16B4
  8
250
 10
180.4999999999998
 20
-30.0
 30
0.0
 11
232.0
 21
-30.000000000000021
 31
0.0
  0
LINE
  5
16B5
  8
250
 10
231.0
 20
27.769999999999989
 30
0.0
 11
231.0
 21
-27.77000000000001
 31
0.0
  0
LINE
  5
16B9
  8
250
 10
197.30000000000001
 20
-10.99999998814504
 30
0.0
 11
225.0
 21
-10.99999998814504
 31
0.0
  0
LINE
  5
16BA
  8
250
 10
197.30000000000001
 20
11.000000011854951
 30
0.0
 11
225.0
 21
11.00000001185494
 31
0.0
  0
LINE
  5
16BB
  8
250
 10
224.0
 20
-8.7699999881450559
 30
0.0
 11
224.0
 21
8.7700000118549433
 31
0.0
  0
LINE
  5
16BF
  8
241
 10
172.0
 20
-12.584936490539031
 30
0.0
 11
172.59828916071891
 21
-12.64784930128115
 31
0.0
  0
LINE
  5
16C0
  8
241
 10
172.59828916071891
 20
-12.64784930128115
 30
0.0
 11
173.1618079301094
 21
-12.832931469625921
 31
0.0
  0
LINE
  5
16C1
  8
241
 10
173.1618079301094
 20
-12.832931469625921
 30
0.0
 11
173.65780664560199
 21
-13.129426692695461
 31
0.0
  0
LINE
  5
16C2
  8
241
 10
173.65780664560199
 20
-13.129426692695461
 30
0.0
 11
174.05745966473401
 21
-13.520103745841251
 31
0.0
  0
LINE
  5
16C3
  8
241
 10
174.05745966473401
 20
-13.520103745841251
 30
0.0
 11
174.33754060671339
 21
-13.982257898787759
 31
0.0
  0
LINE
  5
16C4
  8
241
 10
174.33754060671339
 20
-13.982257898787759
 30
0.0
 11
174.48177218524509
 21
-14.489030432027761
 31
0.0
  0
LINE
  5
16C5
  8
241
 10
174.48177218524509
 20
-14.489030432027761
 30
0.0
 11
174.48177218524509
 21
-15.01096956797252
 31
0.0
  0
LINE
  5
16C6
  8
241
 10
174.48177218524509
 20
-15.01096956797252
 30
0.0
 11
174.33754060671339
 21
-15.517742101212489
 31
0.0
  0
LINE
  5
16C7
  8
241
 10
174.33754060671339
 20
-15.517742101212489
 30
0.0
 11
174.05745966473401
 21
-15.97989625415903
 31
0.0
  0
LINE
  5
16C8
  8
241
 10
174.05745966473401
 20
-15.97989625415903
 30
0.0
 11
173.65780664560199
 21
-16.370573307304792
 31
0.0
  0
LINE
  5
16C9
  8
241
 10
173.65780664560199
 20
-16.370573307304792
 30
0.0
 11
173.1618079301094
 21
-16.66706853037434
 31
0.0
  0
LINE
  5
16CA
  8
241
 10
173.1618079301094
 20
-16.66706853037434
 30
0.0
 11
172.59828916071891
 21
-16.8521506987191
 31
0.0
  0
LINE
  5
16CB
  8
241
 10
172.59828916071891
 20
-16.8521506987191
 30
0.0
 11
172.0
 21
-16.91506350946122
 31
0.0
  0
LINE
  5
16CC
  8
241
 10
172.0
 20
-16.91506350946122
 30
0.0
 11
171.40171083928109
 21
-16.8521506987191
 31
0.0
  0
LINE
  5
16CD
  8
241
 10
171.40171083928109
 20
-16.8521506987191
 30
0.0
 11
170.83819206989051
 21
-16.66706853037434
 31
0.0
  0
LINE
  5
16CE
  8
241
 10
170.83819206989051
 20
-16.66706853037434
 30
0.0
 11
170.34219335439801
 21
-16.37057330730477
 31
0.0
  0
LINE
  5
16CF
  8
241
 10
170.34219335439801
 20
-16.37057330730477
 30
0.0
 11
169.9425403352659
 21
-15.979896254159
 31
0.0
  0
LINE
  5
16D0
  8
241
 10
169.9425403352659
 20
-15.979896254159
 30
0.0
 11
169.6624593932865
 21
-15.517742101212461
 31
0.0
  0
LINE
  5
16D1
  8
241
 10
169.6624593932865
 20
-15.517742101212461
 30
0.0
 11
169.51822781475479
 21
-15.01096956797249
 31
0.0
  0
LINE
  5
16D2
  8
241
 10
169.51822781475479
 20
-15.01096956797249
 30
0.0
 11
169.51822781475479
 21
-14.4890304320277
 31
0.0
  0
LINE
  5
16D3
  8
241
 10
169.51822781475479
 20
-14.4890304320277
 30
0.0
 11
169.6624593932865
 21
-13.982257898787729
 31
0.0
  0
LINE
  5
16D4
  8
241
 10
169.6624593932865
 20
-13.982257898787729
 30
0.0
 11
169.9425403352659
 21
-13.520103745841221
 31
0.0
  0
LINE
  5
16D5
  8
241
 10
169.9425403352659
 20
-13.520103745841221
 30
0.0
 11
170.34219335439801
 21
-13.12942669269543
 31
0.0
  0
LINE
  5
16D6
  8
241
 10
170.34219335439801
 20
-13.12942669269543
 30
0.0
 11
170.8381920698906
 21
-12.832931469625921
 31
0.0
  0
LINE
  5
16D7
  8
241
 10
170.8381920698906
 20
-12.832931469625921
 30
0.0
 11
171.40171083928109
 21
-12.647849301281131
 31
0.0
  0
LINE
  5
16D8
  8
241
 10
171.40171083928109
 20
-12.647849301281131
 30
0.0
 11
172.0
 21
-12.584936490539031
 31
0.0
  0
TEXT
  5
16D9
  8
250
 10
190.06
 20
43.0
 30
0.0
 40
2.799999999999998
  1
5
  0
LINE
  5
16DA
  8
250
 10
187.22999999999999
 20
41.62833333333333
 30
0.0
 11
185.0
 21
42.0
 31
0.0
  0
LINE
  5
16DB
  8
250
 10
187.22999999999999
 20
42.371666666666663
 30
0.0
 11
185.0
 21
42.0
 31
0.0
  0
LINE
  5
16DC
  8
250
 10
185.0
 20
42.0
 30
0.0
 11
187.22999999999999
 21
42.0
 31
0.0
  0
LINE
  5
16DD
  8
250
 10
177.77000000000001
 20
42.371666666666663
 30
0.0
 11
180.0
 21
42.0
 31
0.0
  0
LINE
  5
16DE
  8
250
 10
177.77000000000001
 20
41.62833333333333
 30
0.0
 11
180.0
 21
42.0
 31
0.0
  0
LINE
  5
16DF
  8
250
 10
180.0
 20
42.0
 30
0.0
 11
177.77000000000001
 21
42.0
 31
0.0
  0
TEXT
  5
16E0
  8
250
 10
186.1333333333333
 20
50.0
 30
0.0
 40
2.799999999999998
  1
18
  0
LINE
  5
16E1
  8
250
 10
195.77000000000001
 20
49.37166666666667
 30
0.0
 11
198.0
 21
49.0
 31
0.0
  0
LINE
  5
16E2
  8
250
 10
195.77000000000001
 20
48.62833333333333
 30
0.0
 11
198.0
 21
49.0
 31
0.0
  0
LINE
  5
16E3
  8
250
 10
198.0
 20
49.0
 30
0.0
 11
195.77000000000001
 21
49.0
 31
0.0
  0
LINE
  5
16E4
  8
250
 10
182.22999999999999
 20
48.62833333333333
 30
0.0
 11
180.0
 21
49.0
 31
0.0
  0
LINE
  5
16E5
  8
250
 10
182.22999999999999
 20
49.37166666666667
 30
0.0
 11
180.0
 21
49.0
 31
0.0
  0
LINE
  5
16E6
  8
250
 10
180.0
 20
49.0
 30
0.0
 11
182.22999999999999
 21
49.0
 31
0.0
  0
TEXT
  5
16E7
  8
250
 10
85.800000000000026
 20
50.0
 30
0.0
 40
2.799999999999998
  1
180
  0
LINE
  5
16E8
  8
250
 10
177.77000000000001
 20
49.37166666666667
 30
0.0
 11
180.0
 21
49.0
 31
0.0
  0
LINE
  5
16E9
  8
250
 10
177.77000000000001
 20
48.62833333333333
 30
0.0
 11
180.0
 21
49.0
 31
0.0
  0
LINE
  5
16EA
  8
250
 10
180.0
 20
49.0
 30
0.0
 11
177.77000000000001
 21
49.0
 31
0.0
  0
LINE
  5
16EB
  8
250
 10
2.2300000000000151
 20
48.62833333333333
 30
0.0
 11
0.0000000000000154
 21
49.0
 31
0.0
  0
LINE
  5
16EC
  8
250
 10
2.2300000000000151
 20
49.37166666666667
 30
0.0
 11
0.0000000000000154
 21
49.0
 31
0.0
  0
LINE
  5
16ED
  8
250
 10
0.0000000000000154
 20
49.0
 30
0.0
 11
2.2300000000000151
 21
49.0
 31
0.0
  0
TEXT
  5
16EE
  8
250
 10
230.0
 20
-3.7999999999999758
 30
0.0
 40
2.799999999999998
  1
\U+220560
 50
90.0
  0
LINE
  5
16EF
  8
250
 10
231.3716666666667
 20
-27.77000000000001
 30
0.0
 11
231.0
 21
-30.000000000000021
 31
0.0
  0
LINE
  5
16F0
  8
250
 10
230.6283333333333
 20
-27.77000000000001
 30
0.0
 11
231.0
 21
-30.000000000000021
 31
0.0
  0
LINE
  5
16F1
  8
250
 10
231.0
 20
-30.000000000000021
 30
0.0
 11
231.0
 21
-27.77000000000001
 31
0.0
  0
LINE
  5
16F2
  8
250
 10
230.6283333333333
 20
27.769999999999989
 30
0.0
 11
231.0
 21
29.999999999999989
 31
0.0
  0
LINE
  5
16F3
  8
250
 10
231.3716666666667
 20
27.769999999999989
 30
0.0
 11
231.0
 21
29.999999999999989
 31
0.0
  0
LINE
  5
16F4
  8
250
 10
231.0
 20
29.999999999999989
 30
0.0
 11
231.0
 21
27.769999999999989
 31
0.0
  0
TEXT
  5
16F5
  8
250
 10
223.0
 20
-3.895238083383143
 30
0.0
 40
3.0
  1
\U+2205
 50
90.0
  0
TEXT
  5
16F6
  8
250
 10
222.90000000000001
 20
-1.1809523690974291
 30
0.0
 40
2.799999999999998
  1
22
 50
90.0
  0
LINE
  5
16F7
  8
250
 10
223.6283333333333
 20
8.7700000118549433
 30
0.0
 11
224.0
 21
11.00000001185494
 31
0.0
  0
LINE
  5
16F8
  8
250
 10
224.3716666666667
 20
8.7700000118549433
 30
0.0
 11
224.0
 21
11.00000001185494
 31
0.0
  0
LINE
  5
16F9
  8
250
 10
224.0
 20
11.00000001185494
 30
0.0
 11
224.0
 21
8.7700000118549433
 31
0.0
  0
LINE
  5
16FA
  8
250
 10
224.3716666666667
 20
-8.7699999881450559
 30
0.0
 11
224.0
 21
-10.99999998814504
 31
0.0
  0
LINE
  5
16FB
  8
250
 10
223.6283333333333
 20
-8.7699999881450559
 30
0.0
 11
224.0
 21
-10.99999998814504
 31
0.0
  0
LINE
  5
16FC
  8
250
 10
224.0
 20
-10.99999998814504
 30
0.0
 11
224.0
 21
-8.7699999881450559
 31
0.0
  0
TEXT
  5
172A
  8
241
 10
-3.7999999999999958
 20
63.0
 30
0.0
 40
5.0
  1
SDF36-FMH22DP-60-180
  7
YOKO
 11
-3.7999999999999958
 21
63.0
 31
0.0
 73
     1
  0
VIEWPORT
  5
22
 67
     1
  8
0
 10
261.51769911504419
 20
148.5
 30
0.0
 40
523.0353982300885
 41
297.0
 68
     1
 69
     1
1001
ACAD
1000
MVIEW
1002
{
1070
    16
1010
0.0
1020
0.0
1030
0.0
1010
0.0
1020
0.0
1030
1.0
1040
0.0
1040
297.0
1040
261.51769911504419
1040
148.5
1040
50.0
1040
0.0
1040
0.0
1070
     0
1070
   100
1070
     1
1070
     1
1070
     0
1070
     0
1070
     0
1070
     0
1040
0.0
1040
0.0
1040
0.0
1040
1.0
1040
1.0
1040
10.0
1040
10.0
1070
     0
1002
{
1002
}
1002
}
1001
GENIUS_GENODEF_13
1002
{
1000
HIER
1070
     0
1002
}
1002
{
1000
MANEDIT
1070
     0
1002
}
1002
{
1000
NOSEL
1070
     0
1002
}
1002
{
1000
BEHIND
1070
     0
1002
}
1002
{
1000
OTHER
1070
     0
1002
}
1002
{
1000
REACTOR
1002
}
1001
GENIUS_GENOBJ-N-SDF_13
1002
{
1000
OWNER
1000
GEN
1002
}
1001
GENIUS_GENSCREG_15
1000
PF
1040
1.0
1000
DF
1040
1.0
1000
MIN
1011
0.0
1021
0.0
1031
0.0
1021
0.0
1031
0.0
1000
MAX
1011
523.0353982300885
1021
0.0
1031
0.0
1021
297.0
1031
0.0
1000
FLAGS
1070
     2
  0
ENDSEC
  0
EOF
