  0
SECTION
  2
HEADER
  9
$ACADVER
  1
AC1009
  9
$INSBASE
 10
0.0
 20
0.0
 30
0.0
  9
$EXTMIN
 10
-5.5512433860401131
 20
-23.70710678118655
 30
0.0
  9
$EXTMAX
 10
232.0
 20
61.000000000000007
 30
0.0
  9
$LIMMIN
 10
0.0
 20
0.0
  9
$LIMMAX
 10
297.0
 20
210.0
  9
$ORTHOMODE
 70
     1
  9
$REGENMODE
 70
     1
  9
$FILLMODE
 70
     1
  9
$QTEXTMODE
 70
     0
  9
$MIRRTEXT
 70
     1
  9
$DRAGMODE
 70
     2
  9
$LTSCALE
 40
10.0
  9
$OSMODE
 70
    39
  9
$ATTMODE
 70
     1
  9
$TEXTSIZE
 40
3.0
  9
$TRACEWID
 40
1.0
  9
$TEXTSTYLE
  7
YOKO
  9
$CLAYER
  8
240
  9
$CELTYPE
  6
BYLAYER
  9
$CECOLOR
 62
   256
  9
$DIMSCALE
 40
1.0
  9
$DIMASZ
 40
2.2299999999999991
  9
$DIMEXO
 40
0.5
  9
$DIMDLI
 40
7.0
  9
$DIMRND
 40
0.0
  9
$DIMDLE
 40
0.0
  9
$DIMEXE
 40
1.0
  9
$DIMTP
 40
0.0
  9
$DIMTM
 40
0.01
  9
$DIMTXT
 40
2.799999999999998
  9
$DIMCEN
 40
0.0
  9
$DIMTSZ
 40
0.0
  9
$DIMTOL
 70
     0
  9
$DIMLIM
 70
     0
  9
$DIMTIH
 70
     0
  9
$DIMTOH
 70
     0
  9
$DIMSE1
 70
     0
  9
$DIMSE2
 70
     0
  9
$DIMTAD
 70
     3
  9
$DIMZIN
 70
     9
  9
$DIMBLK
  1
OPEN
  9
$DIMASO
 70
     1
  9
$DIMSHO
 70
     1
  9
$DIMPOST
  1

  9
$DIMAPOST
  1

  9
$DIMALT
 70
     0
  9
$DIMALTD
 70
     2
  9
$DIMALTF
 40
25.399999999999999
  9
$DIMLFAC
 40
1.0
  9
$DIMTOFL
 70
     1
  9
$DIMTVP
 40
0.0
  9
$DIMTIX
 70
     1
  9
$DIMSOXD
 70
     0
  9
$DIMSAH
 70
     0
  9
$DIMBLK1
  1

  9
$DIMBLK2
  1

  9
$DIMSTYLE
  2
BIGT
  9
$DIMCLRD
 70
   256
  9
$DIMCLRE
 70
   256
  9
$DIMCLRT
 70
    40
  9
$DIMTFAC
 40
1.0
  9
$DIMGAP
 40
1.0
  9
$LUNITS
 70
     2
  9
$LUPREC
 70
     3
  9
$SKETCHINC
 40
1.0
  9
$FILLETRAD
 40
0.0
  9
$AUNITS
 70
     0
  9
$AUPREC
 70
     3
  9
$MENU
  1
.
  9
$ELEVATION
 40
0.0
  9
$PELEVATION
 40
0.0
  9
$THICKNESS
 40
0.0
  9
$LIMCHECK
 70
     0
  9
$BLIPMODE
 70
     0
  9
$CHAMFERA
 40
0.25
  9
$CHAMFERB
 40
0.25
  9
$SKPOLY
 70
     0
  9
$TDCREATE
 40
2456582.673221447
  9
$TDUPDATE
 40
2456582.6855809032
  9
$TDINDWG
 40
0.0120968866
  9
$TDUSRTIMER
 40
0.012096713
  9
$USRTIMER
 70
     1
  9
$ANGBASE
 50
0.0
  9
$ANGDIR
 70
     0
  9
$PDMODE
 70
     1
  9
$PDSIZE
 40
0.0
  9
$PLINEWID
 40
0.0
  9
$COORDS
 70
     0
  9
$SPLFRAME
 70
     0
  9
$SPLINETYPE
 70
     6
  9
$SPLINESEGS
 70
     4
  9
$ATTDIA
 70
     1
  9
$ATTREQ
 70
     1
  9
$HANDLING
 70
     1
  9
$HANDSEED
  5
22F1
  9
$SURFTAB1
 70
     6
  9
$SURFTAB2
 70
     6
  9
$SURFTYPE
 70
     6
  9
$SURFU
 70
     6
  9
$SURFV
 70
     6
  9
$UCSNAME
  2

  9
$UCSORG
 10
0.0
 20
0.0
 30
0.0
  9
$UCSXDIR
 10
1.0
 20
0.0
 30
0.0
  9
$UCSYDIR
 10
0.0
 20
1.0
 30
0.0
  9
$PUCSNAME
  2

  9
$PUCSORG
 10
0.0
 20
0.0
 30
0.0
  9
$PUCSXDIR
 10
1.0
 20
0.0
 30
0.0
  9
$PUCSYDIR
 10
0.0
 20
1.0
 30
0.0
  9
$USERI1
 70
     1
  9
$USERI2
 70
     0
  9
$USERI3
 70
     0
  9
$USERI4
 70
     0
  9
$USERI5
 70
     0
  9
$USERR1
 40
0.0
  9
$USERR2
 40
0.0
  9
$USERR3
 40
0.0
  9
$USERR4
 40
0.0
  9
$USERR5
 40
0.0
  9
$WORLDVIEW
 70
     1
  9
$SHADEDGE
 70
     3
  9
$SHADEDIF
 70
    70
  9
$TILEMODE
 70
     1
  9
$MAXACTVP
 70
    16
  9
$PLIMCHECK
 70
     0
  9
$PEXTMIN
 10
1.0000000000000000E+020
 20
1.0000000000000000E+020
 30
1.0000000000000000E+020
  9
$PEXTMAX
 10
-1.0000000000000000E+020
 20
-1.0000000000000000E+020
 30
-1.0000000000000000E+020
  9
$PLIMMIN
 10
0.0
 20
0.0
  9
$PLIMMAX
 10
420.0
 20
297.0
  9
$UNITMODE
 70
     0
  9
$VISRETAIN
 70
     1
  9
$PLINEGEN
 70
     0
  9
$PSLTSCALE
 70
     1
  0
ENDSEC
  0
SECTION
  2
TABLES
  0
TABLE
  2
VPORT
 70
     3
  0
VPORT
  2
*ACTIVE
 70
     0
 10
0.0
 20
0.0
 11
1.0
 21
1.0
 12
110.3091628583016
 22
20.539195125485922
 13
0.0
 23
0.0
 14
7.0
 24
7.0
 15
7.0
 25
7.0
 16
0.0
 26
0.0
 36
1.0
 17
0.0
 27
0.0
 37
0.0
 40
210.91157299471811
 41
1.444687842278203
 42
50.0
 43
0.0
 44
0.0
 50
0.0
 51
0.0
 71
     0
 72
  2000
 73
     1
 74
     0
 75
     0
 76
     0
 77
     0
 78
     0
  0
ENDTAB
  0
TABLE
  2
LTYPE
 70
    21
  0
LTYPE
  2
CONTINUOUS
 70
     0
  3
Solid line
 72
    65
 73
     0
 40
0.0
  0
LTYPE
  2
CENTER2
 70
     0
  3
___ _ ___ _ ___ _ ___ _ ___ _ ___ _ ___ _ ___ _
 72
    65
 73
     4
 40
1.125
 49
0.75
 49
-0.125
 49
0.125
 49
-0.125
  0
LTYPE
  2
HIDDEN2
 70
     0
  3
_ _ _ _ _ _ _ _ _ _ _ _ _ _ _ _ _ _ _ _ _ _ _ _
 72
    65
 73
     2
 40
0.1875
 49
0.125
 49
-0.0625
  0
LTYPE
  2
PHANTOM2
 70
     0
  3
___ _ _ ___ _ _ ___ _ _ ___ _ _ ___ _ _ ___ _ _
 72
    65
 73
     6
 40
1.25
 49
0.625
 49
-0.125
 49
0.125
 49
-0.125
 49
0.125
 49
-0.125
  0
LTYPE
  2
CENTER
 70
     0
  3
____ _ ____ _ ____ _ ____ _ ____ _ ____ _ ____ 
 72
    65
 73
     4
 40
2.0
 49
1.25
 49
-0.25
 49
0.25
 49
-0.25
  0
LTYPE
  2
AMCONSTR
 70
     0
  3
_______________________
 72
    65
 73
     2
 40
9999.0
 49
9999.0
 49
0.0
  0
LTYPE
  2
HIDDEN
 70
     0
  3
Hidden __ __ __ __ __ __ __ __ __ __ __ __ __ _
 72
    65
 73
     2
 40
9.5249999999999986
 49
6.3499999999999979
 49
-3.174999999999998
  0
LTYPE
  2
AMZIGZAG2
 70
     0
  3
/\/-/\/-/\/-/\/-/\/-/\/
 72
    65
 73
     2
 40
0.4401
 49
0.0001
 49
-0.4400000000000001
  0
LTYPE
  2
ACANSTGB
 70
     0
  3
__ . . __ . .
 72
    65
 73
     6
 40
0.35433070866
 49
0.15748031496
 49
-0.03937007874
 49
0.03937007874
 49
-0.03937007874
 49
0.03937007874
 49
-0.03937007874
  0
LTYPE
  2
ACANSTGL
 70
     0
  3
_ _ _ _ _
 72
    65
 73
     2
 40
0.11811023622
 49
0.07874015748
 49
-0.03937007874
  0
ENDTAB
  0
TABLE
  2
LAYER
 70
     9
  0
LAYER
  2
0
 70
     0
 62
     7
  6
CONTINUOUS
  0
LAYER
  2
240
 70
     0
 62
     4
  6
CONTINUOUS
  0
LAYER
  2
DEFPOINTS
 70
     0
 62
     7
  6
CONTINUOUS
  0
LAYER
  2
245
 70
     0
 62
     2
  6
CENTER2
  0
LAYER
  2
241
 70
     0
 62
   211
  6
CONTINUOUS
  0
LAYER
  2
242
 70
     0
 62
     3
  6
CONTINUOUS
  0
LAYER
  2
243
 70
     0
 62
   211
  6
HIDDEN2
  0
LAYER
  2
244
 70
     0
 62
     3
  6
HIDDEN2
  0
LAYER
  2
250
 70
     0
 62
     3
  6
CONTINUOUS
  0
ENDTAB
  0
TABLE
  2
STYLE
 70
     9
  0
STYLE
  2
STANDARD
 70
     0
 40
0.0
 41
1.0
 50
0.0
 71
     0
 42
3.0
  3
romans.shx
  4
extfont.shx
  0
STYLE
  2
YOKO
 70
     0
 40
0.0
 41
1.0
 50
0.0
 71
     0
 42
3.0
  3
romans.shx
  4
extfont.shx
  0
STYLE
  2

 70
     1
 40
0.0
 41
1.0
 50
0.0
 71
     0
 42
3.0
  3
ltypeshp.shx
  4

  0
STYLE
  2
ACANSTS
 70
     0
 40
1.0
 41
1.0
 50
0.0
 71
     0
 42
3.0
  3
romans.shx
  4
extfont.shx
  0
STYLE
  2
ACANSGDT
 70
     0
 40
0.0
 41
1.0
 50
0.0
 71
     0
 42
3.0
  3
amgdtans.shx
  4

  0
ENDTAB
  0
TABLE
  2
VIEW
 70
     0
  0
ENDTAB
  0
TABLE
  2
UCS
 70
     0
  0
ENDTAB
  0
TABLE
  2
APPID
 70
    31
  0
APPID
  2
ACAD
 70
     0
  0
APPID
  2
GLOBAL
 70
     0
  0
APPID
  2
DETAIL
 70
     0
  0
APPID
  2
GRPNAME
 70
     0
  0
APPID
  2
GPARA
 70
     0
  0
APPID
  2
MCAD_NO_VIS
 70
     0
  0
APPID
  2
ACAD_TEMP_GRAPHIC
 70
     0
  0
APPID
  2
ACATTRIBSERVICES
 70
     0
  0
APPID
  2
GENIUS_GENSCREG_15
 70
     0
  0
APPID
  2
GENIUS_GENODEF_13
 70
     0
  0
APPID
  2
GENIUS_GENOBJ-N-SDF_13
 70
     0
  0
APPID
  2
GENIUS_GENREC_14
 70
     0
  0
APPID
  2
GENIUS_GENOBJ-N-REC_13
 70
     0
  0
APPID
  2
GENIUS_GENDIMSH_14
 70
     0
  0
APPID
  2
GENIUS_GENOBJ-N-DIM_13
 70
     0
  0
APPID
  2
GENIUS_GENDIM_13
 70
     0
  0
APPID
  2
GENIUS_GENDTOL_13
 70
     0
  0
APPID
  2
GENIUS_GENOLIS_13
 70
     0
  0
APPID
  2
GENIUS_GENOENT_13
 70
     0
  0
APPID
  2
GENIUS_GENOBJ-F-FEM_13
 70
     0
  0
APPID
  2
GENIUS_GENOREF_13
 70
     0
  0
APPID
  2
GENIUS_GEFFEM_13
 70
     0
  0
APPID
  2
GENIUS_GEFFEMP_13
 70
     0
  0
APPID
  2
AD_DRAW
 70
     0
  0
APPID
  2
DESIGNERASSEMBLIES
 70
     0
  0
APPID
  2
ACADM_DIM_EDIT
 70
     0
  0
APPID
  2
AMDT_DM_ADJ
 70
     0
  0
APPID
  2
ACAD_PSEXT
 70
     0
  0
APPID
  2
ASK_MEN_XD
 70
     0
  0
APPID
  2
ASKLEADERCHILD
 70
     0
  0
APPID
  2
GENIUS_GENOBJ-N-FIL_13
 70
     0
  0
ENDTAB
  0
TABLE
  2
DIMSTYLE
 70
    29
  0
DIMSTYLE
  2
BIGT
 70
     0
  3

  4

  5

  6

  7

 40
1.0
 41
2.2299999999999991
 42
0.5
 43
7.0
 44
1.0
 45
0.0
 46
0.0
 47
0.0
 48
0.01
140
2.799999999999998
141
0.0
142
0.0
143
25.399999999999999
144
1.0
145
0.0
146
1.0
147
1.0
 71
     0
 72
     0
 73
     0
 74
     0
 75
     0
 76
     0
 77
     3
 78
     9
170
     0
171
     2
172
     1
173
     0
174
     1
175
     0
176
   256
177
   256
178
    40
  0
DIMSTYLE
  2
AM_ANSI
 70
     0
  3

  4
mm
  5

  6

  7

 40
1.0
 41
0.1
 42
0.05
 43
0.5
 44
0.1
 45
0.0
 46
0.0
 47
0.1
 48
0.1
140
0.12
141
0.0
142
0.0
143
25.399999999999999
144
1.0
145
0.0
146
0.71
147
0.06
 71
     0
 72
     0
 73
     1
 74
     1
 75
     0
 76
     0
 77
     0
 78
     7
170
     0
171
     2
172
     0
173
     0
174
     0
175
     0
176
   256
177
   256
178
     2
  0
DIMSTYLE
  2
AM_ANSI$3
 70
     0
  3

  4
mm
  5

  6

  7

 40
1.0
 41
0.1
 42
0.05
 43
0.5
 44
0.1
 45
0.0
 46
0.0
 47
0.1
 48
0.1
140
0.12
141
0.0
142
0.0
143
25.399999999999999
144
1.0
145
0.0
146
0.71
147
0.06
 71
     0
 72
     0
 73
     1
 74
     1
 75
     0
 76
     0
 77
     0
 78
     7
170
     0
171
     2
172
     0
173
     0
174
     0
175
     0
176
   256
177
   256
178
     2
  0
DIMSTYLE
  2
AM_ANSI$4
 70
     0
  3

  4
mm
  5

  6

  7

 40
1.0
 41
0.1
 42
0.05
 43
0.5
 44
0.1
 45
0.0
 46
0.0
 47
0.1
 48
0.1
140
0.12
141
0.0
142
0.0
143
25.399999999999999
144
1.0
145
0.0
146
0.71
147
0.06
 71
     0
 72
     0
 73
     1
 74
     1
 75
     0
 76
     0
 77
     0
 78
     7
170
     0
171
     2
172
     0
173
     0
174
     0
175
     0
176
   256
177
   256
178
     2
  0
DIMSTYLE
  2
AM_ANSI$7
 70
     0
  3

  4
mm
  5

  6

  7

 40
1.0
 41
0.1
 42
0.05
 43
0.5
 44
0.1
 45
0.0
 46
0.0
 47
0.1
 48
0.1
140
0.24
141
0.0
142
0.0
143
25.399999999999999
144
1.0
145
0.0
146
0.71
147
0.06
 71
     0
 72
     0
 73
     1
 74
     1
 75
     0
 76
     0
 77
     0
 78
     7
170
     0
171
     2
172
     0
173
     0
174
     0
175
     0
176
   256
177
   256
178
     2
  0
DIMSTYLE
  2
AM_ANSI$SF
 70
     0
  3

  4
mm
  5

  6

  7

 40
1.0
 41
0.1
 42
0.05
 43
0.5
 44
0.1
 45
0.0
 46
0.0
 47
0.1
 48
0.1
140
0.12
141
0.0
142
0.0
143
25.399999999999999
144
1.0
145
0.0
146
0.71
147
0.06
 71
     0
 72
     0
 73
     1
 74
     1
 75
     1
 76
     1
 77
     0
 78
     7
170
     0
171
     2
172
     0
173
     0
174
     0
175
     0
176
   256
177
   256
178
     2
  0
DIMSTYLE
  2
AM_ANSI$SH
 70
     0
  3

  4
mm
  5

  6
GENAXEH
  7

 40
1.0
 41
0.1
 42
0.05
 43
0.5
 44
0.1
 45
0.0
 46
0.0
 47
0.1
 48
0.1
140
0.12
141
0.0
142
0.0
143
25.399999999999999
144
1.0
145
0.0
146
0.71
147
0.06
 71
     0
 72
     0
 73
     1
 74
     1
 75
     1
 76
     1
 77
     0
 78
     7
170
     0
171
     2
172
     0
173
     1
174
     0
175
     0
176
   256
177
   256
178
     2
  0
ENDTAB
  0
ENDSEC
  0
SECTION
  2
BLOCKS
  0
BLOCK
  8
0
  2
$MODEL_SPACE
 70
     0
 10
0.0
 20
0.0
 30
0.0
  3
$MODEL_SPACE
  1

  0
ENDBLK
  5
21F4
  8
0
  0
BLOCK
 67
     1
  8
0
  2
$PAPER_SPACE
 70
     0
 10
0.0
 20
0.0
 30
0.0
  3
$PAPER_SPACE
  1

  0
ENDBLK
  5
21F0
 67
     1
  8
0
  0
BLOCK
  8
0
  2
_OPEN
 70
     0
 10
0.0
 20
0.0
 30
0.0
  3
_OPEN
  1

  0
LINE
  5
1965
  8
0
  6
BYBLOCK
 62
     0
 10
-1.0
 20
0.1666666666666666
 30
0.0
 11
0.0
 21
0.0
 31
0.0
  0
LINE
  5
1966
  8
0
  6
BYBLOCK
 62
     0
 10
-1.0
 20
-0.1666666666666666
 30
0.0
 11
0.0
 21
0.0
 31
0.0
  0
LINE
  5
1967
  8
0
  6
BYBLOCK
 62
     0
 10
0.0
 20
0.0
 30
0.0
 11
-1.0
 21
0.0
 31
0.0
  0
ENDBLK
  5
1968
  8
0
  0
BLOCK
  8
0
  2
GENAXEH
 70
     0
 10
0.0
 20
0.0
 30
0.0
  3
GENAXEH
  1

  0
LINE
  5
1990
  8
0
 10
-1.0
 20
0.0
 30
0.0
 11
1.0
 21
0.0
 31
0.0
  0
ENDBLK
  5
1991
  8
0
  0
ENDSEC
  0
SECTION
  2
ENTITIES
  0
LINE
  5
13CD
  8
240
 10
0.0999999999999091
 20
-23.5
 30
0.0
 11
179.0
 21
-23.5
 31
0.0
  0
LINE
  5
13CE
  8
240
 10
0.0
 20
-23.400000000000009
 30
0.0
 11
0.0999999999999091
 21
-23.5
 31
0.0
1001
ASK_MEN_XD
1005
13DF
1070
     1
1005
13CD
1070
     1
1001
ASKLEADERCHILD
1000
LEADER
1005
0
1000
MYHANDLE
1005
13CE
  0
LINE
  5
13CF
  8
240
 10
179.0
 20
23.5
 30
0.0
 11
0.0999999999999375
 21
23.5
 31
0.0
  0
LINE
  5
13D0
  8
245
 10
215.66329979193509
 20
0.0
 30
0.0
 11
-5.5512433860401131
 21
0.0
 31
0.0
  0
ARC
  5
13D1
  8
240
 10
179.0
 20
-22.5
 30
0.0
 40
1.0
 50
270.0
 51
0.0
  0
ARC
  5
13D2
  8
240
 10
179.0
 20
22.5
 30
0.0
 40
1.0
 50
0.0
 51
90.0
  0
ARC
  5
13DD
  8
243
 10
1.0
 20
20.25
 30
0.0
 40
1.0
 50
180.0
 51
270.0
1001
ASK_MEN_XD
1005
13DC
1070
     1
1005
13FE
1070
     0
  0
LINE
  5
13DE
  8
240
 10
0.0999999999999091
 20
23.5
 30
0.0
 11
0.0
 21
23.399999999999981
 31
0.0
1001
ASK_MEN_XD
1005
13CF
1070
     1
1005
13DC
1070
     1
  0
LINE
  5
13DF
  8
240
 10
0.0
 20
-23.400000000000009
 30
0.0
 11
0.0
 21
23.399999999999981
 31
0.0
  0
LINE
  5
13E0
  8
240
 10
180.0000000000002
 20
-10.98585715714569
 30
0.0
 11
180.0
 21
-22.5
 31
0.0
  0
LINE
  5
13E1
  8
240
 10
180.0
 20
22.5
 30
0.0
 11
180.0
 21
11.0
 31
0.0
  0
LINE
  5
13EB
  8
243
 10
23.74999999999989
 20
-18.0
 30
0.0
 11
23.74999999999989
 21
18.0
 31
0.0
  0
LINE
  5
13EE
  8
243
 10
40.79999999999994
 20
-18.0
 30
0.0
 11
40.79999999999994
 21
18.0
 31
0.0
  0
LINE
  5
13FA
  8
243
 10
23.74999999999989
 20
18.0
 30
0.0
 11
22.49999999999989
 21
19.25
 31
0.0
  0
LINE
  5
13FB
  8
243
 10
19.499999999999879
 20
19.25
 30
0.0
 11
18.499999999999879
 21
18.25
 31
0.0
  0
LINE
  5
13FC
  8
243
 10
22.49999999999989
 20
19.25
 30
0.0
 11
19.499999999999879
 21
19.25
 31
0.0
  0
LINE
  5
13FD
  8
243
 10
3.577350269189536
 20
18.25
 30
0.0
 11
2.999999999999885
 21
19.25
 31
0.0
  0
LINE
  5
13FE
  8
243
 10
2.999999999999885
 20
19.25
 30
0.0
 11
1.0
 21
19.25
 31
0.0
  0
LINE
  5
1401
  8
243
 10
18.499999999999879
 20
18.25
 30
0.0
 11
3.577350269189536
 21
18.25
 31
0.0
  0
LINE
  5
1403
  8
243
 10
40.79999999999994
 20
18.0
 30
0.0
 11
23.74999999999989
 21
18.0
 31
0.0
  0
LINE
  5
1484
  8
244
 10
19.249999999999879
 20
19.0
 30
0.0
 11
3.1443375672972982
 21
19.0
 31
0.0
  0
LINE
  5
14DF
  8
241
  6
HIDDEN2
 10
198.0000000000002
 20
9.5
 30
0.0
 11
170.5000000000002
 21
9.5
 31
0.0
  0
LINE
  5
14E0
  8
241
  6
HIDDEN2
 10
198.0000000000002
 20
6.5
 30
0.0
 11
173.5000000000002
 21
6.5
 31
0.0
  0
LINE
  5
14E1
  8
240
  6
CONTINUOUS
 10
180.0
 20
11.0
 30
0.0
 11
196.80000000000021
 21
11.0
 31
0.0
  0
LINE
  5
14E2
  8
240
  6
CONTINUOUS
 10
180.0000000000002
 20
-11.0
 30
0.0
 11
196.80000000000021
 21
-11.0
 31
0.0
  0
LINE
  5
14E3
  8
245
 10
172.0000000000002
 20
8.0
 30
0.0
 11
199.0000000000002
 21
8.0
 31
0.0
  0
ARC
  5
14E7
  8
241
  6
CONTINUOUS
 10
172.0000000000002
 20
0.0
 30
0.0
 40
5.0
 50
90.0
 51
270.0
  0
LINE
  5
14E9
  8
245
 10
172.0000000000002
 20
8.0
 30
0.0
 11
172.0000000000002
 21
3.6820659164601448
 31
0.0
  0
LINE
  5
14EA
  8
241
  6
CONTINUOUS
 10
185.0000000000002
 20
-5.0
 30
0.0
 11
185.0000000000002
 21
5.0
 31
0.0
  0
CIRCLE
  5
14EB
  8
241
  6
CONTINUOUS
 10
174.0000000000002
 20
0.0
 30
0.0
 40
3.5
  0
LINE
  5
14EC
  8
241
  6
CONTINUOUS
 10
174.0000000000002
 20
1.7320508100000001
 30
0.0
 11
172.5000000000002
 21
0.8660254
 31
0.0
  0
LINE
  5
14ED
  8
241
  6
CONTINUOUS
 10
175.5000000000002
 20
0.8660254
 30
0.0
 11
174.0000000000002
 21
1.7320508100000001
 31
0.0
  0
LINE
  5
14EE
  8
241
  6
CONTINUOUS
 10
172.0000000000002
 20
-5.0
 30
0.0
 11
185.0000000000002
 21
-5.0
 31
0.0
  0
LINE
  5
14EF
  8
241
  6
CONTINUOUS
 10
172.5000000000002
 20
-0.8660254
 30
0.0
 11
174.0000000000002
 21
-1.7320508100000001
 31
0.0
  0
LINE
  5
14F0
  8
241
  6
CONTINUOUS
 10
172.5000000000002
 20
0.8660254
 30
0.0
 11
172.5000000000002
 21
-0.8660254
 31
0.0
  0
LINE
  5
14F1
  8
241
  6
CONTINUOUS
 10
175.5000000000002
 20
-0.8660254
 30
0.0
 11
175.5000000000002
 21
0.8660254
 31
0.0
  0
LINE
  5
14F2
  8
241
  6
CONTINUOUS
 10
174.0000000000002
 20
-1.7320508100000001
 30
0.0
 11
175.5000000000002
 21
-0.8660254
 31
0.0
  0
LINE
  5
14F3
  8
241
 10
180.0000000000002
 20
-11.0
 30
0.0
 11
180.0000000000002
 21
-5.0
 31
0.0
  0
LINE
  5
14F4
  8
241
  6
CONTINUOUS
 10
172.0000000000002
 20
5.0
 30
0.0
 11
185.0000000000002
 21
5.0
 31
0.0
  0
LINE
  5
14F5
  8
241
 10
180.0000000000002
 20
11.0
 30
0.0
 11
180.0000000000002
 21
5.0
 31
0.0
  0
LINE
  5
14F6
  8
240
  6
CONTINUOUS
 10
203.0000000000002
 20
8.0
 30
0.0
 11
212.0000000000002
 21
8.0
 31
0.0
1001
GRPNAME
1000
PASTMD0V
  0
LINE
  5
14F7
  8
241
  6
HIDDEN2
 10
208.0000000000002
 20
4.6188021499999987
 30
0.0
 11
213.0000000000002
 21
4.6188021499999987
 31
0.0
  0
LINE
  5
14F8
  8
241
  6
HIDDEN2
 10
208.0000000000002
 20
2.3094010800000002
 30
0.0
 11
213.0000000000002
 21
2.3094010800000002
 31
0.0
  0
LINE
  5
14F9
  8
240
  6
CONTINUOUS
 10
203.0000000000002
 20
-8.0
 30
0.0
 11
212.0000000000002
 21
-8.0
 31
0.0
1001
GRPNAME
1000
PASTMD0V
  0
LINE
  5
14FA
  8
241
  6
HIDDEN2
 10
208.0000000000002
 20
4.0
 30
0.0
 11
205.69059892000021
 21
0.0
 31
0.0
  0
LINE
  5
14FB
  8
241
 10
203.0000000000002
 20
5.0
 30
0.0
 11
203.0000000000002
 21
0.0
 31
0.0
  0
LINE
  5
14FC
  8
241
  6
HIDDEN2
 10
208.0000000000002
 20
0.0
 30
0.0
 11
208.0000000000002
 21
4.6188021499999987
 31
0.0
  0
LINE
  5
14FD
  8
242
  6
CONTINUOUS
 10
200.0000000000002
 20
5.0
 30
0.0
 11
200.0000000000002
 21
0.0
 31
0.0
1001
GRPNAME
1000
PASTMD0V
  0
LINE
  5
14FE
  8
241
 10
198.0000000000002
 20
5.0
 30
0.0
 11
198.0000000000002
 21
0.0
 31
0.0
  0
LINE
  5
14FF
  8
242
  6
CONTINUOUS
 10
198.0000000000002
 20
-4.25
 30
0.0
 11
200.0000000000002
 21
-4.25
 31
0.0
1001
GRPNAME
1000
PASTMD0V
  0
LINE
  5
1500
  8
240
  6
CONTINUOUS
 10
198.0000000000002
 20
-5.0
 30
0.0
 11
203.0000000000002
 21
-5.0
 31
0.0
1001
GRPNAME
1000
PASTMD0V
  0
LINE
  5
1501
  8
240
  6
CONTINUOUS
 10
198.0000000000002
 20
-5.0
 30
0.0
 11
198.0000000000002
 21
-9.8000000000000007
 31
0.0
  0
ARC
  5
1502
  8
240
  6
CONTINUOUS
 10
196.80000000000021
 20
-9.8000000000000007
 30
0.0
 40
1.1999999999999991
 50
270.0
 51
0.0
  0
LINE
  5
1503
  8
241
 10
198.0000000000002
 20
-5.0
 30
0.0
 11
198.0000000000002
 21
0.0
 31
0.0
  0
LINE
  5
1504
  8
240
  6
CONTINUOUS
 10
203.0000000000002
 20
-8.0
 30
0.0
 11
203.0000000000002
 21
-5.0
 31
0.0
1001
GRPNAME
1000
PASTMD0V
  0
LINE
  5
1505
  8
241
 10
203.0000000000002
 20
-5.0
 30
0.0
 11
203.0000000000002
 21
0.0
 31
0.0
  0
LINE
  5
1506
  8
242
  6
CONTINUOUS
 10
200.0000000000002
 20
-5.0
 30
0.0
 11
200.0000000000002
 21
0.0
 31
0.0
1001
GRPNAME
1000
PASTMD0V
  0
LINE
  5
1507
  8
242
  6
CONTINUOUS
 10
198.0000000000002
 20
4.25
 30
0.0
 11
200.0000000000002
 21
4.25
 31
0.0
1001
GRPNAME
1000
PASTMD0V
  0
LINE
  5
1508
  8
240
  6
CONTINUOUS
 10
198.0000000000002
 20
5.0
 30
0.0
 11
203.0000000000002
 21
5.0
 31
0.0
1001
GRPNAME
1000
PASTMD0V
  0
LINE
  5
1509
  8
240
  6
CONTINUOUS
 10
198.0000000000002
 20
5.0
 30
0.0
 11
198.0000000000002
 21
9.8000000000000007
 31
0.0
  0
ARC
  5
150A
  8
240
  6
CONTINUOUS
 10
196.80000000000021
 20
9.8000000000000007
 30
0.0
 40
1.1999999999999991
 50
0.0
 51
90.0
  0
LINE
  5
150B
  8
240
  6
CONTINUOUS
 10
203.0000000000002
 20
8.0
 30
0.0
 11
203.0000000000002
 21
5.0
 31
0.0
1001
GRPNAME
1000
PASTMD0V
  0
LINE
  5
150C
  8
240
  6
CONTINUOUS
 10
213.0000000000002
 20
7.0
 30
0.0
 11
213.0000000000002
 21
0.0
 31
0.0
1001
GRPNAME
1000
PASTMD0V
  0
LINE
  5
150D
  8
240
  6
CONTINUOUS
 10
213.0000000000002
 20
-7.0
 30
0.0
 11
213.0000000000002
 21
0.0
 31
0.0
1001
GRPNAME
1000
PASTMD0V
  0
LINE
  5
150E
  8
240
  6
CONTINUOUS
 10
213.0000000000002
 20
-7.0
 30
0.0
 11
212.0000000000002
 21
-8.0
 31
0.0
1001
GRPNAME
1000
PASTMD0V
  0
LINE
  5
150F
  8
240
  6
CONTINUOUS
 10
213.0000000000002
 20
7.0
 30
0.0
 11
212.0000000000002
 21
8.0
 31
0.0
1001
GRPNAME
1000
PASTMD0V
  0
POLYLINE
  5
19CF
  8
241
 66
     1
 10
0.0
 20
0.0
 30
0.0
 70
     8
  0
VERTEX
  5
19D0
  8
241
 10
172.0
 20
-14.558299999999999
 30
0.0
 70
    32
  0
VERTEX
  5
19D1
  8
241
 10
171.99100000000001
 20
-14.558299999999999
 30
0.0
 70
    32
  0
VERTEX
  5
19D2
  8
241
 10
171.983
 20
-14.558299999999999
 30
0.0
 70
    32
  0
VERTEX
  5
19D3
  8
241
 10
171.97399999999999
 20
-14.558400000000001
 30
0.0
 70
    32
  0
VERTEX
  5
19D4
  8
241
 10
171.96600000000001
 20
-14.5585
 30
0.0
 70
    32
  0
VERTEX
  5
19D5
  8
241
 10
171.95699999999999
 20
-14.5586
 30
0.0
 70
    32
  0
VERTEX
  5
19D6
  8
241
 10
171.94900000000001
 20
-14.5587
 30
0.0
 70
    32
  0
VERTEX
  5
19D7
  8
241
 10
171.94
 20
-14.5588
 30
0.0
 70
    32
  0
VERTEX
  5
19D8
  8
241
 10
171.93199999999999
 20
-14.558999999999999
 30
0.0
 70
    32
  0
VERTEX
  5
19D9
  8
241
 10
171.923
 20
-14.559100000000001
 30
0.0
 70
    32
  0
VERTEX
  5
19DA
  8
241
 10
171.91499999999999
 20
-14.5593
 30
0.0
 70
    32
  0
VERTEX
  5
19DB
  8
241
 10
171.90599999999989
 20
-14.5595
 30
0.0
 70
    32
  0
VERTEX
  5
19DC
  8
241
 10
171.898
 20
-14.559799999999999
 30
0.0
 70
    32
  0
VERTEX
  5
19DD
  8
241
 10
171.88999999999999
 20
-14.56
 30
0.0
 70
    32
  0
VERTEX
  5
19DE
  8
241
 10
171.88099999999989
 20
-14.5603
 30
0.0
 70
    32
  0
VERTEX
  5
19DF
  8
241
 10
171.87299999999999
 20
-14.560600000000001
 30
0.0
 70
    32
  0
VERTEX
  5
19E0
  8
241
 10
171.864
 20
-14.5609
 30
0.0
 70
    32
  0
VERTEX
  5
19E1
  8
241
 10
171.85599999999999
 20
-14.561299999999999
 30
0.0
 70
    32
  0
VERTEX
  5
19E2
  8
241
 10
171.84700000000001
 20
-14.5616
 30
0.0
 70
    32
  0
VERTEX
  5
19E3
  8
241
 10
171.839
 20
-14.561999999999999
 30
0.0
 70
    32
  0
VERTEX
  5
19E4
  8
241
 10
171.83000000000001
 20
-14.5624
 30
0.0
 70
    32
  0
VERTEX
  5
19E5
  8
241
 10
171.822
 20
-14.562799999999999
 30
0.0
 70
    32
  0
VERTEX
  5
19E6
  8
241
 10
171.81299999999999
 20
-14.5633
 30
0.0
 70
    32
  0
VERTEX
  5
19E7
  8
241
 10
171.80500000000001
 20
-14.563700000000001
 30
0.0
 70
    32
  0
VERTEX
  5
19E8
  8
241
 10
171.797
 20
-14.5642
 30
0.0
 70
    32
  0
VERTEX
  5
19E9
  8
241
 10
171.78800000000001
 20
-14.5647
 30
0.0
 70
    32
  0
VERTEX
  5
19EA
  8
241
 10
171.78
 20
-14.565300000000001
 30
0.0
 70
    32
  0
VERTEX
  5
19EB
  8
241
 10
171.77099999999999
 20
-14.565799999999999
 30
0.0
 70
    32
  0
VERTEX
  5
19EC
  8
241
 10
171.76300000000001
 20
-14.5664
 30
0.0
 70
    32
  0
VERTEX
  5
19ED
  8
241
 10
171.755
 20
-14.5669
 30
0.0
 70
    32
  0
VERTEX
  5
19EE
  8
241
 10
171.7459999999999
 20
-14.567600000000001
 30
0.0
 70
    32
  0
VERTEX
  5
19EF
  8
241
 10
171.738
 20
-14.568199999999999
 30
0.0
 70
    32
  0
VERTEX
  5
19F0
  8
241
 10
171.72900000000001
 20
-14.5688
 30
0.0
 70
    32
  0
VERTEX
  5
19F1
  8
241
 10
171.72099999999989
 20
-14.5695
 30
0.0
 70
    32
  0
VERTEX
  5
19F2
  8
241
 10
171.71299999999999
 20
-14.5702
 30
0.0
 70
    32
  0
VERTEX
  5
19F3
  8
241
 10
171.70400000000001
 20
-14.5709
 30
0.0
 70
    32
  0
VERTEX
  5
19F4
  8
241
 10
171.696
 20
-14.5716
 30
0.0
 70
    32
  0
VERTEX
  5
19F5
  8
241
 10
171.68799999999999
 20
-14.5723
 30
0.0
 70
    32
  0
VERTEX
  5
19F6
  8
241
 10
171.679
 20
-14.5731
 30
0.0
 70
    32
  0
VERTEX
  5
19F7
  8
241
 10
171.67099999999999
 20
-14.5739
 30
0.0
 70
    32
  0
VERTEX
  5
19F8
  8
241
 10
171.66200000000001
 20
-14.5747
 30
0.0
 70
    32
  0
VERTEX
  5
19F9
  8
241
 10
171.654
 20
-14.5755
 30
0.0
 70
    32
  0
VERTEX
  5
19FA
  8
241
 10
171.64599999999999
 20
-14.5764
 30
0.0
 70
    32
  0
VERTEX
  5
19FB
  8
241
 10
171.637
 20
-14.577199999999999
 30
0.0
 70
    32
  0
VERTEX
  5
19FC
  8
241
 10
171.62899999999999
 20
-14.578099999999999
 30
0.0
 70
    32
  0
VERTEX
  5
19FD
  8
241
 10
171.62100000000001
 20
-14.579000000000001
 30
0.0
 70
    32
  0
VERTEX
  5
19FE
  8
241
 10
171.61199999999999
 20
-14.58
 30
0.0
 70
    32
  0
VERTEX
  5
19FF
  8
241
 10
171.60400000000001
 20
-14.5809
 30
0.0
 70
    32
  0
VERTEX
  5
1A00
  8
241
 10
171.59599999999989
 20
-14.581899999999999
 30
0.0
 70
    32
  0
VERTEX
  5
1A01
  8
241
 10
171.58699999999999
 20
-14.5829
 30
0.0
 70
    32
  0
VERTEX
  5
1A02
  8
241
 10
171.57900000000001
 20
-14.5839
 30
0.0
 70
    32
  0
VERTEX
  5
1A03
  8
241
 10
171.571
 20
-14.584899999999999
 30
0.0
 70
    32
  0
VERTEX
  5
1A04
  8
241
 10
171.56299999999999
 20
-14.585900000000001
 30
0.0
 70
    32
  0
VERTEX
  5
1A05
  8
241
 10
171.554
 20
-14.587
 30
0.0
 70
    32
  0
VERTEX
  5
1A06
  8
241
 10
171.54599999999999
 20
-14.588100000000001
 30
0.0
 70
    32
  0
VERTEX
  5
1A07
  8
241
 10
171.53800000000001
 20
-14.5892
 30
0.0
 70
    32
  0
VERTEX
  5
1A08
  8
241
 10
171.529
 20
-14.590299999999999
 30
0.0
 70
    32
  0
VERTEX
  5
1A09
  8
241
 10
171.52099999999999
 20
-14.5915
 30
0.0
 70
    32
  0
VERTEX
  5
1A0A
  8
241
 10
171.51300000000001
 20
-14.592599999999999
 30
0.0
 70
    32
  0
VERTEX
  5
1A0B
  8
241
 10
171.505
 20
-14.5938
 30
0.0
 70
    32
  0
VERTEX
  5
1A0C
  8
241
 10
171.49600000000001
 20
-14.595000000000001
 30
0.0
 70
    32
  0
VERTEX
  5
1A0D
  8
241
 10
171.488
 20
-14.596299999999999
 30
0.0
 70
    32
  0
VERTEX
  5
1A0E
  8
241
 10
171.47999999999999
 20
-14.5975
 30
0.0
 70
    32
  0
VERTEX
  5
1A0F
  8
241
 10
171.47200000000001
 20
-14.598800000000001
 30
0.0
 70
    32
  0
VERTEX
  5
1A10
  8
241
 10
171.46299999999999
 20
-14.600099999999999
 30
0.0
 70
    32
  0
VERTEX
  5
1A11
  8
241
 10
171.45500000000001
 20
-14.6014
 30
0.0
 70
    32
  0
VERTEX
  5
1A12
  8
241
 10
171.447
 20
-14.6027
 30
0.0
 70
    32
  0
VERTEX
  5
1A13
  8
241
 10
171.43899999999999
 20
-14.603999999999999
 30
0.0
 70
    32
  0
VERTEX
  5
1A14
  8
241
 10
171.43000000000001
 20
-14.605399999999999
 30
0.0
 70
    32
  0
VERTEX
  5
1A15
  8
241
 10
171.422
 20
-14.6068
 30
0.0
 70
    32
  0
VERTEX
  5
1A16
  8
241
 10
171.41399999999999
 20
-14.6082
 30
0.0
 70
    32
  0
VERTEX
  5
1A17
  8
241
 10
171.40600000000001
 20
-14.6096
 30
0.0
 70
    32
  0
VERTEX
  5
1A18
  8
241
 10
171.39699999999999
 20
-14.6111
 30
0.0
 70
    32
  0
VERTEX
  5
1A19
  8
241
 10
171.38900000000001
 20
-14.612500000000001
 30
0.0
 70
    32
  0
VERTEX
  5
1A1A
  8
241
 10
171.381
 20
-14.614000000000001
 30
0.0
 70
    32
  0
VERTEX
  5
1A1B
  8
241
 10
171.37299999999999
 20
-14.615500000000001
 30
0.0
 70
    32
  0
VERTEX
  5
1A1C
  8
241
 10
171.364
 20
-14.617100000000001
 30
0.0
 70
    32
  0
VERTEX
  5
1A1D
  8
241
 10
171.35599999999999
 20
-14.618600000000001
 30
0.0
 70
    32
  0
VERTEX
  5
1A1E
  8
241
 10
171.34800000000001
 20
-14.620200000000001
 30
0.0
 70
    32
  0
VERTEX
  5
1A1F
  8
241
 10
171.34
 20
-14.6218
 30
0.0
 70
    32
  0
VERTEX
  5
1A20
  8
241
 10
171.33199999999999
 20
-14.6234
 30
0.0
 70
    32
  0
VERTEX
  5
1A21
  8
241
 10
171.32300000000001
 20
-14.625
 30
0.0
 70
    32
  0
VERTEX
  5
1A22
  8
241
 10
171.315
 20
-14.6267
 30
0.0
 70
    32
  0
VERTEX
  5
1A23
  8
241
 10
171.30699999999999
 20
-14.628299999999999
 30
0.0
 70
    32
  0
VERTEX
  5
1A24
  8
241
 10
171.29900000000001
 20
-14.630000000000001
 30
0.0
 70
    32
  0
VERTEX
  5
1A25
  8
241
 10
171.291
 20
-14.6317
 30
0.0
 70
    32
  0
VERTEX
  5
1A26
  8
241
 10
171.28299999999999
 20
-14.6335
 30
0.0
 70
    32
  0
VERTEX
  5
1A27
  8
241
 10
171.274
 20
-14.635199999999999
 30
0.0
 70
    32
  0
VERTEX
  5
1A28
  8
241
 10
171.26599999999999
 20
-14.637
 30
0.0
 70
    32
  0
VERTEX
  5
1A29
  8
241
 10
171.2579999999999
 20
-14.6388
 30
0.0
 70
    32
  0
VERTEX
  5
1A2A
  8
241
 10
171.25
 20
-14.640599999999999
 30
0.0
 70
    32
  0
VERTEX
  5
1A2B
  8
241
 10
171.24199999999999
 20
-14.6424
 30
0.0
 70
    32
  0
VERTEX
  5
1A2C
  8
241
 10
171.23400000000001
 20
-14.644299999999999
 30
0.0
 70
    32
  0
VERTEX
  5
1A2D
  8
241
 10
171.22499999999999
 20
-14.646100000000001
 30
0.0
 70
    32
  0
VERTEX
  5
1A2E
  8
241
 10
171.21700000000001
 20
-14.648
 30
0.0
 70
    32
  0
VERTEX
  5
1A2F
  8
241
 10
171.209
 20
-14.649900000000001
 30
0.0
 70
    32
  0
VERTEX
  5
1A30
  8
241
 10
171.20099999999999
 20
-14.651899999999999
 30
0.0
 70
    32
  0
VERTEX
  5
1A31
  8
241
 10
171.19300000000001
 20
-14.6538
 30
0.0
 70
    32
  0
VERTEX
  5
1A32
  8
241
 10
171.185
 20
-14.655799999999999
 30
0.0
 70
    32
  0
VERTEX
  5
1A33
  8
241
 10
171.17699999999999
 20
-14.6578
 30
0.0
 70
    32
  0
VERTEX
  5
1A34
  8
241
 10
171.16900000000001
 20
-14.659800000000001
 30
0.0
 70
    32
  0
VERTEX
  5
1A35
  8
241
 10
171.161
 20
-14.661799999999999
 30
0.0
 70
    32
  0
VERTEX
  5
1A36
  8
241
 10
171.15299999999999
 20
-14.6638
 30
0.0
 70
    32
  0
VERTEX
  5
1A37
  8
241
 10
171.14500000000001
 20
-14.665900000000001
 30
0.0
 70
    32
  0
VERTEX
  5
1A38
  8
241
 10
171.136
 20
-14.667999999999999
 30
0.0
 70
    32
  0
VERTEX
  5
1A39
  8
241
 10
171.12799999999999
 20
-14.6701
 30
0.0
 70
    32
  0
VERTEX
  5
1A3A
  8
241
 10
171.12
 20
-14.6722
 30
0.0
 70
    32
  0
VERTEX
  5
1A3B
  8
241
 10
171.11199999999999
 20
-14.674300000000001
 30
0.0
 70
    32
  0
VERTEX
  5
1A3C
  8
241
 10
171.10400000000001
 20
-14.676500000000001
 30
0.0
 70
    32
  0
VERTEX
  5
1A3D
  8
241
 10
171.096
 20
-14.678699999999999
 30
0.0
 70
    32
  0
VERTEX
  5
1A3E
  8
241
 10
171.08799999999999
 20
-14.680899999999999
 30
0.0
 70
    32
  0
VERTEX
  5
1A3F
  8
241
 10
171.08000000000001
 20
-14.6831
 30
0.0
 70
    32
  0
VERTEX
  5
1A40
  8
241
 10
171.072
 20
-14.6853
 30
0.0
 70
    32
  0
VERTEX
  5
1A41
  8
241
 10
171.06399999999999
 20
-14.6876
 30
0.0
 70
    32
  0
VERTEX
  5
1A42
  8
241
 10
171.05600000000001
 20
-14.6899
 30
0.0
 70
    32
  0
VERTEX
  5
1A43
  8
241
 10
171.048
 20
-14.6921
 30
0.0
 70
    32
  0
VERTEX
  5
1A44
  8
241
 10
171.041
 20
-14.6945
 30
0.0
 70
    32
  0
VERTEX
  5
1A45
  8
241
 10
171.03299999999999
 20
-14.6968
 30
0.0
 70
    32
  0
VERTEX
  5
1A46
  8
241
 10
171.02500000000001
 20
-14.6991
 30
0.0
 70
    32
  0
VERTEX
  5
1A47
  8
241
 10
171.017
 20
-14.701499999999999
 30
0.0
 70
    32
  0
VERTEX
  5
1A48
  8
241
 10
171.00899999999999
 20
-14.703900000000001
 30
0.0
 70
    32
  0
VERTEX
  5
1A49
  8
241
 10
171.001
 20
-14.706300000000001
 30
0.0
 70
    32
  0
VERTEX
  5
1A4A
  8
241
 10
170.99299999999999
 20
-14.7087
 30
0.0
 70
    32
  0
VERTEX
  5
1A4B
  8
241
 10
170.98500000000001
 20
-14.7111
 30
0.0
 70
    32
  0
VERTEX
  5
1A4C
  8
241
 10
170.977
 20
-14.7136
 30
0.0
 70
    32
  0
VERTEX
  5
1A4D
  8
241
 10
170.96899999999999
 20
-14.716100000000001
 30
0.0
 70
    32
  0
VERTEX
  5
1A4E
  8
241
 10
170.96199999999999
 20
-14.7186
 30
0.0
 70
    32
  0
VERTEX
  5
1A4F
  8
241
 10
170.95400000000001
 20
-14.7211
 30
0.0
 70
    32
  0
VERTEX
  5
1A50
  8
241
 10
170.946
 20
-14.723599999999999
 30
0.0
 70
    32
  0
VERTEX
  5
1A51
  8
241
 10
170.93799999999999
 20
-14.7262
 30
0.0
 70
    32
  0
VERTEX
  5
1A52
  8
241
 10
170.93000000000001
 20
-14.7287
 30
0.0
 70
    32
  0
VERTEX
  5
1A53
  8
241
 10
170.923
 20
-14.731299999999999
 30
0.0
 70
    32
  0
VERTEX
  5
1A54
  8
241
 10
170.91499999999999
 20
-14.7339
 30
0.0
 70
    32
  0
VERTEX
  5
1A55
  8
241
 10
170.90700000000001
 20
-14.736499999999999
 30
0.0
 70
    32
  0
VERTEX
  5
1A56
  8
241
 10
170.899
 20
-14.7392
 30
0.0
 70
    32
  0
VERTEX
  5
1A57
  8
241
 10
170.892
 20
-14.7418
 30
0.0
 70
    32
  0
VERTEX
  5
1A58
  8
241
 10
170.88399999999999
 20
-14.7445
 30
0.0
 70
    32
  0
VERTEX
  5
1A59
  8
241
 10
170.876
 20
-14.747199999999999
 30
0.0
 70
    32
  0
VERTEX
  5
1A5A
  8
241
 10
170.869
 20
-14.7499
 30
0.0
 70
    32
  0
VERTEX
  5
1A5B
  8
241
 10
170.86099999999999
 20
-14.752599999999999
 30
0.0
 70
    32
  0
VERTEX
  5
1A5C
  8
241
 10
170.85300000000001
 20
-14.7553
 30
0.0
 70
    32
  0
VERTEX
  5
1A5D
  8
241
 10
170.846
 20
-14.758100000000001
 30
0.0
 70
    32
  0
VERTEX
  5
1A5E
  8
241
 10
170.83799999999999
 20
-14.760899999999999
 30
0.0
 70
    32
  0
VERTEX
  5
1A5F
  8
241
 10
170.83000000000001
 20
-14.7637
 30
0.0
 70
    32
  0
VERTEX
  5
1A60
  8
241
 10
170.82300000000001
 20
-14.766500000000001
 30
0.0
 70
    32
  0
VERTEX
  5
1A61
  8
241
 10
170.815
 20
-14.769299999999999
 30
0.0
 70
    32
  0
VERTEX
  5
1A62
  8
241
 10
170.80799999999999
 20
-14.7721
 30
0.0
 70
    32
  0
VERTEX
  5
1A63
  8
241
 10
170.80000000000001
 20
-14.775
 30
0.0
 70
    32
  0
VERTEX
  5
1A64
  8
241
 10
170.792
 20
-14.777900000000001
 30
0.0
 70
    32
  0
VERTEX
  5
1A65
  8
241
 10
170.785
 20
-14.780799999999999
 30
0.0
 70
    32
  0
VERTEX
  5
1A66
  8
241
 10
170.77699999999999
 20
-14.7837
 30
0.0
 70
    32
  0
VERTEX
  5
1A67
  8
241
 10
170.77000000000001
 20
-14.7866
 30
0.0
 70
    32
  0
VERTEX
  5
1A68
  8
241
 10
170.762
 20
-14.7896
 30
0.0
 70
    32
  0
VERTEX
  5
1A69
  8
241
 10
170.755
 20
-14.7925
 30
0.0
 70
    32
  0
VERTEX
  5
1A6A
  8
241
 10
170.74700000000001
 20
-14.795500000000001
 30
0.0
 70
    32
  0
VERTEX
  5
1A6B
  8
241
 10
170.74000000000001
 20
-14.798500000000001
 30
0.0
 70
    32
  0
VERTEX
  5
1A6C
  8
241
 10
170.732
 20
-14.801500000000001
 30
0.0
 70
    32
  0
VERTEX
  5
1A6D
  8
241
 10
170.72499999999999
 20
-14.804500000000001
 30
0.0
 70
    32
  0
VERTEX
  5
1A6E
  8
241
 10
170.71700000000001
 20
-14.807600000000001
 30
0.0
 70
    32
  0
VERTEX
  5
1A6F
  8
241
 10
170.71000000000001
 20
-14.810700000000001
 30
0.0
 70
    32
  0
VERTEX
  5
1A70
  8
241
 10
170.703
 20
-14.813700000000001
 30
0.0
 70
    32
  0
VERTEX
  5
1A71
  8
241
 10
170.69499999999999
 20
-14.816800000000001
 30
0.0
 70
    32
  0
VERTEX
  5
1A72
  8
241
 10
170.68799999999999
 20
-14.82
 30
0.0
 70
    32
  0
VERTEX
  5
1A73
  8
241
 10
170.68000000000001
 20
-14.8231
 30
0.0
 70
    32
  0
VERTEX
  5
1A74
  8
241
 10
170.673
 20
-14.8262
 30
0.0
 70
    32
  0
VERTEX
  5
1A75
  8
241
 10
170.666
 20
-14.8294
 30
0.0
 70
    32
  0
VERTEX
  5
1A76
  8
241
 10
170.65799999999999
 20
-14.832599999999999
 30
0.0
 70
    32
  0
VERTEX
  5
1A77
  8
241
 10
170.6509999999999
 20
-14.835800000000001
 30
0.0
 70
    32
  0
VERTEX
  5
1A78
  8
241
 10
170.64400000000001
 20
-14.839
 30
0.0
 70
    32
  0
VERTEX
  5
1A79
  8
241
 10
170.637
 20
-14.8423
 30
0.0
 70
    32
  0
VERTEX
  5
1A7A
  8
241
 10
170.62899999999999
 20
-14.845499999999999
 30
0.0
 70
    32
  0
VERTEX
  5
1A7B
  8
241
 10
170.62200000000001
 20
-14.848800000000001
 30
0.0
 70
    32
  0
VERTEX
  5
1A7C
  8
241
 10
170.61500000000001
 20
-14.8521
 30
0.0
 70
    32
  0
VERTEX
  5
1A7D
  8
241
 10
170.607
 20
-14.855399999999999
 30
0.0
 70
    32
  0
VERTEX
  5
1A7E
  8
241
 10
170.59999999999999
 20
-14.858700000000001
 30
0.0
 70
    32
  0
VERTEX
  5
1A7F
  8
241
 10
170.59299999999999
 20
-14.862
 30
0.0
 70
    32
  0
VERTEX
  5
1A80
  8
241
 10
170.58600000000001
 20
-14.865399999999999
 30
0.0
 70
    32
  0
VERTEX
  5
1A81
  8
241
 10
170.57900000000001
 20
-14.8688
 30
0.0
 70
    32
  0
VERTEX
  5
1A82
  8
241
 10
170.571
 20
-14.872199999999999
 30
0.0
 70
    32
  0
VERTEX
  5
1A83
  8
241
 10
170.56399999999999
 20
-14.8756
 30
0.0
 70
    32
  0
VERTEX
  5
1A84
  8
241
 10
170.55699999999999
 20
-14.879
 30
0.0
 70
    32
  0
VERTEX
  5
1A85
  8
241
 10
170.55000000000001
 20
-14.882400000000001
 30
0.0
 70
    32
  0
VERTEX
  5
1A86
  8
241
 10
170.54300000000001
 20
-14.885899999999999
 30
0.0
 70
    32
  0
VERTEX
  5
1A87
  8
241
 10
170.53599999999989
 20
-14.8894
 30
0.0
 70
    32
  0
VERTEX
  5
1A88
  8
241
 10
170.529
 20
-14.892899999999999
 30
0.0
 70
    32
  0
VERTEX
  5
1A89
  8
241
 10
170.52099999999999
 20
-14.8964
 30
0.0
 70
    32
  0
VERTEX
  5
1A8A
  8
241
 10
170.51400000000001
 20
-14.899900000000001
 30
0.0
 70
    32
  0
VERTEX
  5
1A8B
  8
241
 10
170.50700000000001
 20
-14.9034
 30
0.0
 70
    32
  0
VERTEX
  5
1A8C
  8
241
 10
170.5
 20
-14.907
 30
0.0
 70
    32
  0
VERTEX
  5
1A8D
  8
241
 10
170.49299999999999
 20
-14.910600000000001
 30
0.0
 70
    32
  0
VERTEX
  5
1A8E
  8
241
 10
170.48599999999999
 20
-14.914199999999999
 30
0.0
 70
    32
  0
VERTEX
  5
1A8F
  8
241
 10
170.47900000000001
 20
-14.9178
 30
0.0
 70
    32
  0
VERTEX
  5
1A90
  8
241
 10
170.47200000000001
 20
-14.9214
 30
0.0
 70
    32
  0
VERTEX
  5
1A91
  8
241
 10
170.465
 20
-14.925000000000001
 30
0.0
 70
    32
  0
VERTEX
  5
1A92
  8
241
 10
170.458
 20
-14.928699999999999
 30
0.0
 70
    32
  0
VERTEX
  5
1A93
  8
241
 10
170.45099999999999
 20
-14.932399999999999
 30
0.0
 70
    32
  0
VERTEX
  5
1A94
  8
241
 10
170.44399999999999
 20
-14.9361
 30
0.0
 70
    32
  0
VERTEX
  5
1A95
  8
241
 10
170.43700000000001
 20
-14.9398
 30
0.0
 70
    32
  0
VERTEX
  5
1A96
  8
241
 10
170.43000000000001
 20
-14.9435
 30
0.0
 70
    32
  0
VERTEX
  5
1A97
  8
241
 10
170.423
 20
-14.9473
 30
0.0
 70
    32
  0
VERTEX
  5
1A98
  8
241
 10
170.416
 20
-14.951000000000001
 30
0.0
 70
    32
  0
VERTEX
  5
1A99
  8
241
 10
170.41
 20
-14.954800000000001
 30
0.0
 70
    32
  0
VERTEX
  5
1A9A
  8
241
 10
170.40299999999999
 20
-14.958600000000001
 30
0.0
 70
    32
  0
VERTEX
  5
1A9B
  8
241
 10
170.39599999999999
 20
-14.962400000000001
 30
0.0
 70
    32
  0
VERTEX
  5
1A9C
  8
241
 10
170.38900000000001
 20
-14.9663
 30
0.0
 70
    32
  0
VERTEX
  5
1A9D
  8
241
 10
170.38200000000001
 20
-14.9701
 30
0.0
 70
    32
  0
VERTEX
  5
1A9E
  8
241
 10
170.375
 20
-14.974
 30
0.0
 70
    32
  0
VERTEX
  5
1A9F
  8
241
 10
170.36799999999999
 20
-14.9778
 30
0.0
 70
    32
  0
VERTEX
  5
1AA0
  8
241
 10
170.36199999999999
 20
-14.9817
 30
0.0
 70
    32
  0
VERTEX
  5
1AA1
  8
241
 10
170.35499999999999
 20
-14.9857
 30
0.0
 70
    32
  0
VERTEX
  5
1AA2
  8
241
 10
170.34800000000001
 20
-14.989599999999999
 30
0.0
 70
    32
  0
VERTEX
  5
1AA3
  8
241
 10
170.34100000000001
 20
-14.993499999999999
 30
0.0
 70
    32
  0
VERTEX
  5
1AA4
  8
241
 10
170.33500000000001
 20
-14.9975
 30
0.0
 70
    32
  0
VERTEX
  5
1AA5
  8
241
 10
170.328
 20
-15.0015
 30
0.0
 70
    32
  0
VERTEX
  5
1AA6
  8
241
 10
170.321
 20
-15.0055
 30
0.0
 70
    32
  0
VERTEX
  5
1AA7
  8
241
 10
170.31399999999999
 20
-15.009499999999999
 30
0.0
 70
    32
  0
VERTEX
  5
1AA8
  8
241
 10
170.30799999999999
 20
-15.013500000000001
 30
0.0
 70
    32
  0
VERTEX
  5
1AA9
  8
241
 10
170.30099999999999
 20
-15.0175
 30
0.0
 70
    32
  0
VERTEX
  5
1AAA
  8
241
 10
170.29400000000001
 20
-15.021599999999999
 30
0.0
 70
    32
  0
VERTEX
  5
1AAB
  8
241
 10
170.28800000000001
 20
-15.025700000000001
 30
0.0
 70
    32
  0
VERTEX
  5
1AAC
  8
241
 10
170.28099999999989
 20
-15.0297
 30
0.0
 70
    32
  0
VERTEX
  5
1AAD
  8
241
 10
170.274
 20
-15.033799999999999
 30
0.0
 70
    32
  0
VERTEX
  5
1AAE
  8
241
 10
170.268
 20
-15.0379
 30
0.0
 70
    32
  0
VERTEX
  5
1AAF
  8
241
 10
170.261
 20
-15.0421
 30
0.0
 70
    32
  0
VERTEX
  5
1AB0
  8
241
 10
170.255
 20
-15.046200000000001
 30
0.0
 70
    32
  0
VERTEX
  5
1AB1
  8
241
 10
170.24799999999999
 20
-15.0504
 30
0.0
 70
    32
  0
VERTEX
  5
1AB2
  8
241
 10
170.24199999999999
 20
-15.054500000000001
 30
0.0
 70
    32
  0
VERTEX
  5
1AB3
  8
241
 10
170.23500000000001
 20
-15.0587
 30
0.0
 70
    32
  0
VERTEX
  5
1AB4
  8
241
 10
170.22900000000001
 20
-15.062900000000001
 30
0.0
 70
    32
  0
VERTEX
  5
1AB5
  8
241
 10
170.22200000000001
 20
-15.0671
 30
0.0
 70
    32
  0
VERTEX
  5
1AB6
  8
241
 10
170.21600000000001
 20
-15.071400000000001
 30
0.0
 70
    32
  0
VERTEX
  5
1AB7
  8
241
 10
170.209
 20
-15.0756
 30
0.0
 70
    32
  0
VERTEX
  5
1AB8
  8
241
 10
170.203
 20
-15.0799
 30
0.0
 70
    32
  0
VERTEX
  5
1AB9
  8
241
 10
170.197
 20
-15.084099999999999
 30
0.0
 70
    32
  0
VERTEX
  5
1ABA
  8
241
 10
170.19
 20
-15.0884
 30
0.0
 70
    32
  0
VERTEX
  5
1ABB
  8
241
 10
170.184
 20
-15.092700000000001
 30
0.0
 70
    32
  0
VERTEX
  5
1ABC
  8
241
 10
170.17699999999999
 20
-15.097
 30
0.0
 70
    32
  0
VERTEX
  5
1ABD
  8
241
 10
170.17099999999999
 20
-15.1013
 30
0.0
 70
    32
  0
VERTEX
  5
1ABE
  8
241
 10
170.16499999999999
 20
-15.105700000000001
 30
0.0
 70
    32
  0
VERTEX
  5
1ABF
  8
241
 10
170.15799999999999
 20
-15.109999999999999
 30
0.0
 70
    32
  0
VERTEX
  5
1AC0
  8
241
 10
170.15199999999999
 20
-15.1144
 30
0.0
 70
    32
  0
VERTEX
  5
1AC1
  8
241
 10
170.14599999999999
 20
-15.1187
 30
0.0
 70
    32
  0
VERTEX
  5
1AC2
  8
241
 10
170.13999999999999
 20
-15.123100000000001
 30
0.0
 70
    32
  0
VERTEX
  5
1AC3
  8
241
 10
170.13300000000001
 20
-15.1275
 30
0.0
 70
    32
  0
VERTEX
  5
1AC4
  8
241
 10
170.12700000000001
 20
-15.1319
 30
0.0
 70
    32
  0
VERTEX
  5
1AC5
  8
241
 10
170.12100000000001
 20
-15.1363
 30
0.0
 70
    32
  0
VERTEX
  5
1AC6
  8
241
 10
170.11500000000001
 20
-15.1408
 30
0.0
 70
    32
  0
VERTEX
  5
1AC7
  8
241
 10
170.10900000000001
 20
-15.145200000000001
 30
0.0
 70
    32
  0
VERTEX
  5
1AC8
  8
241
 10
170.10300000000001
 20
-15.149699999999999
 30
0.0
 70
    32
  0
VERTEX
  5
1AC9
  8
241
 10
170.09700000000001
 20
-15.1541
 30
0.0
 70
    32
  0
VERTEX
  5
1ACA
  8
241
 10
170.09100000000001
 20
-15.1586
 30
0.0
 70
    32
  0
VERTEX
  5
1ACB
  8
241
 10
170.084
 20
-15.1631
 30
0.0
 70
    32
  0
VERTEX
  5
1ACC
  8
241
 10
170.078
 20
-15.1676
 30
0.0
 70
    32
  0
VERTEX
  5
1ACD
  8
241
 10
170.072
 20
-15.1721
 30
0.0
 70
    32
  0
VERTEX
  5
1ACE
  8
241
 10
170.066
 20
-15.1767
 30
0.0
 70
    32
  0
VERTEX
  5
1ACF
  8
241
 10
170.06
 20
-15.1812
 30
0.0
 70
    32
  0
VERTEX
  5
1AD0
  8
241
 10
170.05500000000001
 20
-15.185700000000001
 30
0.0
 70
    32
  0
VERTEX
  5
1AD1
  8
241
 10
170.04900000000001
 20
-15.190300000000001
 30
0.0
 70
    32
  0
VERTEX
  5
1AD2
  8
241
 10
170.04300000000001
 20
-15.194900000000001
 30
0.0
 70
    32
  0
VERTEX
  5
1AD3
  8
241
 10
170.03700000000001
 20
-15.1995
 30
0.0
 70
    32
  0
VERTEX
  5
1AD4
  8
241
 10
170.03099999999989
 20
-15.2041
 30
0.0
 70
    32
  0
VERTEX
  5
1AD5
  8
241
 10
170.02500000000001
 20
-15.2087
 30
0.0
 70
    32
  0
VERTEX
  5
1AD6
  8
241
 10
170.01900000000001
 20
-15.2133
 30
0.0
 70
    32
  0
VERTEX
  5
1AD7
  8
241
 10
170.01300000000001
 20
-15.2179
 30
0.0
 70
    32
  0
VERTEX
  5
1AD8
  8
241
 10
170.0079999999999
 20
-15.2226
 30
0.0
 70
    32
  0
VERTEX
  5
1AD9
  8
241
 10
170.00200000000001
 20
-15.2272
 30
0.0
 70
    32
  0
VERTEX
  5
1ADA
  8
241
 10
169.99600000000001
 20
-15.2319
 30
0.0
 70
    32
  0
VERTEX
  5
1ADB
  8
241
 10
169.99000000000001
 20
-15.236599999999999
 30
0.0
 70
    32
  0
VERTEX
  5
1ADC
  8
241
 10
169.98500000000001
 20
-15.241199999999999
 30
0.0
 70
    32
  0
VERTEX
  5
1ADD
  8
241
 10
169.97900000000001
 20
-15.246
 30
0.0
 70
    32
  0
VERTEX
  5
1ADE
  8
241
 10
169.97300000000001
 20
-15.2507
 30
0.0
 70
    32
  0
VERTEX
  5
1ADF
  8
241
 10
169.96799999999999
 20
-15.2554
 30
0.0
 70
    32
  0
VERTEX
  5
1AE0
  8
241
 10
169.96199999999999
 20
-15.2601
 30
0.0
 70
    32
  0
VERTEX
  5
1AE1
  8
241
 10
169.95599999999999
 20
-15.264900000000001
 30
0.0
 70
    32
  0
VERTEX
  5
1AE2
  8
241
 10
169.95099999999999
 20
-15.269600000000001
 30
0.0
 70
    32
  0
VERTEX
  5
1AE3
  8
241
 10
169.94499999999999
 20
-15.2744
 30
0.0
 70
    32
  0
VERTEX
  5
1AE4
  8
241
 10
169.94
 20
-15.279199999999999
 30
0.0
 70
    32
  0
VERTEX
  5
1AE5
  8
241
 10
169.934
 20
-15.284000000000001
 30
0.0
 70
    32
  0
VERTEX
  5
1AE6
  8
241
 10
169.928
 20
-15.2888
 30
0.0
 70
    32
  0
VERTEX
  5
1AE7
  8
241
 10
169.923
 20
-15.2936
 30
0.0
 70
    32
  0
VERTEX
  5
1AE8
  8
241
 10
169.917
 20
-15.298500000000001
 30
0.0
 70
    32
  0
VERTEX
  5
1AE9
  8
241
 10
169.91200000000001
 20
-15.3033
 30
0.0
 70
    32
  0
VERTEX
  5
1AEA
  8
241
 10
169.90600000000001
 20
-15.308199999999999
 30
0.0
 70
    32
  0
VERTEX
  5
1AEB
  8
241
 10
169.90100000000001
 20
-15.313000000000001
 30
0.0
 70
    32
  0
VERTEX
  5
1AEC
  8
241
 10
169.89599999999999
 20
-15.3179
 30
0.0
 70
    32
  0
VERTEX
  5
1AED
  8
241
 10
169.88999999999999
 20
-15.322800000000001
 30
0.0
 70
    32
  0
VERTEX
  5
1AEE
  8
241
 10
169.88499999999999
 20
-15.3277
 30
0.0
 70
    32
  0
VERTEX
  5
1AEF
  8
241
 10
169.88
 20
-15.332599999999999
 30
0.0
 70
    32
  0
VERTEX
  5
1AF0
  8
241
 10
169.874
 20
-15.3376
 30
0.0
 70
    32
  0
VERTEX
  5
1AF1
  8
241
 10
169.869
 20
-15.342499999999999
 30
0.0
 70
    32
  0
VERTEX
  5
1AF2
  8
241
 10
169.864
 20
-15.3474
 30
0.0
 70
    32
  0
VERTEX
  5
1AF3
  8
241
 10
169.858
 20
-15.352399999999999
 30
0.0
 70
    32
  0
VERTEX
  5
1AF4
  8
241
 10
169.85300000000001
 20
-15.3574
 30
0.0
 70
    32
  0
VERTEX
  5
1AF5
  8
241
 10
169.84800000000001
 20
-15.362399999999999
 30
0.0
 70
    32
  0
VERTEX
  5
1AF6
  8
241
 10
169.84299999999999
 20
-15.3674
 30
0.0
 70
    32
  0
VERTEX
  5
1AF7
  8
241
 10
169.83699999999999
 20
-15.372400000000001
 30
0.0
 70
    32
  0
VERTEX
  5
1AF8
  8
241
 10
169.83199999999999
 20
-15.3774
 30
0.0
 70
    32
  0
VERTEX
  5
1AF9
  8
241
 10
169.827
 20
-15.382400000000001
 30
0.0
 70
    32
  0
VERTEX
  5
1AFA
  8
241
 10
169.822
 20
-15.387499999999999
 30
0.0
 70
    32
  0
VERTEX
  5
1AFB
  8
241
 10
169.81700000000001
 20
-15.3925
 30
0.0
 70
    32
  0
VERTEX
  5
1AFC
  8
241
 10
169.81200000000001
 20
-15.397600000000001
 30
0.0
 70
    32
  0
VERTEX
  5
1AFD
  8
241
 10
169.80699999999999
 20
-15.402699999999999
 30
0.0
 70
    32
  0
VERTEX
  5
1AFE
  8
241
 10
169.80099999999999
 20
-15.4078
 30
0.0
 70
    32
  0
VERTEX
  5
1AFF
  8
241
 10
169.79599999999999
 20
-15.4129
 30
0.0
 70
    32
  0
VERTEX
  5
1B00
  8
241
 10
169.791
 20
-15.417999999999999
 30
0.0
 70
    32
  0
VERTEX
  5
1B01
  8
241
 10
169.78599999999989
 20
-15.4231
 30
0.0
 70
    32
  0
VERTEX
  5
1B02
  8
241
 10
169.78100000000001
 20
-15.4283
 30
0.0
 70
    32
  0
VERTEX
  5
1B03
  8
241
 10
169.77600000000001
 20
-15.433400000000001
 30
0.0
 70
    32
  0
VERTEX
  5
1B04
  8
241
 10
169.77099999999999
 20
-15.438599999999999
 30
0.0
 70
    32
  0
VERTEX
  5
1B05
  8
241
 10
169.767
 20
-15.4438
 30
0.0
 70
    32
  0
VERTEX
  5
1B06
  8
241
 10
169.762
 20
-15.449
 30
0.0
 70
    32
  0
VERTEX
  5
1B07
  8
241
 10
169.75700000000001
 20
-15.4542
 30
0.0
 70
    32
  0
VERTEX
  5
1B08
  8
241
 10
169.75200000000001
 20
-15.4594
 30
0.0
 70
    32
  0
VERTEX
  5
1B09
  8
241
 10
169.74700000000001
 20
-15.464600000000001
 30
0.0
 70
    32
  0
VERTEX
  5
1B0A
  8
241
 10
169.74199999999999
 20
-15.469799999999999
 30
0.0
 70
    32
  0
VERTEX
  5
1B0B
  8
241
 10
169.73699999999999
 20
-15.475099999999999
 30
0.0
 70
    32
  0
VERTEX
  5
1B0C
  8
241
 10
169.733
 20
-15.4803
 30
0.0
 70
    32
  0
VERTEX
  5
1B0D
  8
241
 10
169.72800000000001
 20
-15.4856
 30
0.0
 70
    32
  0
VERTEX
  5
1B0E
  8
241
 10
169.72300000000001
 20
-15.4909
 30
0.0
 70
    32
  0
VERTEX
  5
1B0F
  8
241
 10
169.71799999999999
 20
-15.4962
 30
0.0
 70
    32
  0
VERTEX
  5
1B10
  8
241
 10
169.714
 20
-15.5015
 30
0.0
 70
    32
  0
VERTEX
  5
1B11
  8
241
 10
169.709
 20
-15.5068
 30
0.0
 70
    32
  0
VERTEX
  5
1B12
  8
241
 10
169.70400000000001
 20
-15.5121
 30
0.0
 70
    32
  0
VERTEX
  5
1B13
  8
241
 10
169.69900000000001
 20
-15.5174
 30
0.0
 70
    32
  0
VERTEX
  5
1B14
  8
241
 10
169.69499999999999
 20
-15.5228
 30
0.0
 70
    32
  0
VERTEX
  5
1B15
  8
241
 10
169.69
 20
-15.5281
 30
0.0
 70
    32
  0
VERTEX
  5
1B16
  8
241
 10
169.68600000000001
 20
-15.5335
 30
0.0
 70
    32
  0
VERTEX
  5
1B17
  8
241
 10
169.68100000000001
 20
-15.5389
 30
0.0
 70
    32
  0
VERTEX
  5
1B18
  8
241
 10
169.67699999999999
 20
-15.5442
 30
0.0
 70
    32
  0
VERTEX
  5
1B19
  8
241
 10
169.672
 20
-15.5496
 30
0.0
 70
    32
  0
VERTEX
  5
1B1A
  8
241
 10
169.66800000000001
 20
-15.555
 30
0.0
 70
    32
  0
VERTEX
  5
1B1B
  8
241
 10
169.66300000000001
 20
-15.5604
 30
0.0
 70
    32
  0
VERTEX
  5
1B1C
  8
241
 10
169.65899999999999
 20
-15.565799999999999
 30
0.0
 70
    32
  0
VERTEX
  5
1B1D
  8
241
 10
169.654
 20
-15.571199999999999
 30
0.0
 70
    32
  0
VERTEX
  5
1B1E
  8
241
 10
169.65000000000001
 20
-15.576700000000001
 30
0.0
 70
    32
  0
VERTEX
  5
1B1F
  8
241
 10
169.64500000000001
 20
-15.582100000000001
 30
0.0
 70
    32
  0
VERTEX
  5
1B20
  8
241
 10
169.64099999999999
 20
-15.5875
 30
0.0
 70
    32
  0
VERTEX
  5
1B21
  8
241
 10
169.637
 20
-15.593
 30
0.0
 70
    32
  0
VERTEX
  5
1B22
  8
241
 10
169.63200000000001
 20
-15.5984
 30
0.0
 70
    32
  0
VERTEX
  5
1B23
  8
241
 10
169.6279999999999
 20
-15.603899999999999
 30
0.0
 70
    32
  0
VERTEX
  5
1B24
  8
241
 10
169.624
 20
-15.609400000000001
 30
0.0
 70
    32
  0
VERTEX
  5
1B25
  8
241
 10
169.62
 20
-15.614800000000001
 30
0.0
 70
    32
  0
VERTEX
  5
1B26
  8
241
 10
169.61500000000001
 20
-15.6203
 30
0.0
 70
    32
  0
VERTEX
  5
1B27
  8
241
 10
169.61099999999999
 20
-15.6258
 30
0.0
 70
    32
  0
VERTEX
  5
1B28
  8
241
 10
169.607
 20
-15.6313
 30
0.0
 70
    32
  0
VERTEX
  5
1B29
  8
241
 10
169.60300000000001
 20
-15.636799999999999
 30
0.0
 70
    32
  0
VERTEX
  5
1B2A
  8
241
 10
169.59899999999999
 20
-15.642300000000001
 30
0.0
 70
    32
  0
VERTEX
  5
1B2B
  8
241
 10
169.595
 20
-15.6479
 30
0.0
 70
    32
  0
VERTEX
  5
1B2C
  8
241
 10
169.59
 20
-15.6534
 30
0.0
 70
    32
  0
VERTEX
  5
1B2D
  8
241
 10
169.58600000000001
 20
-15.658899999999999
 30
0.0
 70
    32
  0
VERTEX
  5
1B2E
  8
241
 10
169.58199999999999
 20
-15.6645
 30
0.0
 70
    32
  0
VERTEX
  5
1B2F
  8
241
 10
169.578
 20
-15.67
 30
0.0
 70
    32
  0
VERTEX
  5
1B30
  8
241
 10
169.57400000000001
 20
-15.675599999999999
 30
0.0
 70
    32
  0
VERTEX
  5
1B31
  8
241
 10
169.56999999999999
 20
-15.681100000000001
 30
0.0
 70
    32
  0
VERTEX
  5
1B32
  8
241
 10
169.56599999999989
 20
-15.6867
 30
0.0
 70
    32
  0
VERTEX
  5
1B33
  8
241
 10
169.56299999999999
 20
-15.692299999999999
 30
0.0
 70
    32
  0
VERTEX
  5
1B34
  8
241
 10
169.559
 20
-15.697900000000001
 30
0.0
 70
    32
  0
VERTEX
  5
1B35
  8
241
 10
169.55500000000001
 20
-15.7035
 30
0.0
 70
    32
  0
VERTEX
  5
1B36
  8
241
 10
169.55099999999999
 20
-15.709099999999999
 30
0.0
 70
    32
  0
VERTEX
  5
1B37
  8
241
 10
169.547
 20
-15.714700000000001
 30
0.0
 70
    32
  0
VERTEX
  5
1B38
  8
241
 10
169.54300000000001
 20
-15.7203
 30
0.0
 70
    32
  0
VERTEX
  5
1B39
  8
241
 10
169.53899999999999
 20
-15.725899999999999
 30
0.0
 70
    32
  0
VERTEX
  5
1B3A
  8
241
 10
169.53599999999989
 20
-15.7315
 30
0.0
 70
    32
  0
VERTEX
  5
1B3B
  8
241
 10
169.53200000000001
 20
-15.7371
 30
0.0
 70
    32
  0
VERTEX
  5
1B3C
  8
241
 10
169.52799999999999
 20
-15.742800000000001
 30
0.0
 70
    32
  0
VERTEX
  5
1B3D
  8
241
 10
169.52500000000001
 20
-15.7484
 30
0.0
 70
    32
  0
VERTEX
  5
1B3E
  8
241
 10
169.52099999999999
 20
-15.754
 30
0.0
 70
    32
  0
VERTEX
  5
1B3F
  8
241
 10
169.517
 20
-15.7597
 30
0.0
 70
    32
  0
VERTEX
  5
1B40
  8
241
 10
169.51400000000001
 20
-15.7653
 30
0.0
 70
    32
  0
VERTEX
  5
1B41
  8
241
 10
169.50999999999999
 20
-15.771000000000001
 30
0.0
 70
    32
  0
VERTEX
  5
1B42
  8
241
 10
169.50700000000001
 20
-15.7767
 30
0.0
 70
    32
  0
VERTEX
  5
1B43
  8
241
 10
169.50299999999999
 20
-15.782299999999999
 30
0.0
 70
    32
  0
VERTEX
  5
1B44
  8
241
 10
169.499
 20
-15.788
 30
0.0
 70
    32
  0
VERTEX
  5
1B45
  8
241
 10
169.49600000000001
 20
-15.793699999999999
 30
0.0
 70
    32
  0
VERTEX
  5
1B46
  8
241
 10
169.49299999999999
 20
-15.7994
 30
0.0
 70
    32
  0
VERTEX
  5
1B47
  8
241
 10
169.489
 20
-15.805
 30
0.0
 70
    32
  0
VERTEX
  5
1B48
  8
241
 10
169.48599999999999
 20
-15.810700000000001
 30
0.0
 70
    32
  0
VERTEX
  5
1B49
  8
241
 10
169.482
 20
-15.8164
 30
0.0
 70
    32
  0
VERTEX
  5
1B4A
  8
241
 10
169.47900000000001
 20
-15.822100000000001
 30
0.0
 70
    32
  0
VERTEX
  5
1B4B
  8
241
 10
169.476
 20
-15.8279
 30
0.0
 70
    32
  0
VERTEX
  5
1B4C
  8
241
 10
169.47200000000001
 20
-15.833600000000001
 30
0.0
 70
    32
  0
VERTEX
  5
1B4D
  8
241
 10
169.46899999999999
 20
-15.8393
 30
0.0
 70
    32
  0
VERTEX
  5
1B4E
  8
241
 10
169.46600000000001
 20
-15.845000000000001
 30
0.0
 70
    32
  0
VERTEX
  5
1B4F
  8
241
 10
169.46199999999999
 20
-15.8507
 30
0.0
 70
    32
  0
VERTEX
  5
1B50
  8
241
 10
169.459
 20
-15.8565
 30
0.0
 70
    32
  0
VERTEX
  5
1B51
  8
241
 10
169.45599999999999
 20
-15.8622
 30
0.0
 70
    32
  0
VERTEX
  5
1B52
  8
241
 10
169.453
 20
-15.867900000000001
 30
0.0
 70
    32
  0
VERTEX
  5
1B53
  8
241
 10
169.44999999999999
 20
-15.873699999999999
 30
0.0
 70
    32
  0
VERTEX
  5
1B54
  8
241
 10
169.447
 20
-15.8794
 30
0.0
 70
    32
  0
VERTEX
  5
1B55
  8
241
 10
169.44300000000001
 20
-15.885199999999999
 30
0.0
 70
    32
  0
VERTEX
  5
1B56
  8
241
 10
169.44
 20
-15.891
 30
0.0
 70
    32
  0
VERTEX
  5
1B57
  8
241
 10
169.43700000000001
 20
-15.896800000000001
 30
0.0
 70
    32
  0
VERTEX
  5
1B58
  8
241
 10
169.434
 20
-15.9025
 30
0.0
 70
    32
  0
VERTEX
  5
1B59
  8
241
 10
169.4309999999999
 20
-15.908300000000001
 30
0.0
 70
    32
  0
VERTEX
  5
1B5A
  8
241
 10
169.428
 20
-15.914099999999999
 30
0.0
 70
    32
  0
VERTEX
  5
1B5B
  8
241
 10
169.42500000000001
 20
-15.9199
 30
0.0
 70
    32
  0
VERTEX
  5
1B5C
  8
241
 10
169.422
 20
-15.925700000000001
 30
0.0
 70
    32
  0
VERTEX
  5
1B5D
  8
241
 10
169.41900000000001
 20
-15.9315
 30
0.0
 70
    32
  0
VERTEX
  5
1B5E
  8
241
 10
169.416
 20
-15.9374
 30
0.0
 70
    32
  0
VERTEX
  5
1B5F
  8
241
 10
169.41399999999999
 20
-15.943199999999999
 30
0.0
 70
    32
  0
VERTEX
  5
1B60
  8
241
 10
169.411
 20
-15.949
 30
0.0
 70
    32
  0
VERTEX
  5
1B61
  8
241
 10
169.40799999999999
 20
-15.9549
 30
0.0
 70
    32
  0
VERTEX
  5
1B62
  8
241
 10
169.405
 20
-15.960699999999999
 30
0.0
 70
    32
  0
VERTEX
  5
1B63
  8
241
 10
169.40199999999999
 20
-15.9665
 30
0.0
 70
    32
  0
VERTEX
  5
1B64
  8
241
 10
169.40000000000001
 20
-15.9724
 30
0.0
 70
    32
  0
VERTEX
  5
1B65
  8
241
 10
169.39699999999999
 20
-15.978300000000001
 30
0.0
 70
    32
  0
VERTEX
  5
1B66
  8
241
 10
169.39400000000001
 20
-15.9841
 30
0.0
 70
    32
  0
VERTEX
  5
1B67
  8
241
 10
169.39099999999999
 20
-15.99
 30
0.0
 70
    32
  0
VERTEX
  5
1B68
  8
241
 10
169.38900000000001
 20
-15.995900000000001
 30
0.0
 70
    32
  0
VERTEX
  5
1B69
  8
241
 10
169.386
 20
-16.0017
 30
0.0
 70
    32
  0
VERTEX
  5
1B6A
  8
241
 10
169.38399999999999
 20
-16.0076
 30
0.0
 70
    32
  0
VERTEX
  5
1B6B
  8
241
 10
169.381
 20
-16.013500000000001
 30
0.0
 70
    32
  0
VERTEX
  5
1B6C
  8
241
 10
169.37799999999999
 20
-16.019400000000001
 30
0.0
 70
    32
  0
VERTEX
  5
1B6D
  8
241
 10
169.37599999999989
 20
-16.025300000000001
 30
0.0
 70
    32
  0
VERTEX
  5
1B6E
  8
241
 10
169.37299999999999
 20
-16.031199999999998
 30
0.0
 70
    32
  0
VERTEX
  5
1B6F
  8
241
 10
169.37100000000001
 20
-16.037099999999999
 30
0.0
 70
    32
  0
VERTEX
  5
1B70
  8
241
 10
169.36799999999999
 20
-16.042999999999999
 30
0.0
 70
    32
  0
VERTEX
  5
1B71
  8
241
 10
169.36600000000001
 20
-16.0489
 30
0.0
 70
    32
  0
VERTEX
  5
1B72
  8
241
 10
169.364
 20
-16.0549
 30
0.0
 70
    32
  0
VERTEX
  5
1B73
  8
241
 10
169.36099999999999
 20
-16.0608
 30
0.0
 70
    32
  0
VERTEX
  5
1B74
  8
241
 10
169.35900000000001
 20
-16.066700000000001
 30
0.0
 70
    32
  0
VERTEX
  5
1B75
  8
241
 10
169.35599999999999
 20
-16.072700000000001
 30
0.0
 70
    32
  0
VERTEX
  5
1B76
  8
241
 10
169.35400000000001
 20
-16.078600000000002
 30
0.0
 70
    32
  0
VERTEX
  5
1B77
  8
241
 10
169.352
 20
-16.084499999999998
 30
0.0
 70
    32
  0
VERTEX
  5
1B78
  8
241
 10
169.34999999999999
 20
-16.090499999999999
 30
0.0
 70
    32
  0
VERTEX
  5
1B79
  8
241
 10
169.34700000000001
 20
-16.096399999999999
 30
0.0
 70
    32
  0
VERTEX
  5
1B7A
  8
241
 10
169.345
 20
-16.102399999999999
 30
0.0
 70
    32
  0
VERTEX
  5
1B7B
  8
241
 10
169.34299999999999
 20
-16.1083
 30
0.0
 70
    32
  0
VERTEX
  5
1B7C
  8
241
 10
169.34100000000001
 20
-16.1143
 30
0.0
 70
    32
  0
VERTEX
  5
1B7D
  8
241
 10
169.339
 20
-16.1203
 30
0.0
 70
    32
  0
VERTEX
  5
1B7E
  8
241
 10
169.33600000000001
 20
-16.126200000000001
 30
0.0
 70
    32
  0
VERTEX
  5
1B7F
  8
241
 10
169.334
 20
-16.132200000000001
 30
0.0
 70
    32
  0
VERTEX
  5
1B80
  8
241
 10
169.33199999999999
 20
-16.138200000000001
 30
0.0
 70
    32
  0
VERTEX
  5
1B81
  8
241
 10
169.33000000000001
 20
-16.144200000000001
 30
0.0
 70
    32
  0
VERTEX
  5
1B82
  8
241
 10
169.328
 20
-16.150200000000002
 30
0.0
 70
    32
  0
VERTEX
  5
1B83
  8
241
 10
169.32599999999999
 20
-16.156099999999999
 30
0.0
 70
    32
  0
VERTEX
  5
1B84
  8
241
 10
169.32400000000001
 20
-16.162099999999999
 30
0.0
 70
    32
  0
VERTEX
  5
1B85
  8
241
 10
169.322
 20
-16.168099999999999
 30
0.0
 70
    32
  0
VERTEX
  5
1B86
  8
241
 10
169.31999999999999
 20
-16.174099999999999
 30
0.0
 70
    32
  0
VERTEX
  5
1B87
  8
241
 10
169.31899999999999
 20
-16.180099999999999
 30
0.0
 70
    32
  0
VERTEX
  5
1B88
  8
241
 10
169.31700000000001
 20
-16.1861
 30
0.0
 70
    32
  0
VERTEX
  5
1B89
  8
241
 10
169.315
 20
-16.1921
 30
0.0
 70
    32
  0
VERTEX
  5
1B8A
  8
241
 10
169.31299999999999
 20
-16.1981
 30
0.0
 70
    32
  0
VERTEX
  5
1B8B
  8
241
 10
169.31100000000001
 20
-16.2041
 30
0.0
 70
    32
  0
VERTEX
  5
1B8C
  8
241
 10
169.309
 20
-16.210100000000001
 30
0.0
 70
    32
  0
VERTEX
  5
1B8D
  8
241
 10
169.30799999999999
 20
-16.216200000000001
 30
0.0
 70
    32
  0
VERTEX
  5
1B8E
  8
241
 10
169.30600000000001
 20
-16.222200000000001
 30
0.0
 70
    32
  0
VERTEX
  5
1B8F
  8
241
 10
169.304
 20
-16.228200000000001
 30
0.0
 70
    32
  0
VERTEX
  5
1B90
  8
241
 10
169.303
 20
-16.234200000000001
 30
0.0
 70
    32
  0
VERTEX
  5
1B91
  8
241
 10
169.30099999999999
 20
-16.240200000000002
 30
0.0
 70
    32
  0
VERTEX
  5
1B92
  8
241
 10
169.29900000000001
 20
-16.246300000000002
 30
0.0
 70
    32
  0
VERTEX
  5
1B93
  8
241
 10
169.298
 20
-16.252300000000002
 30
0.0
 70
    32
  0
VERTEX
  5
1B94
  8
241
 10
169.29599999999999
 20
-16.258299999999998
 30
0.0
 70
    32
  0
VERTEX
  5
1B95
  8
241
 10
169.29499999999999
 20
-16.264299999999999
 30
0.0
 70
    32
  0
VERTEX
  5
1B96
  8
241
 10
169.29300000000001
 20
-16.270299999999999
 30
0.0
 70
    32
  0
VERTEX
  5
1B97
  8
241
 10
169.292
 20
-16.276299999999999
 30
0.0
 70
    32
  0
VERTEX
  5
1B98
  8
241
 10
169.28999999999999
 20
-16.282299999999999
 30
0.0
 70
    32
  0
VERTEX
  5
1B99
  8
241
 10
169.28899999999999
 20
-16.288399999999999
 30
0.0
 70
    32
  0
VERTEX
  5
1B9A
  8
241
 10
169.28700000000001
 20
-16.2944
 30
0.0
 70
    32
  0
VERTEX
  5
1B9B
  8
241
 10
169.286
 20
-16.3004
 30
0.0
 70
    32
  0
VERTEX
  5
1B9C
  8
241
 10
169.285
 20
-16.3064
 30
0.0
 70
    32
  0
VERTEX
  5
1B9D
  8
241
 10
169.28299999999999
 20
-16.3124
 30
0.0
 70
    32
  0
VERTEX
  5
1B9E
  8
241
 10
169.28200000000001
 20
-16.3184
 30
0.0
 70
    32
  0
VERTEX
  5
1B9F
  8
241
 10
169.28099999999989
 20
-16.324400000000001
 30
0.0
 70
    32
  0
VERTEX
  5
1BA0
  8
241
 10
169.28
 20
-16.330400000000001
 30
0.0
 70
    32
  0
VERTEX
  5
1BA1
  8
241
 10
169.27799999999999
 20
-16.336400000000001
 30
0.0
 70
    32
  0
VERTEX
  5
1BA2
  8
241
 10
169.27699999999999
 20
-16.342400000000001
 30
0.0
 70
    32
  0
VERTEX
  5
1BA3
  8
241
 10
169.2759999999999
 20
-16.348400000000002
 30
0.0
 70
    32
  0
VERTEX
  5
1BA4
  8
241
 10
169.27500000000001
 20
-16.354399999999998
 30
0.0
 70
    32
  0
VERTEX
  5
1BA5
  8
241
 10
169.274
 20
-16.360399999999998
 30
0.0
 70
    32
  0
VERTEX
  5
1BA6
  8
241
 10
169.273
 20
-16.366399999999999
 30
0.0
 70
    32
  0
VERTEX
  5
1BA7
  8
241
 10
169.27099999999999
 20
-16.372399999999999
 30
0.0
 70
    32
  0
VERTEX
  5
1BA8
  8
241
 10
169.27000000000001
 20
-16.378399999999999
 30
0.0
 70
    32
  0
VERTEX
  5
1BA9
  8
241
 10
169.26900000000001
 20
-16.384399999999999
 30
0.0
 70
    32
  0
VERTEX
  5
1BAA
  8
241
 10
169.268
 20
-16.3904
 30
0.0
 70
    32
  0
VERTEX
  5
1BAB
  8
241
 10
169.267
 20
-16.3964
 30
0.0
 70
    32
  0
VERTEX
  5
1BAC
  8
241
 10
169.267
 20
-16.4024
 30
0.0
 70
    32
  0
VERTEX
  5
1BAD
  8
241
 10
169.26599999999999
 20
-16.4084
 30
0.0
 70
    32
  0
VERTEX
  5
1BAE
  8
241
 10
169.26499999999999
 20
-16.414400000000001
 30
0.0
 70
    32
  0
VERTEX
  5
1BAF
  8
241
 10
169.26400000000001
 20
-16.420400000000001
 30
0.0
 70
    32
  0
VERTEX
  5
1BB0
  8
241
 10
169.26300000000001
 20
-16.426400000000001
 30
0.0
 70
    32
  0
VERTEX
  5
1BB1
  8
241
 10
169.262
 20
-16.432400000000001
 30
0.0
 70
    32
  0
VERTEX
  5
1BB2
  8
241
 10
169.261
 20
-16.438300000000002
 30
0.0
 70
    32
  0
VERTEX
  5
1BB3
  8
241
 10
169.261
 20
-16.444299999999998
 30
0.0
 70
    32
  0
VERTEX
  5
1BB4
  8
241
 10
169.25999999999999
 20
-16.450299999999999
 30
0.0
 70
    32
  0
VERTEX
  5
1BB5
  8
241
 10
169.25899999999999
 20
-16.456299999999999
 30
0.0
 70
    32
  0
VERTEX
  5
1BB6
  8
241
 10
169.25899999999999
 20
-16.462299999999999
 30
0.0
 70
    32
  0
VERTEX
  5
1BB7
  8
241
 10
169.2579999999999
 20
-16.468299999999999
 30
0.0
 70
    32
  0
VERTEX
  5
1BB8
  8
241
 10
169.25700000000001
 20
-16.4742
 30
0.0
 70
    32
  0
VERTEX
  5
1BB9
  8
241
 10
169.25700000000001
 20
-16.4802
 30
0.0
 70
    32
  0
VERTEX
  5
1BBA
  8
241
 10
169.256
 20
-16.4862
 30
0.0
 70
    32
  0
VERTEX
  5
1BBB
  8
241
 10
169.256
 20
-16.4922
 30
0.0
 70
    32
  0
VERTEX
  5
1BBC
  8
241
 10
169.255
 20
-16.498100000000001
 30
0.0
 70
    32
  0
VERTEX
  5
1BBD
  8
241
 10
169.255
 20
-16.504100000000001
 30
0.0
 70
    32
  0
VERTEX
  5
1BBE
  8
241
 10
169.25399999999999
 20
-16.510100000000001
 30
0.0
 70
    32
  0
VERTEX
  5
1BBF
  8
241
 10
169.25399999999999
 20
-16.516100000000002
 30
0.0
 70
    32
  0
VERTEX
  5
1BC0
  8
241
 10
169.25299999999999
 20
-16.521999999999998
 30
0.0
 70
    32
  0
VERTEX
  5
1BC1
  8
241
 10
169.25299999999999
 20
-16.527999999999999
 30
0.0
 70
    32
  0
VERTEX
  5
1BC2
  8
241
 10
169.25200000000001
 20
-16.533999999999999
 30
0.0
 70
    32
  0
VERTEX
  5
1BC3
  8
241
 10
169.25200000000001
 20
-16.539899999999999
 30
0.0
 70
    32
  0
VERTEX
  5
1BC4
  8
241
 10
169.25200000000001
 20
-16.5459
 30
0.0
 70
    32
  0
VERTEX
  5
1BC5
  8
241
 10
169.25200000000001
 20
-16.5519
 30
0.0
 70
    32
  0
VERTEX
  5
1BC6
  8
241
 10
169.25099999999989
 20
-16.5578
 30
0.0
 70
    32
  0
VERTEX
  5
1BC7
  8
241
 10
169.25099999999989
 20
-16.563800000000001
 30
0.0
 70
    32
  0
VERTEX
  5
1BC8
  8
241
 10
169.25099999999989
 20
-16.569800000000001
 30
0.0
 70
    32
  0
VERTEX
  5
1BC9
  8
241
 10
169.25099999999989
 20
-16.575700000000001
 30
0.0
 70
    32
  0
VERTEX
  5
1BCA
  8
241
 10
169.25
 20
-16.581700000000001
 30
0.0
 70
    32
  0
VERTEX
  5
1BCB
  8
241
 10
169.25
 20
-16.587599999999998
 30
0.0
 70
    32
  0
VERTEX
  5
1BCC
  8
241
 10
169.25
 20
-16.593599999999999
 30
0.0
 70
    32
  0
VERTEX
  5
1BCD
  8
241
 10
169.25
 20
-16.599599999999999
 30
0.0
 70
    32
  0
VERTEX
  5
1BCE
  8
241
 10
169.25
 20
-16.605499999999999
 30
0.0
 70
    32
  0
VERTEX
  5
1BCF
  8
241
 10
169.25
 20
-16.611499999999999
 30
0.0
 70
    32
  0
VERTEX
  5
1BD0
  8
241
 10
169.25
 20
-16.6174
 30
0.0
 70
    32
  0
VERTEX
  5
1BD1
  8
241
 10
169.25
 20
-16.6234
 30
0.0
 70
    32
  0
VERTEX
  5
1BD2
  8
241
 10
169.25
 20
-16.629300000000001
 30
0.0
 70
    32
  0
VERTEX
  5
1BD3
  8
241
 10
169.25
 20
-16.635300000000001
 30
0.0
 70
    32
  0
VERTEX
  5
1BD4
  8
241
 10
169.25
 20
-16.641200000000001
 30
0.0
 70
    32
  0
VERTEX
  5
1BD5
  8
241
 10
169.25
 20
-16.647200000000002
 30
0.0
 70
    32
  0
VERTEX
  5
1BD6
  8
241
 10
169.25
 20
-16.653199999999998
 30
0.0
 70
    32
  0
VERTEX
  5
1BD7
  8
241
 10
169.25099999999989
 20
-16.659099999999999
 30
0.0
 70
    32
  0
VERTEX
  5
1BD8
  8
241
 10
169.25099999999989
 20
-16.665099999999999
 30
0.0
 70
    32
  0
VERTEX
  5
1BD9
  8
241
 10
169.25099999999989
 20
-16.670999999999999
 30
0.0
 70
    32
  0
VERTEX
  5
1BDA
  8
241
 10
169.25099999999989
 20
-16.677
 30
0.0
 70
    32
  0
VERTEX
  5
1BDB
  8
241
 10
169.25200000000001
 20
-16.6829
 30
0.0
 70
    32
  0
VERTEX
  5
1BDC
  8
241
 10
169.25200000000001
 20
-16.6889
 30
0.0
 70
    32
  0
VERTEX
  5
1BDD
  8
241
 10
169.25200000000001
 20
-16.694800000000001
 30
0.0
 70
    32
  0
VERTEX
  5
1BDE
  8
241
 10
169.25299999999999
 20
-16.700800000000001
 30
0.0
 70
    32
  0
VERTEX
  5
1BDF
  8
241
 10
169.25299999999999
 20
-16.706700000000001
 30
0.0
 70
    32
  0
VERTEX
  5
1BE0
  8
241
 10
169.25299999999999
 20
-16.712700000000002
 30
0.0
 70
    32
  0
VERTEX
  5
1BE1
  8
241
 10
169.25399999999999
 20
-16.718599999999999
 30
0.0
 70
    32
  0
VERTEX
  5
1BE2
  8
241
 10
169.25399999999999
 20
-16.724599999999999
 30
0.0
 70
    32
  0
VERTEX
  5
1BE3
  8
241
 10
169.255
 20
-16.730499999999999
 30
0.0
 70
    32
  0
VERTEX
  5
1BE4
  8
241
 10
169.255
 20
-16.736499999999999
 30
0.0
 70
    32
  0
VERTEX
  5
1BE5
  8
241
 10
169.256
 20
-16.7424
 30
0.0
 70
    32
  0
VERTEX
  5
1BE6
  8
241
 10
169.256
 20
-16.7483
 30
0.0
 70
    32
  0
VERTEX
  5
1BE7
  8
241
 10
169.25700000000001
 20
-16.754300000000001
 30
0.0
 70
    32
  0
VERTEX
  5
1BE8
  8
241
 10
169.2579999999999
 20
-16.760200000000001
 30
0.0
 70
    32
  0
VERTEX
  5
1BE9
  8
241
 10
169.2579999999999
 20
-16.766100000000002
 30
0.0
 70
    32
  0
VERTEX
  5
1BEA
  8
241
 10
169.25899999999999
 20
-16.772099999999998
 30
0.0
 70
    32
  0
VERTEX
  5
1BEB
  8
241
 10
169.25999999999999
 20
-16.777999999999999
 30
0.0
 70
    32
  0
VERTEX
  5
1BEC
  8
241
 10
169.25999999999999
 20
-16.783899999999999
 30
0.0
 70
    32
  0
VERTEX
  5
1BED
  8
241
 10
169.261
 20
-16.7898
 30
0.0
 70
    32
  0
VERTEX
  5
1BEE
  8
241
 10
169.262
 20
-16.7957
 30
0.0
 70
    32
  0
VERTEX
  5
1BEF
  8
241
 10
169.26300000000001
 20
-16.801600000000001
 30
0.0
 70
    32
  0
VERTEX
  5
1BF0
  8
241
 10
169.26300000000001
 20
-16.807500000000001
 30
0.0
 70
    32
  0
VERTEX
  5
1BF1
  8
241
 10
169.26400000000001
 20
-16.813400000000001
 30
0.0
 70
    32
  0
VERTEX
  5
1BF2
  8
241
 10
169.26499999999999
 20
-16.819299999999998
 30
0.0
 70
    32
  0
VERTEX
  5
1BF3
  8
241
 10
169.26599999999999
 20
-16.825199999999999
 30
0.0
 70
    32
  0
VERTEX
  5
1BF4
  8
241
 10
169.267
 20
-16.831099999999999
 30
0.0
 70
    32
  0
VERTEX
  5
1BF5
  8
241
 10
169.268
 20
-16.837
 30
0.0
 70
    32
  0
VERTEX
  5
1BF6
  8
241
 10
169.26900000000001
 20
-16.8429
 30
0.0
 70
    32
  0
VERTEX
  5
1BF7
  8
241
 10
169.27000000000001
 20
-16.848800000000001
 30
0.0
 70
    32
  0
VERTEX
  5
1BF8
  8
241
 10
169.27099999999999
 20
-16.854700000000001
 30
0.0
 70
    32
  0
VERTEX
  5
1BF9
  8
241
 10
169.27199999999999
 20
-16.860499999999998
 30
0.0
 70
    32
  0
VERTEX
  5
1BFA
  8
241
 10
169.273
 20
-16.866399999999999
 30
0.0
 70
    32
  0
VERTEX
  5
1BFB
  8
241
 10
169.274
 20
-16.872199999999999
 30
0.0
 70
    32
  0
VERTEX
  5
1BFC
  8
241
 10
169.27500000000001
 20
-16.8781
 30
0.0
 70
    32
  0
VERTEX
  5
1BFD
  8
241
 10
169.27699999999999
 20
-16.883900000000001
 30
0.0
 70
    32
  0
VERTEX
  5
1BFE
  8
241
 10
169.27799999999999
 20
-16.889800000000001
 30
0.0
 70
    32
  0
VERTEX
  5
1BFF
  8
241
 10
169.279
 20
-16.895600000000002
 30
0.0
 70
    32
  0
VERTEX
  5
1C00
  8
241
 10
169.28
 20
-16.901499999999999
 30
0.0
 70
    32
  0
VERTEX
  5
1C01
  8
241
 10
169.28099999999989
 20
-16.907299999999999
 30
0.0
 70
    32
  0
VERTEX
  5
1C02
  8
241
 10
169.28299999999999
 20
-16.9131
 30
0.0
 70
    32
  0
VERTEX
  5
1C03
  8
241
 10
169.28399999999999
 20
-16.918900000000001
 30
0.0
 70
    32
  0
VERTEX
  5
1C04
  8
241
 10
169.285
 20
-16.924700000000001
 30
0.0
 70
    32
  0
VERTEX
  5
1C05
  8
241
 10
169.28700000000001
 20
-16.930499999999999
 30
0.0
 70
    32
  0
VERTEX
  5
1C06
  8
241
 10
169.28800000000001
 20
-16.936299999999999
 30
0.0
 70
    32
  0
VERTEX
  5
1C07
  8
241
 10
169.28899999999999
 20
-16.9421
 30
0.0
 70
    32
  0
VERTEX
  5
1C08
  8
241
 10
169.291
 20
-16.947900000000001
 30
0.0
 70
    32
  0
VERTEX
  5
1C09
  8
241
 10
169.292
 20
-16.953600000000002
 30
0.0
 70
    32
  0
VERTEX
  5
1C0A
  8
241
 10
169.29400000000001
 20
-16.959399999999999
 30
0.0
 70
    32
  0
VERTEX
  5
1C0B
  8
241
 10
169.29499999999999
 20
-16.965199999999999
 30
0.0
 70
    32
  0
VERTEX
  5
1C0C
  8
241
 10
169.297
 20
-16.9709
 30
0.0
 70
    32
  0
VERTEX
  5
1C0D
  8
241
 10
169.29900000000001
 20
-16.976700000000001
 30
0.0
 70
    32
  0
VERTEX
  5
1C0E
  8
241
 10
169.30000000000001
 20
-16.982399999999998
 30
0.0
 70
    32
  0
VERTEX
  5
1C0F
  8
241
 10
169.30199999999999
 20
-16.988099999999999
 30
0.0
 70
    32
  0
VERTEX
  5
1C10
  8
241
 10
169.303
 20
-16.9938
 30
0.0
 70
    32
  0
VERTEX
  5
1C11
  8
241
 10
169.30500000000001
 20
-16.999500000000001
 30
0.0
 70
    32
  0
VERTEX
  5
1C12
  8
241
 10
169.30699999999999
 20
-17.005199999999999
 30
0.0
 70
    32
  0
VERTEX
  5
1C13
  8
241
 10
169.30799999999999
 20
-17.010899999999999
 30
0.0
 70
    32
  0
VERTEX
  5
1C14
  8
241
 10
169.31
 20
-17.0166
 30
0.0
 70
    32
  0
VERTEX
  5
1C15
  8
241
 10
169.31200000000001
 20
-17.022300000000001
 30
0.0
 70
    32
  0
VERTEX
  5
1C16
  8
241
 10
169.31399999999999
 20
-17.027999999999999
 30
0.0
 70
    32
  0
VERTEX
  5
1C17
  8
241
 10
169.31599999999989
 20
-17.0337
 30
0.0
 70
    32
  0
VERTEX
  5
1C18
  8
241
 10
169.31700000000001
 20
-17.039300000000001
 30
0.0
 70
    32
  0
VERTEX
  5
1C19
  8
241
 10
169.31899999999999
 20
-17.045000000000002
 30
0.0
 70
    32
  0
VERTEX
  5
1C1A
  8
241
 10
169.321
 20
-17.050599999999999
 30
0.0
 70
    32
  0
VERTEX
  5
1C1B
  8
241
 10
169.32299999999989
 20
-17.0563
 30
0.0
 70
    32
  0
VERTEX
  5
1C1C
  8
241
 10
169.32499999999999
 20
-17.061900000000001
 30
0.0
 70
    32
  0
VERTEX
  5
1C1D
  8
241
 10
169.327
 20
-17.067499999999999
 30
0.0
 70
    32
  0
VERTEX
  5
1C1E
  8
241
 10
169.32900000000001
 20
-17.0731
 30
0.0
 70
    32
  0
VERTEX
  5
1C1F
  8
241
 10
169.33099999999999
 20
-17.078800000000001
 30
0.0
 70
    32
  0
VERTEX
  5
1C20
  8
241
 10
169.333
 20
-17.084399999999999
 30
0.0
 70
    32
  0
VERTEX
  5
1C21
  8
241
 10
169.33500000000001
 20
-17.09
 30
0.0
 70
    32
  0
VERTEX
  5
1C22
  8
241
 10
169.33699999999999
 20
-17.095600000000001
 30
0.0
 70
    32
  0
VERTEX
  5
1C23
  8
241
 10
169.339
 20
-17.101099999999999
 30
0.0
 70
    32
  0
VERTEX
  5
1C24
  8
241
 10
169.34100000000001
 20
-17.1067
 30
0.0
 70
    32
  0
VERTEX
  5
1C25
  8
241
 10
169.34399999999999
 20
-17.112300000000001
 30
0.0
 70
    32
  0
VERTEX
  5
1C26
  8
241
 10
169.34599999999989
 20
-17.117899999999999
 30
0.0
 70
    32
  0
VERTEX
  5
1C27
  8
241
 10
169.34800000000001
 20
-17.1234
 30
0.0
 70
    32
  0
VERTEX
  5
1C28
  8
241
 10
169.34999999999999
 20
-17.129000000000001
 30
0.0
 70
    32
  0
VERTEX
  5
1C29
  8
241
 10
169.352
 20
-17.134499999999999
 30
0.0
 70
    32
  0
VERTEX
  5
1C2A
  8
241
 10
169.35499999999999
 20
-17.140000000000001
 30
0.0
 70
    32
  0
VERTEX
  5
1C2B
  8
241
 10
169.357
 20
-17.145600000000002
 30
0.0
 70
    32
  0
VERTEX
  5
1C2C
  8
241
 10
169.35900000000001
 20
-17.1511
 30
0.0
 70
    32
  0
VERTEX
  5
1C2D
  8
241
 10
169.36199999999999
 20
-17.156600000000001
 30
0.0
 70
    32
  0
VERTEX
  5
1C2E
  8
241
 10
169.364
 20
-17.162099999999999
 30
0.0
 70
    32
  0
VERTEX
  5
1C2F
  8
241
 10
169.36600000000001
 20
-17.1676
 30
0.0
 70
    32
  0
VERTEX
  5
1C30
  8
241
 10
169.369
 20
-17.173100000000002
 30
0.0
 70
    32
  0
VERTEX
  5
1C31
  8
241
 10
169.37100000000001
 20
-17.178599999999999
 30
0.0
 70
    32
  0
VERTEX
  5
1C32
  8
241
 10
169.374
 20
-17.184100000000001
 30
0.0
 70
    32
  0
VERTEX
  5
1C33
  8
241
 10
169.37599999999989
 20
-17.189599999999999
 30
0.0
 70
    32
  0
VERTEX
  5
1C34
  8
241
 10
169.37899999999999
 20
-17.195
 30
0.0
 70
    32
  0
VERTEX
  5
1C35
  8
241
 10
169.381
 20
-17.200500000000002
 30
0.0
 70
    32
  0
VERTEX
  5
1C36
  8
241
 10
169.38399999999999
 20
-17.2059
 30
0.0
 70
    32
  0
VERTEX
  5
1C37
  8
241
 10
169.387
 20
-17.211400000000001
 30
0.0
 70
    32
  0
VERTEX
  5
1C38
  8
241
 10
169.38900000000001
 20
-17.216799999999999
 30
0.0
 70
    32
  0
VERTEX
  5
1C39
  8
241
 10
169.392
 20
-17.222300000000001
 30
0.0
 70
    32
  0
VERTEX
  5
1C3A
  8
241
 10
169.39500000000001
 20
-17.227699999999999
 30
0.0
 70
    32
  0
VERTEX
  5
1C3B
  8
241
 10
169.39699999999999
 20
-17.2331
 30
0.0
 70
    32
  0
VERTEX
  5
1C3C
  8
241
 10
169.40000000000001
 20
-17.238499999999998
 30
0.0
 70
    32
  0
VERTEX
  5
1C3D
  8
241
 10
169.40299999999999
 20
-17.2439
 30
0.0
 70
    32
  0
VERTEX
  5
1C3E
  8
241
 10
169.40600000000001
 20
-17.249300000000002
 30
0.0
 70
    32
  0
VERTEX
  5
1C3F
  8
241
 10
169.40799999999999
 20
-17.2547
 30
0.0
 70
    32
  0
VERTEX
  5
1C40
  8
241
 10
169.411
 20
-17.260100000000001
 30
0.0
 70
    32
  0
VERTEX
  5
1C41
  8
241
 10
169.41399999999999
 20
-17.265499999999999
 30
0.0
 70
    32
  0
VERTEX
  5
1C42
  8
241
 10
169.417
 20
-17.270900000000001
 30
0.0
 70
    32
  0
VERTEX
  5
1C43
  8
241
 10
169.41999999999999
 20
-17.276199999999999
 30
0.0
 70
    32
  0
VERTEX
  5
1C44
  8
241
 10
169.423
 20
-17.281600000000001
 30
0.0
 70
    32
  0
VERTEX
  5
1C45
  8
241
 10
169.42599999999999
 20
-17.286899999999999
 30
0.0
 70
    32
  0
VERTEX
  5
1C46
  8
241
 10
169.429
 20
-17.292300000000001
 30
0.0
 70
    32
  0
VERTEX
  5
1C47
  8
241
 10
169.43199999999999
 20
-17.297599999999999
 30
0.0
 70
    32
  0
VERTEX
  5
1C48
  8
241
 10
169.435
 20
-17.302900000000001
 30
0.0
 70
    32
  0
VERTEX
  5
1C49
  8
241
 10
169.43799999999999
 20
-17.308299999999999
 30
0.0
 70
    32
  0
VERTEX
  5
1C4A
  8
241
 10
169.44099999999989
 20
-17.313600000000001
 30
0.0
 70
    32
  0
VERTEX
  5
1C4B
  8
241
 10
169.44399999999999
 20
-17.318899999999999
 30
0.0
 70
    32
  0
VERTEX
  5
1C4C
  8
241
 10
169.447
 20
-17.324200000000001
 30
0.0
 70
    32
  0
VERTEX
  5
1C4D
  8
241
 10
169.44999999999999
 20
-17.329499999999999
 30
0.0
 70
    32
  0
VERTEX
  5
1C4E
  8
241
 10
169.453
 20
-17.334800000000001
 30
0.0
 70
    32
  0
VERTEX
  5
1C4F
  8
241
 10
169.45699999999999
 20
-17.3401
 30
0.0
 70
    32
  0
VERTEX
  5
1C50
  8
241
 10
169.46000000000001
 20
-17.345400000000001
 30
0.0
 70
    32
  0
VERTEX
  5
1C51
  8
241
 10
169.46299999999999
 20
-17.3506
 30
0.0
 70
    32
  0
VERTEX
  5
1C52
  8
241
 10
169.46600000000001
 20
-17.355899999999998
 30
0.0
 70
    32
  0
VERTEX
  5
1C53
  8
241
 10
169.47
 20
-17.3611
 30
0.0
 70
    32
  0
VERTEX
  5
1C54
  8
241
 10
169.47300000000001
 20
-17.366399999999999
 30
0.0
 70
    32
  0
VERTEX
  5
1C55
  8
241
 10
169.476
 20
-17.371600000000001
 30
0.0
 70
    32
  0
VERTEX
  5
1C56
  8
241
 10
169.47999999999999
 20
-17.376899999999999
 30
0.0
 70
    32
  0
VERTEX
  5
1C57
  8
241
 10
169.483
 20
-17.382100000000001
 30
0.0
 70
    32
  0
VERTEX
  5
1C58
  8
241
 10
169.48699999999999
 20
-17.3873
 30
0.0
 70
    32
  0
VERTEX
  5
1C59
  8
241
 10
169.49000000000001
 20
-17.392499999999998
 30
0.0
 70
    32
  0
VERTEX
  5
1C5A
  8
241
 10
169.494
 20
-17.3977
 30
0.0
 70
    32
  0
VERTEX
  5
1C5B
  8
241
 10
169.49700000000001
 20
-17.402899999999999
 30
0.0
 70
    32
  0
VERTEX
  5
1C5C
  8
241
 10
169.501
 20
-17.408100000000001
 30
0.0
 70
    32
  0
VERTEX
  5
1C5D
  8
241
 10
169.50399999999999
 20
-17.4132
 30
0.0
 70
    32
  0
VERTEX
  5
1C5E
  8
241
 10
169.50800000000001
 20
-17.418399999999998
 30
0.0
 70
    32
  0
VERTEX
  5
1C5F
  8
241
 10
169.511
 20
-17.4236
 30
0.0
 70
    32
  0
VERTEX
  5
1C60
  8
241
 10
169.51499999999999
 20
-17.428699999999999
 30
0.0
 70
    32
  0
VERTEX
  5
1C61
  8
241
 10
169.518
 20
-17.433800000000002
 30
0.0
 70
    32
  0
VERTEX
  5
1C62
  8
241
 10
169.52199999999999
 20
-17.439
 30
0.0
 70
    32
  0
VERTEX
  5
1C63
  8
241
 10
169.52600000000001
 20
-17.444099999999999
 30
0.0
 70
    32
  0
VERTEX
  5
1C64
  8
241
 10
169.53
 20
-17.449200000000001
 30
0.0
 70
    32
  0
VERTEX
  5
1C65
  8
241
 10
169.53299999999999
 20
-17.4543
 30
0.0
 70
    32
  0
VERTEX
  5
1C66
  8
241
 10
169.53700000000001
 20
-17.459399999999999
 30
0.0
 70
    32
  0
VERTEX
  5
1C67
  8
241
 10
169.541
 20
-17.464500000000001
 30
0.0
 70
    32
  0
VERTEX
  5
1C68
  8
241
 10
169.54499999999999
 20
-17.4695
 30
0.0
 70
    32
  0
VERTEX
  5
1C69
  8
241
 10
169.548
 20
-17.474599999999999
 30
0.0
 70
    32
  0
VERTEX
  5
1C6A
  8
241
 10
169.55199999999999
 20
-17.479700000000001
 30
0.0
 70
    32
  0
VERTEX
  5
1C6B
  8
241
 10
169.55600000000001
 20
-17.4847
 30
0.0
 70
    32
  0
VERTEX
  5
1C6C
  8
241
 10
169.56
 20
-17.489699999999999
 30
0.0
 70
    32
  0
VERTEX
  5
1C6D
  8
241
 10
169.56399999999999
 20
-17.494800000000001
 30
0.0
 70
    32
  0
VERTEX
  5
1C6E
  8
241
 10
169.56800000000001
 20
-17.4998
 30
0.0
 70
    32
  0
VERTEX
  5
1C6F
  8
241
 10
169.572
 20
-17.504799999999999
 30
0.0
 70
    32
  0
VERTEX
  5
1C70
  8
241
 10
169.57599999999999
 20
-17.509799999999998
 30
0.0
 70
    32
  0
VERTEX
  5
1C71
  8
241
 10
169.58000000000001
 20
-17.514700000000001
 30
0.0
 70
    32
  0
VERTEX
  5
1C72
  8
241
 10
169.584
 20
-17.5197
 30
0.0
 70
    32
  0
VERTEX
  5
1C73
  8
241
 10
169.58799999999999
 20
-17.524699999999999
 30
0.0
 70
    32
  0
VERTEX
  5
1C74
  8
241
 10
169.59200000000001
 20
-17.529599999999999
 30
0.0
 70
    32
  0
VERTEX
  5
1C75
  8
241
 10
169.59599999999989
 20
-17.534600000000001
 30
0.0
 70
    32
  0
VERTEX
  5
1C76
  8
241
 10
169.59999999999999
 20
-17.5395
 30
0.0
 70
    32
  0
VERTEX
  5
1C77
  8
241
 10
169.60400000000001
 20
-17.5444
 30
0.0
 70
    32
  0
VERTEX
  5
1C78
  8
241
 10
169.60900000000001
 20
-17.549299999999999
 30
0.0
 70
    32
  0
VERTEX
  5
1C79
  8
241
 10
169.613
 20
-17.554200000000002
 30
0.0
 70
    32
  0
VERTEX
  5
1C7A
  8
241
 10
169.61699999999999
 20
-17.559100000000001
 30
0.0
 70
    32
  0
VERTEX
  5
1C7B
  8
241
 10
169.6209999999999
 20
-17.564
 30
0.0
 70
    32
  0
VERTEX
  5
1C7C
  8
241
 10
169.625
 20
-17.5688
 30
0.0
 70
    32
  0
VERTEX
  5
1C7D
  8
241
 10
169.63
 20
-17.573699999999999
 30
0.0
 70
    32
  0
VERTEX
  5
1C7E
  8
241
 10
169.63399999999999
 20
-17.578499999999998
 30
0.0
 70
    32
  0
VERTEX
  5
1C7F
  8
241
 10
169.63800000000001
 20
-17.583400000000001
 30
0.0
 70
    32
  0
VERTEX
  5
1C80
  8
241
 10
169.643
 20
-17.588200000000001
 30
0.0
 70
    32
  0
VERTEX
  5
1C81
  8
241
 10
169.64699999999999
 20
-17.593
 30
0.0
 70
    32
  0
VERTEX
  5
1C82
  8
241
 10
169.65100000000001
 20
-17.597799999999999
 30
0.0
 70
    32
  0
VERTEX
  5
1C83
  8
241
 10
169.65600000000001
 20
-17.602599999999999
 30
0.0
 70
    32
  0
VERTEX
  5
1C84
  8
241
 10
169.66
 20
-17.607299999999999
 30
0.0
 70
    32
  0
VERTEX
  5
1C85
  8
241
 10
169.66499999999999
 20
-17.612100000000002
 30
0.0
 70
    32
  0
VERTEX
  5
1C86
  8
241
 10
169.66900000000001
 20
-17.616800000000001
 30
0.0
 70
    32
  0
VERTEX
  5
1C87
  8
241
 10
169.67400000000001
 20
-17.621600000000001
 30
0.0
 70
    32
  0
VERTEX
  5
1C88
  8
241
 10
169.678
 20
-17.626300000000001
 30
0.0
 70
    32
  0
VERTEX
  5
1C89
  8
241
 10
169.68299999999999
 20
-17.631
 30
0.0
 70
    32
  0
VERTEX
  5
1C8A
  8
241
 10
169.68700000000001
 20
-17.6357
 30
0.0
 70
    32
  0
VERTEX
  5
1C8B
  8
241
 10
169.69200000000001
 20
-17.6404
 30
0.0
 70
    32
  0
VERTEX
  5
1C8C
  8
241
 10
169.696
 20
-17.645
 30
0.0
 70
    32
  0
VERTEX
  5
1C8D
  8
241
 10
169.70099999999999
 20
-17.649699999999999
 30
0.0
 70
    32
  0
VERTEX
  5
1C8E
  8
241
 10
169.70599999999999
 20
-17.654299999999999
 30
0.0
 70
    32
  0
VERTEX
  5
1C8F
  8
241
 10
169.71000000000001
 20
-17.658999999999999
 30
0.0
 70
    32
  0
VERTEX
  5
1C90
  8
241
 10
169.715
 20
-17.663599999999999
 30
0.0
 70
    32
  0
VERTEX
  5
1C91
  8
241
 10
169.72
 20
-17.668199999999999
 30
0.0
 70
    32
  0
VERTEX
  5
1C92
  8
241
 10
169.72399999999999
 20
-17.672799999999999
 30
0.0
 70
    32
  0
VERTEX
  5
1C93
  8
241
 10
169.72900000000001
 20
-17.677399999999999
 30
0.0
 70
    32
  0
VERTEX
  5
1C94
  8
241
 10
169.73400000000001
 20
-17.681899999999999
 30
0.0
 70
    32
  0
VERTEX
  5
1C95
  8
241
 10
169.738
 20
-17.686499999999999
 30
0.0
 70
    32
  0
VERTEX
  5
1C96
  8
241
 10
169.74299999999999
 20
-17.691099999999999
 30
0.0
 70
    32
  0
VERTEX
  5
1C97
  8
241
 10
169.74799999999999
 20
-17.695599999999999
 30
0.0
 70
    32
  0
VERTEX
  5
1C98
  8
241
 10
169.75299999999999
 20
-17.700099999999999
 30
0.0
 70
    32
  0
VERTEX
  5
1C99
  8
241
 10
169.75800000000001
 20
-17.704699999999999
 30
0.0
 70
    32
  0
VERTEX
  5
1C9A
  8
241
 10
169.76300000000001
 20
-17.709199999999999
 30
0.0
 70
    32
  0
VERTEX
  5
1C9B
  8
241
 10
169.768
 20
-17.713699999999999
 30
0.0
 70
    32
  0
VERTEX
  5
1C9C
  8
241
 10
169.77199999999999
 20
-17.7181
 30
0.0
 70
    32
  0
VERTEX
  5
1C9D
  8
241
 10
169.77699999999999
 20
-17.7226
 30
0.0
 70
    32
  0
VERTEX
  5
1C9E
  8
241
 10
169.78200000000001
 20
-17.7271
 30
0.0
 70
    32
  0
VERTEX
  5
1C9F
  8
241
 10
169.78700000000001
 20
-17.7315
 30
0.0
 70
    32
  0
VERTEX
  5
1CA0
  8
241
 10
169.792
 20
-17.736000000000001
 30
0.0
 70
    32
  0
VERTEX
  5
1CA1
  8
241
 10
169.797
 20
-17.740400000000001
 30
0.0
 70
    32
  0
VERTEX
  5
1CA2
  8
241
 10
169.80199999999999
 20
-17.744800000000001
 30
0.0
 70
    32
  0
VERTEX
  5
1CA3
  8
241
 10
169.80699999999999
 20
-17.749199999999998
 30
0.0
 70
    32
  0
VERTEX
  5
1CA4
  8
241
 10
169.81200000000001
 20
-17.753599999999999
 30
0.0
 70
    32
  0
VERTEX
  5
1CA5
  8
241
 10
169.8179999999999
 20
-17.757999999999999
 30
0.0
 70
    32
  0
VERTEX
  5
1CA6
  8
241
 10
169.82300000000001
 20
-17.7624
 30
0.0
 70
    32
  0
VERTEX
  5
1CA7
  8
241
 10
169.828
 20
-17.7667
 30
0.0
 70
    32
  0
VERTEX
  5
1CA8
  8
241
 10
169.833
 20
-17.771100000000001
 30
0.0
 70
    32
  0
VERTEX
  5
1CA9
  8
241
 10
169.83799999999999
 20
-17.775400000000001
 30
0.0
 70
    32
  0
VERTEX
  5
1CAA
  8
241
 10
169.84299999999999
 20
-17.779800000000002
 30
0.0
 70
    32
  0
VERTEX
  5
1CAB
  8
241
 10
169.84899999999999
 20
-17.784099999999999
 30
0.0
 70
    32
  0
VERTEX
  5
1CAC
  8
241
 10
169.85400000000001
 20
-17.788399999999999
 30
0.0
 70
    32
  0
VERTEX
  5
1CAD
  8
241
 10
169.85900000000001
 20
-17.7927
 30
0.0
 70
    32
  0
VERTEX
  5
1CAE
  8
241
 10
169.864
 20
-17.797000000000001
 30
0.0
 70
    32
  0
VERTEX
  5
1CAF
  8
241
 10
169.87
 20
-17.801200000000001
 30
0.0
 70
    32
  0
VERTEX
  5
1CB0
  8
241
 10
169.875
 20
-17.805499999999999
 30
0.0
 70
    32
  0
VERTEX
  5
1CB1
  8
241
 10
169.88
 20
-17.809699999999999
 30
0.0
 70
    32
  0
VERTEX
  5
1CB2
  8
241
 10
169.886
 20
-17.814
 30
0.0
 70
    32
  0
VERTEX
  5
1CB3
  8
241
 10
169.89099999999999
 20
-17.818200000000001
 30
0.0
 70
    32
  0
VERTEX
  5
1CB4
  8
241
 10
169.89699999999999
 20
-17.822399999999998
 30
0.0
 70
    32
  0
VERTEX
  5
1CB5
  8
241
 10
169.90199999999999
 20
-17.826599999999999
 30
0.0
 70
    32
  0
VERTEX
  5
1CB6
  8
241
 10
169.90799999999999
 20
-17.8308
 30
0.0
 70
    32
  0
VERTEX
  5
1CB7
  8
241
 10
169.91300000000001
 20
-17.835000000000001
 30
0.0
 70
    32
  0
VERTEX
  5
1CB8
  8
241
 10
169.91900000000001
 20
-17.839200000000002
 30
0.0
 70
    32
  0
VERTEX
  5
1CB9
  8
241
 10
169.92400000000001
 20
-17.843299999999999
 30
0.0
 70
    32
  0
VERTEX
  5
1CBA
  8
241
 10
169.93000000000001
 20
-17.8475
 30
0.0
 70
    32
  0
VERTEX
  5
1CBB
  8
241
 10
169.935
 20
-17.851600000000001
 30
0.0
 70
    32
  0
VERTEX
  5
1CBC
  8
241
 10
169.941
 20
-17.855799999999999
 30
0.0
 70
    32
  0
VERTEX
  5
1CBD
  8
241
 10
169.946
 20
-17.8599
 30
0.0
 70
    32
  0
VERTEX
  5
1CBE
  8
241
 10
169.952
 20
-17.864000000000001
 30
0.0
 70
    32
  0
VERTEX
  5
1CBF
  8
241
 10
169.958
 20
-17.868099999999998
 30
0.0
 70
    32
  0
VERTEX
  5
1CC0
  8
241
 10
169.96299999999999
 20
-17.872199999999999
 30
0.0
 70
    32
  0
VERTEX
  5
1CC1
  8
241
 10
169.96899999999999
 20
-17.876200000000001
 30
0.0
 70
    32
  0
VERTEX
  5
1CC2
  8
241
 10
169.97499999999999
 20
-17.880299999999998
 30
0.0
 70
    32
  0
VERTEX
  5
1CC3
  8
241
 10
169.97999999999999
 20
-17.8843
 30
0.0
 70
    32
  0
VERTEX
  5
1CC4
  8
241
 10
169.98599999999999
 20
-17.888400000000001
 30
0.0
 70
    32
  0
VERTEX
  5
1CC5
  8
241
 10
169.99199999999999
 20
-17.892399999999999
 30
0.0
 70
    32
  0
VERTEX
  5
1CC6
  8
241
 10
169.99799999999999
 20
-17.8964
 30
0.0
 70
    32
  0
VERTEX
  5
1CC7
  8
241
 10
170.00399999999999
 20
-17.900400000000001
 30
0.0
 70
    32
  0
VERTEX
  5
1CC8
  8
241
 10
170.00899999999999
 20
-17.904399999999999
 30
0.0
 70
    32
  0
VERTEX
  5
1CC9
  8
241
 10
170.01499999999999
 20
-17.9084
 30
0.0
 70
    32
  0
VERTEX
  5
1CCA
  8
241
 10
170.02099999999999
 20
-17.912400000000002
 30
0.0
 70
    32
  0
VERTEX
  5
1CCB
  8
241
 10
170.02699999999999
 20
-17.9163
 30
0.0
 70
    32
  0
VERTEX
  5
1CCC
  8
241
 10
170.03299999999999
 20
-17.920300000000001
 30
0.0
 70
    32
  0
VERTEX
  5
1CCD
  8
241
 10
170.03899999999999
 20
-17.924199999999999
 30
0.0
 70
    32
  0
VERTEX
  5
1CCE
  8
241
 10
170.04499999999999
 20
-17.9282
 30
0.0
 70
    32
  0
VERTEX
  5
1CCF
  8
241
 10
170.05099999999999
 20
-17.932099999999998
 30
0.0
 70
    32
  0
VERTEX
  5
1CD0
  8
241
 10
170.05699999999999
 20
-17.936
 30
0.0
 70
    32
  0
VERTEX
  5
1CD1
  8
241
 10
170.06299999999999
 20
-17.939900000000002
 30
0.0
 70
    32
  0
VERTEX
  5
1CD2
  8
241
 10
170.06899999999999
 20
-17.9437
 30
0.0
 70
    32
  0
VERTEX
  5
1CD3
  8
241
 10
170.07499999999999
 20
-17.947600000000001
 30
0.0
 70
    32
  0
VERTEX
  5
1CD4
  8
241
 10
170.08099999999999
 20
-17.951499999999999
 30
0.0
 70
    32
  0
VERTEX
  5
1CD5
  8
241
 10
170.08699999999999
 20
-17.955300000000001
 30
0.0
 70
    32
  0
VERTEX
  5
1CD6
  8
241
 10
170.09299999999999
 20
-17.959099999999999
 30
0.0
 70
    32
  0
VERTEX
  5
1CD7
  8
241
 10
170.09899999999999
 20
-17.962900000000001
 30
0.0
 70
    32
  0
VERTEX
  5
1CD8
  8
241
 10
170.10599999999999
 20
-17.966699999999999
 30
0.0
 70
    32
  0
VERTEX
  5
1CD9
  8
241
 10
170.11199999999999
 20
-17.970500000000001
 30
0.0
 70
    32
  0
VERTEX
  5
1CDA
  8
241
 10
170.11799999999999
 20
-17.9742
 30
0.0
 70
    32
  0
VERTEX
  5
1CDB
  8
241
 10
170.124
 20
-17.978000000000002
 30
0.0
 70
    32
  0
VERTEX
  5
1CDC
  8
241
 10
170.13
 20
-17.9817
 30
0.0
 70
    32
  0
VERTEX
  5
1CDD
  8
241
 10
170.136
 20
-17.985399999999998
 30
0.0
 70
    32
  0
VERTEX
  5
1CDE
  8
241
 10
170.143
 20
-17.989100000000001
 30
0.0
 70
    32
  0
VERTEX
  5
1CDF
  8
241
 10
170.149
 20
-17.992799999999999
 30
0.0
 70
    32
  0
VERTEX
  5
1CE0
  8
241
 10
170.155
 20
-17.996400000000001
 30
0.0
 70
    32
  0
VERTEX
  5
1CE1
  8
241
 10
170.16200000000001
 20
-18.0001
 30
0.0
 70
    32
  0
VERTEX
  5
1CE2
  8
241
 10
170.16800000000001
 20
-18.003699999999998
 30
0.0
 70
    32
  0
VERTEX
  5
1CE3
  8
241
 10
170.17400000000001
 20
-18.007300000000001
 30
0.0
 70
    32
  0
VERTEX
  5
1CE4
  8
241
 10
170.18000000000001
 20
-18.010999999999999
 30
0.0
 70
    32
  0
VERTEX
  5
1CE5
  8
241
 10
170.18700000000001
 20
-18.014500000000002
 30
0.0
 70
    32
  0
VERTEX
  5
1CE6
  8
241
 10
170.19300000000001
 20
-18.0181
 30
0.0
 70
    32
  0
VERTEX
  5
1CE7
  8
241
 10
170.19900000000001
 20
-18.021699999999999
 30
0.0
 70
    32
  0
VERTEX
  5
1CE8
  8
241
 10
170.20599999999999
 20
-18.025200000000002
 30
0.0
 70
    32
  0
VERTEX
  5
1CE9
  8
241
 10
170.21199999999999
 20
-18.0288
 30
0.0
 70
    32
  0
VERTEX
  5
1CEA
  8
241
 10
170.21899999999999
 20
-18.032299999999999
 30
0.0
 70
    32
  0
VERTEX
  5
1CEB
  8
241
 10
170.22499999999999
 20
-18.035799999999998
 30
0.0
 70
    32
  0
VERTEX
  5
1CEC
  8
241
 10
170.232
 20
-18.039300000000001
 30
0.0
 70
    32
  0
VERTEX
  5
1CED
  8
241
 10
170.238
 20
-18.0428
 30
0.0
 70
    32
  0
VERTEX
  5
1CEE
  8
241
 10
170.244
 20
-18.046199999999999
 30
0.0
 70
    32
  0
VERTEX
  5
1CEF
  8
241
 10
170.251
 20
-18.049700000000001
 30
0.0
 70
    32
  0
VERTEX
  5
1CF0
  8
241
 10
170.25700000000001
 20
-18.053100000000001
 30
0.0
 70
    32
  0
VERTEX
  5
1CF1
  8
241
 10
170.26400000000001
 20
-18.0565
 30
0.0
 70
    32
  0
VERTEX
  5
1CF2
  8
241
 10
170.27000000000001
 20
-18.059899999999999
 30
0.0
 70
    32
  0
VERTEX
  5
1CF3
  8
241
 10
170.27699999999999
 20
-18.063300000000002
 30
0.0
 70
    32
  0
VERTEX
  5
1CF4
  8
241
 10
170.28399999999999
 20
-18.066700000000001
 30
0.0
 70
    32
  0
VERTEX
  5
1CF5
  8
241
 10
170.28999999999999
 20
-18.0701
 30
0.0
 70
    32
  0
VERTEX
  5
1CF6
  8
241
 10
170.297
 20
-18.073399999999999
 30
0.0
 70
    32
  0
VERTEX
  5
1CF7
  8
241
 10
170.303
 20
-18.076699999999999
 30
0.0
 70
    32
  0
VERTEX
  5
1CF8
  8
241
 10
170.31
 20
-18.080100000000002
 30
0.0
 70
    32
  0
VERTEX
  5
1CF9
  8
241
 10
170.31700000000001
 20
-18.083400000000001
 30
0.0
 70
    32
  0
VERTEX
  5
1CFA
  8
241
 10
170.32300000000001
 20
-18.0867
 30
0.0
 70
    32
  0
VERTEX
  5
1CFB
  8
241
 10
170.33000000000001
 20
-18.0899
 30
0.0
 70
    32
  0
VERTEX
  5
1CFC
  8
241
 10
170.33699999999999
 20
-18.0932
 30
0.0
 70
    32
  0
VERTEX
  5
1CFD
  8
241
 10
170.34299999999999
 20
-18.096399999999999
 30
0.0
 70
    32
  0
VERTEX
  5
1CFE
  8
241
 10
170.34999999999999
 20
-18.099699999999999
 30
0.0
 70
    32
  0
VERTEX
  5
1CFF
  8
241
 10
170.357
 20
-18.102900000000002
 30
0.0
 70
    32
  0
VERTEX
  5
1D00
  8
241
 10
170.363
 20
-18.106100000000001
 30
0.0
 70
    32
  0
VERTEX
  5
1D01
  8
241
 10
170.37
 20
-18.109300000000001
 30
0.0
 70
    32
  0
VERTEX
  5
1D02
  8
241
 10
170.37700000000001
 20
-18.112500000000001
 30
0.0
 70
    32
  0
VERTEX
  5
1D03
  8
241
 10
170.38399999999999
 20
-18.115600000000001
 30
0.0
 70
    32
  0
VERTEX
  5
1D04
  8
241
 10
170.39099999999999
 20
-18.1188
 30
0.0
 70
    32
  0
VERTEX
  5
1D05
  8
241
 10
170.39699999999999
 20
-18.1219
 30
0.0
 70
    32
  0
VERTEX
  5
1D06
  8
241
 10
170.404
 20
-18.125
 30
0.0
 70
    32
  0
VERTEX
  5
1D07
  8
241
 10
170.411
 20
-18.1281
 30
0.0
 70
    32
  0
VERTEX
  5
1D08
  8
241
 10
170.41800000000001
 20
-18.1312
 30
0.0
 70
    32
  0
VERTEX
  5
1D09
  8
241
 10
170.42500000000001
 20
-18.1343
 30
0.0
 70
    32
  0
VERTEX
  5
1D0A
  8
241
 10
170.43199999999999
 20
-18.1374
 30
0.0
 70
    32
  0
VERTEX
  5
1D0B
  8
241
 10
170.43899999999999
 20
-18.1404
 30
0.0
 70
    32
  0
VERTEX
  5
1D0C
  8
241
 10
170.44499999999999
 20
-18.1435
 30
0.0
 70
    32
  0
VERTEX
  5
1D0D
  8
241
 10
170.452
 20
-18.1465
 30
0.0
 70
    32
  0
VERTEX
  5
1D0E
  8
241
 10
170.459
 20
-18.1495
 30
0.0
 70
    32
  0
VERTEX
  5
1D0F
  8
241
 10
170.46600000000001
 20
-18.1525
 30
0.0
 70
    32
  0
VERTEX
  5
1D10
  8
241
 10
170.47300000000001
 20
-18.1555
 30
0.0
 70
    32
  0
VERTEX
  5
1D11
  8
241
 10
170.47999999999999
 20
-18.1584
 30
0.0
 70
    32
  0
VERTEX
  5
1D12
  8
241
 10
170.48699999999999
 20
-18.1614
 30
0.0
 70
    32
  0
VERTEX
  5
1D13
  8
241
 10
170.494
 20
-18.164300000000001
 30
0.0
 70
    32
  0
VERTEX
  5
1D14
  8
241
 10
170.50099999999989
 20
-18.167300000000001
 30
0.0
 70
    32
  0
VERTEX
  5
1D15
  8
241
 10
170.50800000000001
 20
-18.170200000000001
 30
0.0
 70
    32
  0
VERTEX
  5
1D16
  8
241
 10
170.51599999999999
 20
-18.173100000000002
 30
0.0
 70
    32
  0
VERTEX
  5
1D17
  8
241
 10
170.523
 20
-18.175999999999998
 30
0.0
 70
    32
  0
VERTEX
  5
1D18
  8
241
 10
170.53
 20
-18.178799999999999
 30
0.0
 70
    32
  0
VERTEX
  5
1D19
  8
241
 10
170.53700000000001
 20
-18.181699999999999
 30
0.0
 70
    32
  0
VERTEX
  5
1D1A
  8
241
 10
170.54400000000001
 20
-18.1846
 30
0.0
 70
    32
  0
VERTEX
  5
1D1B
  8
241
 10
170.55099999999999
 20
-18.1874
 30
0.0
 70
    32
  0
VERTEX
  5
1D1C
  8
241
 10
170.55799999999999
 20
-18.190200000000001
 30
0.0
 70
    32
  0
VERTEX
  5
1D1D
  8
241
 10
170.56599999999989
 20
-18.193000000000001
 30
0.0
 70
    32
  0
VERTEX
  5
1D1E
  8
241
 10
170.57299999999989
 20
-18.195799999999998
 30
0.0
 70
    32
  0
VERTEX
  5
1D1F
  8
241
 10
170.58000000000001
 20
-18.198599999999999
 30
0.0
 70
    32
  0
VERTEX
  5
1D20
  8
241
 10
170.58699999999999
 20
-18.2013
 30
0.0
 70
    32
  0
VERTEX
  5
1D21
  8
241
 10
170.59399999999999
 20
-18.2041
 30
0.0
 70
    32
  0
VERTEX
  5
1D22
  8
241
 10
170.602
 20
-18.206800000000001
 30
0.0
 70
    32
  0
VERTEX
  5
1D23
  8
241
 10
170.60900000000001
 20
-18.209599999999998
 30
0.0
 70
    32
  0
VERTEX
  5
1D24
  8
241
 10
170.61600000000001
 20
-18.212299999999999
 30
0.0
 70
    32
  0
VERTEX
  5
1D25
  8
241
 10
170.624
 20
-18.215
 30
0.0
 70
    32
  0
VERTEX
  5
1D26
  8
241
 10
170.631
 20
-18.217600000000001
 30
0.0
 70
    32
  0
VERTEX
  5
1D27
  8
241
 10
170.63800000000001
 20
-18.220300000000002
 30
0.0
 70
    32
  0
VERTEX
  5
1D28
  8
241
 10
170.64599999999999
 20
-18.222999999999999
 30
0.0
 70
    32
  0
VERTEX
  5
1D29
  8
241
 10
170.65299999999999
 20
-18.2256
 30
0.0
 70
    32
  0
VERTEX
  5
1D2A
  8
241
 10
170.66
 20
-18.228200000000001
 30
0.0
 70
    32
  0
VERTEX
  5
1D2B
  8
241
 10
170.66800000000001
 20
-18.230799999999999
 30
0.0
 70
    32
  0
VERTEX
  5
1D2C
  8
241
 10
170.67500000000001
 20
-18.2334
 30
0.0
 70
    32
  0
VERTEX
  5
1D2D
  8
241
 10
170.68299999999999
 20
-18.236000000000001
 30
0.0
 70
    32
  0
VERTEX
  5
1D2E
  8
241
 10
170.69
 20
-18.238600000000002
 30
0.0
 70
    32
  0
VERTEX
  5
1D2F
  8
241
 10
170.69799999999989
 20
-18.241099999999999
 30
0.0
 70
    32
  0
VERTEX
  5
1D30
  8
241
 10
170.70500000000001
 20
-18.243600000000001
 30
0.0
 70
    32
  0
VERTEX
  5
1D31
  8
241
 10
170.71299999999999
 20
-18.246200000000002
 30
0.0
 70
    32
  0
VERTEX
  5
1D32
  8
241
 10
170.72
 20
-18.248699999999999
 30
0.0
 70
    32
  0
VERTEX
  5
1D33
  8
241
 10
170.72800000000001
 20
-18.251200000000001
 30
0.0
 70
    32
  0
VERTEX
  5
1D34
  8
241
 10
170.73500000000001
 20
-18.253599999999999
 30
0.0
 70
    32
  0
VERTEX
  5
1D35
  8
241
 10
170.74299999999999
 20
-18.2561
 30
0.0
 70
    32
  0
VERTEX
  5
1D36
  8
241
 10
170.75
 20
-18.258500000000002
 30
0.0
 70
    32
  0
VERTEX
  5
1D37
  8
241
 10
170.75800000000001
 20
-18.260999999999999
 30
0.0
 70
    32
  0
VERTEX
  5
1D38
  8
241
 10
170.76499999999999
 20
-18.263400000000001
 30
0.0
 70
    32
  0
VERTEX
  5
1D39
  8
241
 10
170.773
 20
-18.265799999999999
 30
0.0
 70
    32
  0
VERTEX
  5
1D3A
  8
241
 10
170.78
 20
-18.2682
 30
0.0
 70
    32
  0
VERTEX
  5
1D3B
  8
241
 10
170.78800000000001
 20
-18.270499999999998
 30
0.0
 70
    32
  0
VERTEX
  5
1D3C
  8
241
 10
170.79599999999999
 20
-18.2729
 30
0.0
 70
    32
  0
VERTEX
  5
1D3D
  8
241
 10
170.803
 20
-18.275200000000002
 30
0.0
 70
    32
  0
VERTEX
  5
1D3E
  8
241
 10
170.81100000000001
 20
-18.2776
 30
0.0
 70
    32
  0
VERTEX
  5
1D3F
  8
241
 10
170.81800000000001
 20
-18.279900000000001
 30
0.0
 70
    32
  0
VERTEX
  5
1D40
  8
241
 10
170.82599999999999
 20
-18.2822
 30
0.0
 70
    32
  0
VERTEX
  5
1D41
  8
241
 10
170.834
 20
-18.284400000000002
 30
0.0
 70
    32
  0
VERTEX
  5
1D42
  8
241
 10
170.84099999999989
 20
-18.2867
 30
0.0
 70
    32
  0
VERTEX
  5
1D43
  8
241
 10
170.84899999999999
 20
-18.289000000000001
 30
0.0
 70
    32
  0
VERTEX
  5
1D44
  8
241
 10
170.857
 20
-18.2912
 30
0.0
 70
    32
  0
VERTEX
  5
1D45
  8
241
 10
170.86500000000001
 20
-18.293399999999998
 30
0.0
 70
    32
  0
VERTEX
  5
1D46
  8
241
 10
170.87200000000001
 20
-18.2956
 30
0.0
 70
    32
  0
VERTEX
  5
1D47
  8
241
 10
170.88
 20
-18.297799999999999
 30
0.0
 70
    32
  0
VERTEX
  5
1D48
  8
241
 10
170.88800000000001
 20
-18.300000000000001
 30
0.0
 70
    32
  0
VERTEX
  5
1D49
  8
241
 10
170.89599999999999
 20
-18.302099999999999
 30
0.0
 70
    32
  0
VERTEX
  5
1D4A
  8
241
 10
170.90299999999999
 20
-18.304300000000001
 30
0.0
 70
    32
  0
VERTEX
  5
1D4B
  8
241
 10
170.91099999999989
 20
-18.3064
 30
0.0
 70
    32
  0
VERTEX
  5
1D4C
  8
241
 10
170.91900000000001
 20
-18.308499999999999
 30
0.0
 70
    32
  0
VERTEX
  5
1D4D
  8
241
 10
170.92699999999999
 20
-18.310600000000001
 30
0.0
 70
    32
  0
VERTEX
  5
1D4E
  8
241
 10
170.934
 20
-18.3126
 30
0.0
 70
    32
  0
VERTEX
  5
1D4F
  8
241
 10
170.94200000000001
 20
-18.314699999999998
 30
0.0
 70
    32
  0
VERTEX
  5
1D50
  8
241
 10
170.94999999999999
 20
-18.316700000000001
 30
0.0
 70
    32
  0
VERTEX
  5
1D51
  8
241
 10
170.958
 20
-18.3188
 30
0.0
 70
    32
  0
VERTEX
  5
1D52
  8
241
 10
170.96599999999989
 20
-18.320799999999998
 30
0.0
 70
    32
  0
VERTEX
  5
1D53
  8
241
 10
170.97300000000001
 20
-18.322800000000001
 30
0.0
 70
    32
  0
VERTEX
  5
1D54
  8
241
 10
170.98099999999999
 20
-18.3248
 30
0.0
 70
    32
  0
VERTEX
  5
1D55
  8
241
 10
170.989
 20
-18.326699999999999
 30
0.0
 70
    32
  0
VERTEX
  5
1D56
  8
241
 10
170.99700000000001
 20
-18.328700000000001
 30
0.0
 70
    32
  0
VERTEX
  5
1D57
  8
241
 10
171.005
 20
-18.3306
 30
0.0
 70
    32
  0
VERTEX
  5
1D58
  8
241
 10
171.01300000000001
 20
-18.3325
 30
0.0
 70
    32
  0
VERTEX
  5
1D59
  8
241
 10
171.02099999999999
 20
-18.334399999999999
 30
0.0
 70
    32
  0
VERTEX
  5
1D5A
  8
241
 10
171.02799999999999
 20
-18.336300000000001
 30
0.0
 70
    32
  0
VERTEX
  5
1D5B
  8
241
 10
171.03599999999989
 20
-18.338100000000001
 30
0.0
 70
    32
  0
VERTEX
  5
1D5C
  8
241
 10
171.04400000000001
 20
-18.34
 30
0.0
 70
    32
  0
VERTEX
  5
1D5D
  8
241
 10
171.05199999999999
 20
-18.341799999999999
 30
0.0
 70
    32
  0
VERTEX
  5
1D5E
  8
241
 10
171.06
 20
-18.343699999999998
 30
0.0
 70
    32
  0
VERTEX
  5
1D5F
  8
241
 10
171.06800000000001
 20
-18.345500000000001
 30
0.0
 70
    32
  0
VERTEX
  5
1D60
  8
241
 10
171.07599999999999
 20
-18.347200000000001
 30
0.0
 70
    32
  0
VERTEX
  5
1D61
  8
241
 10
171.084
 20
-18.349
 30
0.0
 70
    32
  0
VERTEX
  5
1D62
  8
241
 10
171.09200000000001
 20
-18.3508
 30
0.0
 70
    32
  0
VERTEX
  5
1D63
  8
241
 10
171.09999999999999
 20
-18.352499999999999
 30
0.0
 70
    32
  0
VERTEX
  5
1D64
  8
241
 10
171.108
 20
-18.354199999999999
 30
0.0
 70
    32
  0
VERTEX
  5
1D65
  8
241
 10
171.11600000000001
 20
-18.355899999999998
 30
0.0
 70
    32
  0
VERTEX
  5
1D66
  8
241
 10
171.124
 20
-18.357600000000001
 30
0.0
 70
    32
  0
VERTEX
  5
1D67
  8
241
 10
171.13200000000001
 20
-18.359300000000001
 30
0.0
 70
    32
  0
VERTEX
  5
1D68
  8
241
 10
171.13900000000001
 20
-18.361000000000001
 30
0.0
 70
    32
  0
VERTEX
  5
1D69
  8
241
 10
171.14699999999999
 20
-18.3626
 30
0.0
 70
    32
  0
VERTEX
  5
1D6A
  8
241
 10
171.155
 20
-18.3642
 30
0.0
 70
    32
  0
VERTEX
  5
1D6B
  8
241
 10
171.1629999999999
 20
-18.3659
 30
0.0
 70
    32
  0
VERTEX
  5
1D6C
  8
241
 10
171.17099999999999
 20
-18.3675
 30
0.0
 70
    32
  0
VERTEX
  5
1D6D
  8
241
 10
171.18000000000001
 20
-18.369
 30
0.0
 70
    32
  0
VERTEX
  5
1D6E
  8
241
 10
171.18799999999999
 20
-18.3706
 30
0.0
 70
    32
  0
VERTEX
  5
1D6F
  8
241
 10
171.196
 20
-18.3721
 30
0.0
 70
    32
  0
VERTEX
  5
1D70
  8
241
 10
171.20400000000001
 20
-18.373699999999999
 30
0.0
 70
    32
  0
VERTEX
  5
1D71
  8
241
 10
171.21199999999999
 20
-18.3752
 30
0.0
 70
    32
  0
VERTEX
  5
1D72
  8
241
 10
171.22
 20
-18.3767
 30
0.0
 70
    32
  0
VERTEX
  5
1D73
  8
241
 10
171.22799999999989
 20
-18.3782
 30
0.0
 70
    32
  0
VERTEX
  5
1D74
  8
241
 10
171.23599999999999
 20
-18.3797
 30
0.0
 70
    32
  0
VERTEX
  5
1D75
  8
241
 10
171.244
 20
-18.3811
 30
0.0
 70
    32
  0
VERTEX
  5
1D76
  8
241
 10
171.25200000000001
 20
-18.3826
 30
0.0
 70
    32
  0
VERTEX
  5
1D77
  8
241
 10
171.25999999999999
 20
-18.384
 30
0.0
 70
    32
  0
VERTEX
  5
1D78
  8
241
 10
171.268
 20
-18.385400000000001
 30
0.0
 70
    32
  0
VERTEX
  5
1D79
  8
241
 10
171.27600000000001
 20
-18.386800000000001
 30
0.0
 70
    32
  0
VERTEX
  5
1D7A
  8
241
 10
171.28399999999999
 20
-18.388200000000001
 30
0.0
 70
    32
  0
VERTEX
  5
1D7B
  8
241
 10
171.292
 20
-18.389500000000002
 30
0.0
 70
    32
  0
VERTEX
  5
1D7C
  8
241
 10
171.30099999999999
 20
-18.390899999999998
 30
0.0
 70
    32
  0
VERTEX
  5
1D7D
  8
241
 10
171.309
 20
-18.392199999999999
 30
0.0
 70
    32
  0
VERTEX
  5
1D7E
  8
241
 10
171.31700000000001
 20
-18.3935
 30
0.0
 70
    32
  0
VERTEX
  5
1D7F
  8
241
 10
171.32499999999999
 20
-18.3948
 30
0.0
 70
    32
  0
VERTEX
  5
1D80
  8
241
 10
171.333
 20
-18.396100000000001
 30
0.0
 70
    32
  0
VERTEX
  5
1D81
  8
241
 10
171.34100000000001
 20
-18.397400000000001
 30
0.0
 70
    32
  0
VERTEX
  5
1D82
  8
241
 10
171.34999999999999
 20
-18.398599999999998
 30
0.0
 70
    32
  0
VERTEX
  5
1D83
  8
241
 10
171.358
 20
-18.399899999999999
 30
0.0
 70
    32
  0
VERTEX
  5
1D84
  8
241
 10
171.36600000000001
 20
-18.4011
 30
0.0
 70
    32
  0
VERTEX
  5
1D85
  8
241
 10
171.374
 20
-18.4023
 30
0.0
 70
    32
  0
VERTEX
  5
1D86
  8
241
 10
171.38200000000001
 20
-18.403500000000001
 30
0.0
 70
    32
  0
VERTEX
  5
1D87
  8
241
 10
171.38999999999999
 20
-18.404599999999999
 30
0.0
 70
    32
  0
VERTEX
  5
1D88
  8
241
 10
171.399
 20
-18.405799999999999
 30
0.0
 70
    32
  0
VERTEX
  5
1D89
  8
241
 10
171.40700000000001
 20
-18.407
 30
0.0
 70
    32
  0
VERTEX
  5
1D8A
  8
241
 10
171.41499999999999
 20
-18.408100000000001
 30
0.0
 70
    32
  0
VERTEX
  5
1D8B
  8
241
 10
171.423
 20
-18.409199999999998
 30
0.0
 70
    32
  0
VERTEX
  5
1D8C
  8
241
 10
171.43199999999999
 20
-18.410299999999999
 30
0.0
 70
    32
  0
VERTEX
  5
1D8D
  8
241
 10
171.44
 20
-18.4114
 30
0.0
 70
    32
  0
VERTEX
  5
1D8E
  8
241
 10
171.44800000000001
 20
-18.412400000000002
 30
0.0
 70
    32
  0
VERTEX
  5
1D8F
  8
241
 10
171.45599999999999
 20
-18.413499999999999
 30
0.0
 70
    32
  0
VERTEX
  5
1D90
  8
241
 10
171.465
 20
-18.4145
 30
0.0
 70
    32
  0
VERTEX
  5
1D91
  8
241
 10
171.47300000000001
 20
-18.415500000000002
 30
0.0
 70
    32
  0
VERTEX
  5
1D92
  8
241
 10
171.48099999999999
 20
-18.416499999999999
 30
0.0
 70
    32
  0
VERTEX
  5
1D93
  8
241
 10
171.489
 20
-18.4175
 30
0.0
 70
    32
  0
VERTEX
  5
1D94
  8
241
 10
171.49799999999999
 20
-18.418500000000002
 30
0.0
 70
    32
  0
VERTEX
  5
1D95
  8
241
 10
171.506
 20
-18.419499999999999
 30
0.0
 70
    32
  0
VERTEX
  5
1D96
  8
241
 10
171.51400000000001
 20
-18.420400000000001
 30
0.0
 70
    32
  0
VERTEX
  5
1D97
  8
241
 10
171.523
 20
-18.421299999999999
 30
0.0
 70
    32
  0
VERTEX
  5
1D98
  8
241
 10
171.53100000000001
 20
-18.4222
 30
0.0
 70
    32
  0
VERTEX
  5
1D99
  8
241
 10
171.53899999999999
 20
-18.423100000000002
 30
0.0
 70
    32
  0
VERTEX
  5
1D9A
  8
241
 10
171.548
 20
-18.423999999999999
 30
0.0
 70
    32
  0
VERTEX
  5
1D9B
  8
241
 10
171.55600000000001
 20
-18.424900000000001
 30
0.0
 70
    32
  0
VERTEX
  5
1D9C
  8
241
 10
171.56399999999999
 20
-18.425699999999999
 30
0.0
 70
    32
  0
VERTEX
  5
1D9D
  8
241
 10
171.57299999999989
 20
-18.426500000000001
 30
0.0
 70
    32
  0
VERTEX
  5
1D9E
  8
241
 10
171.58099999999999
 20
-18.427299999999999
 30
0.0
 70
    32
  0
VERTEX
  5
1D9F
  8
241
 10
171.59
 20
-18.428100000000001
 30
0.0
 70
    32
  0
VERTEX
  5
1DA0
  8
241
 10
171.59800000000001
 20
-18.428899999999999
 30
0.0
 70
    32
  0
VERTEX
  5
1DA1
  8
241
 10
171.60599999999999
 20
-18.4297
 30
0.0
 70
    32
  0
VERTEX
  5
1DA2
  8
241
 10
171.61500000000001
 20
-18.430399999999999
 30
0.0
 70
    32
  0
VERTEX
  5
1DA3
  8
241
 10
171.62299999999999
 20
-18.4312
 30
0.0
 70
    32
  0
VERTEX
  5
1DA4
  8
241
 10
171.63200000000001
 20
-18.431899999999999
 30
0.0
 70
    32
  0
VERTEX
  5
1DA5
  8
241
 10
171.63999999999999
 20
-18.432600000000001
 30
0.0
 70
    32
  0
VERTEX
  5
1DA6
  8
241
 10
171.648
 20
-18.433299999999999
 30
0.0
 70
    32
  0
VERTEX
  5
1DA7
  8
241
 10
171.65700000000001
 20
-18.433900000000001
 30
0.0
 70
    32
  0
VERTEX
  5
1DA8
  8
241
 10
171.66499999999999
 20
-18.4346
 30
0.0
 70
    32
  0
VERTEX
  5
1DA9
  8
241
 10
171.67400000000001
 20
-18.435199999999998
 30
0.0
 70
    32
  0
VERTEX
  5
1DAA
  8
241
 10
171.68199999999999
 20
-18.4358
 30
0.0
 70
    32
  0
VERTEX
  5
1DAB
  8
241
 10
171.69099999999989
 20
-18.436399999999999
 30
0.0
 70
    32
  0
VERTEX
  5
1DAC
  8
241
 10
171.69900000000001
 20
-18.437000000000001
 30
0.0
 70
    32
  0
VERTEX
  5
1DAD
  8
241
 10
171.70699999999999
 20
-18.4376
 30
0.0
 70
    32
  0
VERTEX
  5
1DAE
  8
241
 10
171.71599999999989
 20
-18.438199999999998
 30
0.0
 70
    32
  0
VERTEX
  5
1DAF
  8
241
 10
171.72399999999999
 20
-18.438700000000001
 30
0.0
 70
    32
  0
VERTEX
  5
1DB0
  8
241
 10
171.733
 20
-18.4392
 30
0.0
 70
    32
  0
VERTEX
  5
1DB1
  8
241
 10
171.74100000000001
 20
-18.439699999999998
 30
0.0
 70
    32
  0
VERTEX
  5
1DB2
  8
241
 10
171.75
 20
-18.440200000000001
 30
0.0
 70
    32
  0
VERTEX
  5
1DB3
  8
241
 10
171.75800000000001
 20
-18.4407
 30
0.0
 70
    32
  0
VERTEX
  5
1DB4
  8
241
 10
171.767
 20
-18.441099999999999
 30
0.0
 70
    32
  0
VERTEX
  5
1DB5
  8
241
 10
171.77500000000001
 20
-18.441600000000001
 30
0.0
 70
    32
  0
VERTEX
  5
1DB6
  8
241
 10
171.78299999999999
 20
-18.442
 30
0.0
 70
    32
  0
VERTEX
  5
1DB7
  8
241
 10
171.792
 20
-18.442399999999999
 30
0.0
 70
    32
  0
VERTEX
  5
1DB8
  8
241
 10
171.80000000000001
 20
-18.442799999999998
 30
0.0
 70
    32
  0
VERTEX
  5
1DB9
  8
241
 10
171.809
 20
-18.443200000000001
 30
0.0
 70
    32
  0
VERTEX
  5
1DBA
  8
241
 10
171.81700000000001
 20
-18.4436
 30
0.0
 70
    32
  0
VERTEX
  5
1DBB
  8
241
 10
171.82599999999999
 20
-18.443899999999999
 30
0.0
 70
    32
  0
VERTEX
  5
1DBC
  8
241
 10
171.834
 20
-18.444199999999999
 30
0.0
 70
    32
  0
VERTEX
  5
1DBD
  8
241
 10
171.84299999999999
 20
-18.444500000000001
 30
0.0
 70
    32
  0
VERTEX
  5
1DBE
  8
241
 10
171.851
 20
-18.444800000000001
 30
0.0
 70
    32
  0
VERTEX
  5
1DBF
  8
241
 10
171.86000000000001
 20
-18.4451
 30
0.0
 70
    32
  0
VERTEX
  5
1DC0
  8
241
 10
171.86799999999999
 20
-18.445399999999999
 30
0.0
 70
    32
  0
VERTEX
  5
1DC1
  8
241
 10
171.87700000000001
 20
-18.445599999999999
 30
0.0
 70
    32
  0
VERTEX
  5
1DC2
  8
241
 10
171.88499999999999
 20
-18.445900000000002
 30
0.0
 70
    32
  0
VERTEX
  5
1DC3
  8
241
 10
171.893
 20
-18.446100000000001
 30
0.0
 70
    32
  0
VERTEX
  5
1DC4
  8
241
 10
171.90199999999999
 20
-18.446300000000001
 30
0.0
 70
    32
  0
VERTEX
  5
1DC5
  8
241
 10
171.91
 20
-18.4465
 30
0.0
 70
    32
  0
VERTEX
  5
1DC6
  8
241
 10
171.91900000000001
 20
-18.4466
 30
0.0
 70
    32
  0
VERTEX
  5
1DC7
  8
241
 10
171.92699999999999
 20
-18.4468
 30
0.0
 70
    32
  0
VERTEX
  5
1DC8
  8
241
 10
171.93599999999989
 20
-18.446899999999999
 30
0.0
 70
    32
  0
VERTEX
  5
1DC9
  8
241
 10
171.94399999999999
 20
-18.446999999999999
 30
0.0
 70
    32
  0
VERTEX
  5
1DCA
  8
241
 10
171.953
 20
-18.447099999999999
 30
0.0
 70
    32
  0
VERTEX
  5
1DCB
  8
241
 10
171.96100000000001
 20
-18.447199999999999
 30
0.0
 70
    32
  0
VERTEX
  5
1DCC
  8
241
 10
171.96899999999999
 20
-18.447299999999998
 30
0.0
 70
    32
  0
VERTEX
  5
1DCD
  8
241
 10
171.97800000000001
 20
-18.447299999999998
 30
0.0
 70
    32
  0
VERTEX
  5
1DCE
  8
241
 10
171.98599999999999
 20
-18.447399999999998
 30
0.0
 70
    32
  0
VERTEX
  5
1DCF
  8
241
 10
171.995
 20
-18.447399999999998
 30
0.0
 70
    32
  0
VERTEX
  5
1DD0
  8
241
 10
172.00299999999999
 20
-18.447399999999998
 30
0.0
 70
    32
  0
VERTEX
  5
1DD1
  8
241
 10
172.012
 20
-18.447399999999998
 30
0.0
 70
    32
  0
VERTEX
  5
1DD2
  8
241
 10
172.02000000000001
 20
-18.447299999999998
 30
0.0
 70
    32
  0
VERTEX
  5
1DD3
  8
241
 10
172.02799999999999
 20
-18.447299999999998
 30
0.0
 70
    32
  0
VERTEX
  5
1DD4
  8
241
 10
172.03700000000001
 20
-18.447199999999999
 30
0.0
 70
    32
  0
VERTEX
  5
1DD5
  8
241
 10
172.04499999999999
 20
-18.447199999999999
 30
0.0
 70
    32
  0
VERTEX
  5
1DD6
  8
241
 10
172.054
 20
-18.447099999999999
 30
0.0
 70
    32
  0
VERTEX
  5
1DD7
  8
241
 10
172.06200000000001
 20
-18.446999999999999
 30
0.0
 70
    32
  0
VERTEX
  5
1DD8
  8
241
 10
172.06999999999999
 20
-18.4468
 30
0.0
 70
    32
  0
VERTEX
  5
1DD9
  8
241
 10
172.07900000000001
 20
-18.4467
 30
0.0
 70
    32
  0
VERTEX
  5
1DDA
  8
241
 10
172.08699999999999
 20
-18.4465
 30
0.0
 70
    32
  0
VERTEX
  5
1DDB
  8
241
 10
172.096
 20
-18.446400000000001
 30
0.0
 70
    32
  0
VERTEX
  5
1DDC
  8
241
 10
172.10400000000001
 20
-18.446200000000001
 30
0.0
 70
    32
  0
VERTEX
  5
1DDD
  8
241
 10
172.113
 20
-18.446000000000002
 30
0.0
 70
    32
  0
VERTEX
  5
1DDE
  8
241
 10
172.12100000000001
 20
-18.445699999999999
 30
0.0
 70
    32
  0
VERTEX
  5
1DDF
  8
241
 10
172.12899999999999
 20
-18.445499999999999
 30
0.0
 70
    32
  0
VERTEX
  5
1DE0
  8
241
 10
172.13800000000001
 20
-18.4452
 30
0.0
 70
    32
  0
VERTEX
  5
1DE1
  8
241
 10
172.14599999999999
 20
-18.445
 30
0.0
 70
    32
  0
VERTEX
  5
1DE2
  8
241
 10
172.154
 20
-18.444700000000001
 30
0.0
 70
    32
  0
VERTEX
  5
1DE3
  8
241
 10
172.16300000000001
 20
-18.444400000000002
 30
0.0
 70
    32
  0
VERTEX
  5
1DE4
  8
241
 10
172.17099999999999
 20
-18.444099999999999
 30
0.0
 70
    32
  0
VERTEX
  5
1DE5
  8
241
 10
172.18000000000001
 20
-18.4437
 30
0.0
 70
    32
  0
VERTEX
  5
1DE6
  8
241
 10
172.18799999999999
 20
-18.4434
 30
0.0
 70
    32
  0
VERTEX
  5
1DE7
  8
241
 10
172.196
 20
-18.443000000000001
 30
0.0
 70
    32
  0
VERTEX
  5
1DE8
  8
241
 10
172.20500000000001
 20
-18.442599999999999
 30
0.0
 70
    32
  0
VERTEX
  5
1DE9
  8
241
 10
172.21299999999999
 20
-18.4422
 30
0.0
 70
    32
  0
VERTEX
  5
1DEA
  8
241
 10
172.22200000000001
 20
-18.441800000000001
 30
0.0
 70
    32
  0
VERTEX
  5
1DEB
  8
241
 10
172.22999999999999
 20
-18.441400000000002
 30
0.0
 70
    32
  0
VERTEX
  5
1DEC
  8
241
 10
172.238
 20
-18.440899999999999
 30
0.0
 70
    32
  0
VERTEX
  5
1DED
  8
241
 10
172.24700000000001
 20
-18.4405
 30
0.0
 70
    32
  0
VERTEX
  5
1DEE
  8
241
 10
172.255
 20
-18.440000000000001
 30
0.0
 70
    32
  0
VERTEX
  5
1DEF
  8
241
 10
172.26300000000001
 20
-18.439499999999999
 30
0.0
 70
    32
  0
VERTEX
  5
1DF0
  8
241
 10
172.27199999999999
 20
-18.439
 30
0.0
 70
    32
  0
VERTEX
  5
1DF1
  8
241
 10
172.28
 20
-18.438500000000001
 30
0.0
 70
    32
  0
VERTEX
  5
1DF2
  8
241
 10
172.28899999999999
 20
-18.437899999999999
 30
0.0
 70
    32
  0
VERTEX
  5
1DF3
  8
241
 10
172.297
 20
-18.4374
 30
0.0
 70
    32
  0
VERTEX
  5
1DF4
  8
241
 10
172.30500000000001
 20
-18.436800000000002
 30
0.0
 70
    32
  0
VERTEX
  5
1DF5
  8
241
 10
172.31399999999999
 20
-18.436199999999999
 30
0.0
 70
    32
  0
VERTEX
  5
1DF6
  8
241
 10
172.322
 20
-18.435600000000001
 30
0.0
 70
    32
  0
VERTEX
  5
1DF7
  8
241
 10
172.33000000000001
 20
-18.434999999999999
 30
0.0
 70
    32
  0
VERTEX
  5
1DF8
  8
241
 10
172.339
 20
-18.4343
 30
0.0
 70
    32
  0
VERTEX
  5
1DF9
  8
241
 10
172.34700000000001
 20
-18.433700000000002
 30
0.0
 70
    32
  0
VERTEX
  5
1DFA
  8
241
 10
172.35599999999999
 20
-18.433
 30
0.0
 70
    32
  0
VERTEX
  5
1DFB
  8
241
 10
172.364
 20
-18.432300000000001
 30
0.0
 70
    32
  0
VERTEX
  5
1DFC
  8
241
 10
172.37200000000001
 20
-18.4316
 30
0.0
 70
    32
  0
VERTEX
  5
1DFD
  8
241
 10
172.381
 20
-18.430900000000001
 30
0.0
 70
    32
  0
VERTEX
  5
1DFE
  8
241
 10
172.38900000000001
 20
-18.430099999999999
 30
0.0
 70
    32
  0
VERTEX
  5
1DFF
  8
241
 10
172.39699999999999
 20
-18.429400000000001
 30
0.0
 70
    32
  0
VERTEX
  5
1E00
  8
241
 10
172.40599999999989
 20
-18.428599999999999
 30
0.0
 70
    32
  0
VERTEX
  5
1E01
  8
241
 10
172.41399999999999
 20
-18.427800000000001
 30
0.0
 70
    32
  0
VERTEX
  5
1E02
  8
241
 10
172.422
 20
-18.427
 30
0.0
 70
    32
  0
VERTEX
  5
1E03
  8
241
 10
172.43100000000001
 20
-18.426200000000001
 30
0.0
 70
    32
  0
VERTEX
  5
1E04
  8
241
 10
172.43899999999999
 20
-18.4254
 30
0.0
 70
    32
  0
VERTEX
  5
1E05
  8
241
 10
172.447
 20
-18.424499999999998
 30
0.0
 70
    32
  0
VERTEX
  5
1E06
  8
241
 10
172.45599999999999
 20
-18.4237
 30
0.0
 70
    32
  0
VERTEX
  5
1E07
  8
241
 10
172.464
 20
-18.422799999999999
 30
0.0
 70
    32
  0
VERTEX
  5
1E08
  8
241
 10
172.47200000000001
 20
-18.421900000000001
 30
0.0
 70
    32
  0
VERTEX
  5
1E09
  8
241
 10
172.48099999999999
 20
-18.4209
 30
0.0
 70
    32
  0
VERTEX
  5
1E0A
  8
241
 10
172.489
 20
-18.420000000000002
 30
0.0
 70
    32
  0
VERTEX
  5
1E0B
  8
241
 10
172.49700000000001
 20
-18.4191
 30
0.0
 70
    32
  0
VERTEX
  5
1E0C
  8
241
 10
172.506
 20
-18.418099999999999
 30
0.0
 70
    32
  0
VERTEX
  5
1E0D
  8
241
 10
172.51400000000001
 20
-18.417100000000001
 30
0.0
 70
    32
  0
VERTEX
  5
1E0E
  8
241
 10
172.52199999999999
 20
-18.4161
 30
0.0
 70
    32
  0
VERTEX
  5
1E0F
  8
241
 10
172.53100000000001
 20
-18.415099999999999
 30
0.0
 70
    32
  0
VERTEX
  5
1E10
  8
241
 10
172.53899999999999
 20
-18.414100000000001
 30
0.0
 70
    32
  0
VERTEX
  5
1E11
  8
241
 10
172.547
 20
-18.413
 30
0.0
 70
    32
  0
VERTEX
  5
1E12
  8
241
 10
172.5559999999999
 20
-18.411999999999999
 30
0.0
 70
    32
  0
VERTEX
  5
1E13
  8
241
 10
172.56399999999999
 20
-18.410900000000002
 30
0.0
 70
    32
  0
VERTEX
  5
1E14
  8
241
 10
172.572
 20
-18.409800000000001
 30
0.0
 70
    32
  0
VERTEX
  5
1E15
  8
241
 10
172.58099999999999
 20
-18.4087
 30
0.0
 70
    32
  0
VERTEX
  5
1E16
  8
241
 10
172.589
 20
-18.407499999999999
 30
0.0
 70
    32
  0
VERTEX
  5
1E17
  8
241
 10
172.59700000000001
 20
-18.406400000000001
 30
0.0
 70
    32
  0
VERTEX
  5
1E18
  8
241
 10
172.60499999999999
 20
-18.405200000000001
 30
0.0
 70
    32
  0
VERTEX
  5
1E19
  8
241
 10
172.614
 20
-18.4041
 30
0.0
 70
    32
  0
VERTEX
  5
1E1A
  8
241
 10
172.62200000000001
 20
-18.402899999999999
 30
0.0
 70
    32
  0
VERTEX
  5
1E1B
  8
241
 10
172.63
 20
-18.401599999999998
 30
0.0
 70
    32
  0
VERTEX
  5
1E1C
  8
241
 10
172.63800000000001
 20
-18.400400000000001
 30
0.0
 70
    32
  0
VERTEX
  5
1E1D
  8
241
 10
172.64699999999999
 20
-18.3992
 30
0.0
 70
    32
  0
VERTEX
  5
1E1E
  8
241
 10
172.655
 20
-18.3979
 30
0.0
 70
    32
  0
VERTEX
  5
1E1F
  8
241
 10
172.66300000000001
 20
-18.396699999999999
 30
0.0
 70
    32
  0
VERTEX
  5
1E20
  8
241
 10
172.67099999999999
 20
-18.395399999999999
 30
0.0
 70
    32
  0
VERTEX
  5
1E21
  8
241
 10
172.68000000000001
 20
-18.394100000000002
 30
0.0
 70
    32
  0
VERTEX
  5
1E22
  8
241
 10
172.68799999999999
 20
-18.392700000000001
 30
0.0
 70
    32
  0
VERTEX
  5
1E23
  8
241
 10
172.696
 20
-18.391400000000001
 30
0.0
 70
    32
  0
VERTEX
  5
1E24
  8
241
 10
172.70400000000001
 20
-18.3901
 30
0.0
 70
    32
  0
VERTEX
  5
1E25
  8
241
 10
172.71199999999999
 20
-18.3887
 30
0.0
 70
    32
  0
VERTEX
  5
1E26
  8
241
 10
172.72099999999989
 20
-18.3873
 30
0.0
 70
    32
  0
VERTEX
  5
1E27
  8
241
 10
172.72900000000001
 20
-18.385899999999999
 30
0.0
 70
    32
  0
VERTEX
  5
1E28
  8
241
 10
172.73699999999999
 20
-18.384499999999999
 30
0.0
 70
    32
  0
VERTEX
  5
1E29
  8
241
 10
172.745
 20
-18.383099999999999
 30
0.0
 70
    32
  0
VERTEX
  5
1E2A
  8
241
 10
172.7529999999999
 20
-18.381599999999999
 30
0.0
 70
    32
  0
VERTEX
  5
1E2B
  8
241
 10
172.761
 20
-18.380199999999999
 30
0.0
 70
    32
  0
VERTEX
  5
1E2C
  8
241
 10
172.76900000000001
 20
-18.378699999999998
 30
0.0
 70
    32
  0
VERTEX
  5
1E2D
  8
241
 10
172.77799999999999
 20
-18.377199999999998
 30
0.0
 70
    32
  0
VERTEX
  5
1E2E
  8
241
 10
172.78599999999989
 20
-18.375699999999998
 30
0.0
 70
    32
  0
VERTEX
  5
1E2F
  8
241
 10
172.79400000000001
 20
-18.374199999999998
 30
0.0
 70
    32
  0
VERTEX
  5
1E30
  8
241
 10
172.80199999999999
 20
-18.372599999999998
 30
0.0
 70
    32
  0
VERTEX
  5
1E31
  8
241
 10
172.81
 20
-18.371099999999998
 30
0.0
 70
    32
  0
VERTEX
  5
1E32
  8
241
 10
172.81800000000001
 20
-18.369499999999999
 30
0.0
 70
    32
  0
VERTEX
  5
1E33
  8
241
 10
172.82599999999999
 20
-18.367899999999999
 30
0.0
 70
    32
  0
VERTEX
  5
1E34
  8
241
 10
172.834
 20
-18.366299999999999
 30
0.0
 70
    32
  0
VERTEX
  5
1E35
  8
241
 10
172.84200000000001
 20
-18.364699999999999
 30
0.0
 70
    32
  0
VERTEX
  5
1E36
  8
241
 10
172.84999999999999
 20
-18.363099999999999
 30
0.0
 70
    32
  0
VERTEX
  5
1E37
  8
241
 10
172.858
 20
-18.3614
 30
0.0
 70
    32
  0
VERTEX
  5
1E38
  8
241
 10
172.86600000000001
 20
-18.3597
 30
0.0
 70
    32
  0
VERTEX
  5
1E39
  8
241
 10
172.874
 20
-18.3581
 30
0.0
 70
    32
  0
VERTEX
  5
1E3A
  8
241
 10
172.88200000000001
 20
-18.356400000000001
 30
0.0
 70
    32
  0
VERTEX
  5
1E3B
  8
241
 10
172.88999999999999
 20
-18.354700000000001
 30
0.0
 70
    32
  0
VERTEX
  5
1E3C
  8
241
 10
172.898
 20
-18.352900000000002
 30
0.0
 70
    32
  0
VERTEX
  5
1E3D
  8
241
 10
172.90600000000001
 20
-18.351199999999999
 30
0.0
 70
    32
  0
VERTEX
  5
1E3E
  8
241
 10
172.91399999999999
 20
-18.349499999999999
 30
0.0
 70
    32
  0
VERTEX
  5
1E3F
  8
241
 10
172.922
 20
-18.3477
 30
0.0
 70
    32
  0
VERTEX
  5
1E40
  8
241
 10
172.93000000000001
 20
-18.3459
 30
0.0
 70
    32
  0
VERTEX
  5
1E41
  8
241
 10
172.93799999999999
 20
-18.344100000000001
 30
0.0
 70
    32
  0
VERTEX
  5
1E42
  8
241
 10
172.946
 20
-18.342300000000002
 30
0.0
 70
    32
  0
VERTEX
  5
1E43
  8
241
 10
172.95400000000001
 20
-18.340499999999999
 30
0.0
 70
    32
  0
VERTEX
  5
1E44
  8
241
 10
172.96199999999999
 20
-18.3386
 30
0.0
 70
    32
  0
VERTEX
  5
1E45
  8
241
 10
172.97
 20
-18.3367
 30
0.0
 70
    32
  0
VERTEX
  5
1E46
  8
241
 10
172.977
 20
-18.334900000000001
 30
0.0
 70
    32
  0
VERTEX
  5
1E47
  8
241
 10
172.98500000000001
 20
-18.332999999999998
 30
0.0
 70
    32
  0
VERTEX
  5
1E48
  8
241
 10
172.99299999999999
 20
-18.331099999999999
 30
0.0
 70
    32
  0
VERTEX
  5
1E49
  8
241
 10
173.001
 20
-18.3292
 30
0.0
 70
    32
  0
VERTEX
  5
1E4A
  8
241
 10
173.00899999999999
 20
-18.327200000000001
 30
0.0
 70
    32
  0
VERTEX
  5
1E4B
  8
241
 10
173.017
 20
-18.325299999999999
 30
0.0
 70
    32
  0
VERTEX
  5
1E4C
  8
241
 10
173.024
 20
-18.3233
 30
0.0
 70
    32
  0
VERTEX
  5
1E4D
  8
241
 10
173.03200000000001
 20
-18.321300000000001
 30
0.0
 70
    32
  0
VERTEX
  5
1E4E
  8
241
 10
173.03999999999999
 20
-18.319299999999998
 30
0.0
 70
    32
  0
VERTEX
  5
1E4F
  8
241
 10
173.048
 20
-18.317299999999999
 30
0.0
 70
    32
  0
VERTEX
  5
1E50
  8
241
 10
173.05600000000001
 20
-18.315300000000001
 30
0.0
 70
    32
  0
VERTEX
  5
1E51
  8
241
 10
173.06299999999999
 20
-18.313300000000002
 30
0.0
 70
    32
  0
VERTEX
  5
1E52
  8
241
 10
173.071
 20
-18.311199999999999
 30
0.0
 70
    32
  0
VERTEX
  5
1E53
  8
241
 10
173.07900000000001
 20
-18.309100000000001
 30
0.0
 70
    32
  0
VERTEX
  5
1E54
  8
241
 10
173.08699999999999
 20
-18.306999999999999
 30
0.0
 70
    32
  0
VERTEX
  5
1E55
  8
241
 10
173.09399999999999
 20
-18.3049
 30
0.0
 70
    32
  0
VERTEX
  5
1E56
  8
241
 10
173.102
 20
-18.302800000000001
 30
0.0
 70
    32
  0
VERTEX
  5
1E57
  8
241
 10
173.11000000000001
 20
-18.300699999999999
 30
0.0
 70
    32
  0
VERTEX
  5
1E58
  8
241
 10
173.11699999999999
 20
-18.298500000000001
 30
0.0
 70
    32
  0
VERTEX
  5
1E59
  8
241
 10
173.125
 20
-18.296399999999998
 30
0.0
 70
    32
  0
VERTEX
  5
1E5A
  8
241
 10
173.1329999999999
 20
-18.2942
 30
0.0
 70
    32
  0
VERTEX
  5
1E5B
  8
241
 10
173.13999999999999
 20
-18.292000000000002
 30
0.0
 70
    32
  0
VERTEX
  5
1E5C
  8
241
 10
173.148
 20
-18.2898
 30
0.0
 70
    32
  0
VERTEX
  5
1E5D
  8
241
 10
173.15599999999989
 20
-18.287500000000001
 30
0.0
 70
    32
  0
VERTEX
  5
1E5E
  8
241
 10
173.16300000000001
 20
-18.285299999999999
 30
0.0
 70
    32
  0
VERTEX
  5
1E5F
  8
241
 10
173.17099999999999
 20
-18.283000000000001
 30
0.0
 70
    32
  0
VERTEX
  5
1E60
  8
241
 10
173.179
 20
-18.280799999999999
 30
0.0
 70
    32
  0
VERTEX
  5
1E61
  8
241
 10
173.18599999999989
 20
-18.278500000000001
 30
0.0
 70
    32
  0
VERTEX
  5
1E62
  8
241
 10
173.19399999999999
 20
-18.276199999999999
 30
0.0
 70
    32
  0
VERTEX
  5
1E63
  8
241
 10
173.20099999999999
 20
-18.273800000000001
 30
0.0
 70
    32
  0
VERTEX
  5
1E64
  8
241
 10
173.209
 20
-18.2715
 30
0.0
 70
    32
  0
VERTEX
  5
1E65
  8
241
 10
173.21700000000001
 20
-18.269200000000001
 30
0.0
 70
    32
  0
VERTEX
  5
1E66
  8
241
 10
173.22399999999999
 20
-18.2668
 30
0.0
 70
    32
  0
VERTEX
  5
1E67
  8
241
 10
173.232
 20
-18.264399999999998
 30
0.0
 70
    32
  0
VERTEX
  5
1E68
  8
241
 10
173.239
 20
-18.262
 30
0.0
 70
    32
  0
VERTEX
  5
1E69
  8
241
 10
173.24700000000001
 20
-18.259599999999999
 30
0.0
 70
    32
  0
VERTEX
  5
1E6A
  8
241
 10
173.25399999999999
 20
-18.257200000000001
 30
0.0
 70
    32
  0
VERTEX
  5
1E6B
  8
241
 10
173.262
 20
-18.2547
 30
0.0
 70
    32
  0
VERTEX
  5
1E6C
  8
241
 10
173.26900000000001
 20
-18.252199999999998
 30
0.0
 70
    32
  0
VERTEX
  5
1E6D
  8
241
 10
173.27699999999999
 20
-18.2498
 30
0.0
 70
    32
  0
VERTEX
  5
1E6E
  8
241
 10
173.28399999999999
 20
-18.247299999999999
 30
0.0
 70
    32
  0
VERTEX
  5
1E6F
  8
241
 10
173.292
 20
-18.244800000000001
 30
0.0
 70
    32
  0
VERTEX
  5
1E70
  8
241
 10
173.29900000000001
 20
-18.2422
 30
0.0
 70
    32
  0
VERTEX
  5
1E71
  8
241
 10
173.30699999999999
 20
-18.239699999999999
 30
0.0
 70
    32
  0
VERTEX
  5
1E72
  8
241
 10
173.31399999999999
 20
-18.237200000000001
 30
0.0
 70
    32
  0
VERTEX
  5
1E73
  8
241
 10
173.321
 20
-18.2346
 30
0.0
 70
    32
  0
VERTEX
  5
1E74
  8
241
 10
173.32900000000001
 20
-18.231999999999999
 30
0.0
 70
    32
  0
VERTEX
  5
1E75
  8
241
 10
173.33600000000001
 20
-18.229399999999998
 30
0.0
 70
    32
  0
VERTEX
  5
1E76
  8
241
 10
173.34399999999999
 20
-18.226800000000001
 30
0.0
 70
    32
  0
VERTEX
  5
1E77
  8
241
 10
173.351
 20
-18.2242
 30
0.0
 70
    32
  0
VERTEX
  5
1E78
  8
241
 10
173.358
 20
-18.221499999999999
 30
0.0
 70
    32
  0
VERTEX
  5
1E79
  8
241
 10
173.36600000000001
 20
-18.218900000000001
 30
0.0
 70
    32
  0
VERTEX
  5
1E7A
  8
241
 10
173.37299999999999
 20
-18.216200000000001
 30
0.0
 70
    32
  0
VERTEX
  5
1E7B
  8
241
 10
173.38
 20
-18.2135
 30
0.0
 70
    32
  0
VERTEX
  5
1E7C
  8
241
 10
173.38800000000001
 20
-18.210799999999999
 30
0.0
 70
    32
  0
VERTEX
  5
1E7D
  8
241
 10
173.39500000000001
 20
-18.208100000000002
 30
0.0
 70
    32
  0
VERTEX
  5
1E7E
  8
241
 10
173.40199999999999
 20
-18.205300000000001
 30
0.0
 70
    32
  0
VERTEX
  5
1E7F
  8
241
 10
173.41
 20
-18.2026
 30
0.0
 70
    32
  0
VERTEX
  5
1E80
  8
241
 10
173.417
 20
-18.1998
 30
0.0
 70
    32
  0
VERTEX
  5
1E81
  8
241
 10
173.42400000000001
 20
-18.196999999999999
 30
0.0
 70
    32
  0
VERTEX
  5
1E82
  8
241
 10
173.4309999999999
 20
-18.194199999999999
 30
0.0
 70
    32
  0
VERTEX
  5
1E83
  8
241
 10
173.43899999999999
 20
-18.191400000000002
 30
0.0
 70
    32
  0
VERTEX
  5
1E84
  8
241
 10
173.446
 20
-18.188600000000001
 30
0.0
 70
    32
  0
VERTEX
  5
1E85
  8
241
 10
173.453
 20
-18.1858
 30
0.0
 70
    32
  0
VERTEX
  5
1E86
  8
241
 10
173.46000000000001
 20
-18.1829
 30
0.0
 70
    32
  0
VERTEX
  5
1E87
  8
241
 10
173.46700000000001
 20
-18.18
 30
0.0
 70
    32
  0
VERTEX
  5
1E88
  8
241
 10
173.47399999999999
 20
-18.177099999999999
 30
0.0
 70
    32
  0
VERTEX
  5
1E89
  8
241
 10
173.482
 20
-18.174199999999999
 30
0.0
 70
    32
  0
VERTEX
  5
1E8A
  8
241
 10
173.489
 20
-18.171299999999999
 30
0.0
 70
    32
  0
VERTEX
  5
1E8B
  8
241
 10
173.49600000000001
 20
-18.168399999999998
 30
0.0
 70
    32
  0
VERTEX
  5
1E8C
  8
241
 10
173.50299999999999
 20
-18.165500000000002
 30
0.0
 70
    32
  0
VERTEX
  5
1E8D
  8
241
 10
173.50999999999999
 20
-18.162500000000001
 30
0.0
 70
    32
  0
VERTEX
  5
1E8E
  8
241
 10
173.517
 20
-18.159500000000001
 30
0.0
 70
    32
  0
VERTEX
  5
1E8F
  8
241
 10
173.524
 20
-18.156500000000001
 30
0.0
 70
    32
  0
VERTEX
  5
1E90
  8
241
 10
173.53100000000001
 20
-18.153500000000001
 30
0.0
 70
    32
  0
VERTEX
  5
1E91
  8
241
 10
173.53800000000001
 20
-18.150500000000001
 30
0.0
 70
    32
  0
VERTEX
  5
1E92
  8
241
 10
173.54499999999999
 20
-18.147500000000001
 30
0.0
 70
    32
  0
VERTEX
  5
1E93
  8
241
 10
173.55199999999999
 20
-18.144400000000001
 30
0.0
 70
    32
  0
VERTEX
  5
1E94
  8
241
 10
173.559
 20
-18.141400000000001
 30
0.0
 70
    32
  0
VERTEX
  5
1E95
  8
241
 10
173.566
 20
-18.138300000000001
 30
0.0
 70
    32
  0
VERTEX
  5
1E96
  8
241
 10
173.57300000000001
 20
-18.135200000000001
 30
0.0
 70
    32
  0
VERTEX
  5
1E97
  8
241
 10
173.58000000000001
 20
-18.132100000000001
 30
0.0
 70
    32
  0
VERTEX
  5
1E98
  8
241
 10
173.58699999999999
 20
-18.129000000000001
 30
0.0
 70
    32
  0
VERTEX
  5
1E99
  8
241
 10
173.59399999999999
 20
-18.125900000000001
 30
0.0
 70
    32
  0
VERTEX
  5
1E9A
  8
241
 10
173.601
 20
-18.122800000000002
 30
0.0
 70
    32
  0
VERTEX
  5
1E9B
  8
241
 10
173.608
 20
-18.119599999999998
 30
0.0
 70
    32
  0
VERTEX
  5
1E9C
  8
241
 10
173.614
 20
-18.116499999999998
 30
0.0
 70
    32
  0
VERTEX
  5
1E9D
  8
241
 10
173.6209999999999
 20
-18.113299999999999
 30
0.0
 70
    32
  0
VERTEX
  5
1E9E
  8
241
 10
173.62799999999999
 20
-18.110099999999999
 30
0.0
 70
    32
  0
VERTEX
  5
1E9F
  8
241
 10
173.63499999999999
 20
-18.1069
 30
0.0
 70
    32
  0
VERTEX
  5
1EA0
  8
241
 10
173.642
 20
-18.1037
 30
0.0
 70
    32
  0
VERTEX
  5
1EA1
  8
241
 10
173.648
 20
-18.1005
 30
0.0
 70
    32
  0
VERTEX
  5
1EA2
  8
241
 10
173.655
 20
-18.097200000000001
 30
0.0
 70
    32
  0
VERTEX
  5
1EA3
  8
241
 10
173.66200000000001
 20
-18.094000000000001
 30
0.0
 70
    32
  0
VERTEX
  5
1EA4
  8
241
 10
173.66900000000001
 20
-18.090699999999998
 30
0.0
 70
    32
  0
VERTEX
  5
1EA5
  8
241
 10
173.67500000000001
 20
-18.087399999999999
 30
0.0
 70
    32
  0
VERTEX
  5
1EA6
  8
241
 10
173.68199999999999
 20
-18.084099999999999
 30
0.0
 70
    32
  0
VERTEX
  5
1EA7
  8
241
 10
173.68899999999999
 20
-18.0808
 30
0.0
 70
    32
  0
VERTEX
  5
1EA8
  8
241
 10
173.69499999999999
 20
-18.077500000000001
 30
0.0
 70
    32
  0
VERTEX
  5
1EA9
  8
241
 10
173.702
 20
-18.074200000000001
 30
0.0
 70
    32
  0
VERTEX
  5
1EAA
  8
241
 10
173.708
 20
-18.070799999999998
 30
0.0
 70
    32
  0
VERTEX
  5
1EAB
  8
241
 10
173.715
 20
-18.067499999999999
 30
0.0
 70
    32
  0
VERTEX
  5
1EAC
  8
241
 10
173.72200000000001
 20
-18.0641
 30
0.0
 70
    32
  0
VERTEX
  5
1EAD
  8
241
 10
173.72800000000001
 20
-18.060700000000001
 30
0.0
 70
    32
  0
VERTEX
  5
1EAE
  8
241
 10
173.73500000000001
 20
-18.057300000000001
 30
0.0
 70
    32
  0
VERTEX
  5
1EAF
  8
241
 10
173.74100000000001
 20
-18.053899999999999
 30
0.0
 70
    32
  0
VERTEX
  5
1EB0
  8
241
 10
173.74799999999999
 20
-18.0505
 30
0.0
 70
    32
  0
VERTEX
  5
1EB1
  8
241
 10
173.75399999999999
 20
-18.047000000000001
 30
0.0
 70
    32
  0
VERTEX
  5
1EB2
  8
241
 10
173.761
 20
-18.043600000000001
 30
0.0
 70
    32
  0
VERTEX
  5
1EB3
  8
241
 10
173.767
 20
-18.040099999999999
 30
0.0
 70
    32
  0
VERTEX
  5
1EB4
  8
241
 10
173.773
 20
-18.0366
 30
0.0
 70
    32
  0
VERTEX
  5
1EB5
  8
241
 10
173.78
 20
-18.033100000000001
 30
0.0
 70
    32
  0
VERTEX
  5
1EB6
  8
241
 10
173.78599999999989
 20
-18.029599999999999
 30
0.0
 70
    32
  0
VERTEX
  5
1EB7
  8
241
 10
173.79300000000001
 20
-18.0261
 30
0.0
 70
    32
  0
VERTEX
  5
1EB8
  8
241
 10
173.79900000000001
 20
-18.022600000000001
 30
0.0
 70
    32
  0
VERTEX
  5
1EB9
  8
241
 10
173.80500000000001
 20
-18.018999999999998
 30
0.0
 70
    32
  0
VERTEX
  5
1EBA
  8
241
 10
173.81200000000001
 20
-18.015499999999999
 30
0.0
 70
    32
  0
VERTEX
  5
1EBB
  8
241
 10
173.81800000000001
 20
-18.011900000000001
 30
0.0
 70
    32
  0
VERTEX
  5
1EBC
  8
241
 10
173.82400000000001
 20
-18.008299999999998
 30
0.0
 70
    32
  0
VERTEX
  5
1EBD
  8
241
 10
173.83000000000001
 20
-18.0047
 30
0.0
 70
    32
  0
VERTEX
  5
1EBE
  8
241
 10
173.83699999999999
 20
-18.001100000000001
 30
0.0
 70
    32
  0
VERTEX
  5
1EBF
  8
241
 10
173.84299999999999
 20
-17.997499999999999
 30
0.0
 70
    32
  0
VERTEX
  5
1EC0
  8
241
 10
173.84899999999999
 20
-17.9938
 30
0.0
 70
    32
  0
VERTEX
  5
1EC1
  8
241
 10
173.85499999999999
 20
-17.990200000000002
 30
0.0
 70
    32
  0
VERTEX
  5
1EC2
  8
241
 10
173.86199999999999
 20
-17.986499999999999
 30
0.0
 70
    32
  0
VERTEX
  5
1EC3
  8
241
 10
173.86799999999999
 20
-17.982900000000001
 30
0.0
 70
    32
  0
VERTEX
  5
1EC4
  8
241
 10
173.874
 20
-17.979199999999999
 30
0.0
 70
    32
  0
VERTEX
  5
1EC5
  8
241
 10
173.88
 20
-17.9755
 30
0.0
 70
    32
  0
VERTEX
  5
1EC6
  8
241
 10
173.886
 20
-17.971699999999998
 30
0.0
 70
    32
  0
VERTEX
  5
1EC7
  8
241
 10
173.892
 20
-17.968
 30
0.0
 70
    32
  0
VERTEX
  5
1EC8
  8
241
 10
173.898
 20
-17.964300000000001
 30
0.0
 70
    32
  0
VERTEX
  5
1EC9
  8
241
 10
173.904
 20
-17.9605
 30
0.0
 70
    32
  0
VERTEX
  5
1ECA
  8
241
 10
173.91
 20
-17.956700000000001
 30
0.0
 70
    32
  0
VERTEX
  5
1ECB
  8
241
 10
173.916
 20
-17.9529
 30
0.0
 70
    32
  0
VERTEX
  5
1ECC
  8
241
 10
173.923
 20
-17.949200000000001
 30
0.0
 70
    32
  0
VERTEX
  5
1ECD
  8
241
 10
173.928
 20
-17.9453
 30
0.0
 70
    32
  0
VERTEX
  5
1ECE
  8
241
 10
173.934
 20
-17.941500000000001
 30
0.0
 70
    32
  0
VERTEX
  5
1ECF
  8
241
 10
173.94
 20
-17.9377
 30
0.0
 70
    32
  0
VERTEX
  5
1ED0
  8
241
 10
173.946
 20
-17.933800000000002
 30
0.0
 70
    32
  0
VERTEX
  5
1ED1
  8
241
 10
173.952
 20
-17.93
 30
0.0
 70
    32
  0
VERTEX
  5
1ED2
  8
241
 10
173.958
 20
-17.926100000000002
 30
0.0
 70
    32
  0
VERTEX
  5
1ED3
  8
241
 10
173.964
 20
-17.9222
 30
0.0
 70
    32
  0
VERTEX
  5
1ED4
  8
241
 10
173.97
 20
-17.918299999999999
 30
0.0
 70
    32
  0
VERTEX
  5
1ED5
  8
241
 10
173.976
 20
-17.914300000000001
 30
0.0
 70
    32
  0
VERTEX
  5
1ED6
  8
241
 10
173.982
 20
-17.910399999999999
 30
0.0
 70
    32
  0
VERTEX
  5
1ED7
  8
241
 10
173.988
 20
-17.906400000000001
 30
0.0
 70
    32
  0
VERTEX
  5
1ED8
  8
241
 10
173.99299999999999
 20
-17.9025
 30
0.0
 70
    32
  0
VERTEX
  5
1ED9
  8
241
 10
173.999
 20
-17.898499999999999
 30
0.0
 70
    32
  0
VERTEX
  5
1EDA
  8
241
 10
174.005
 20
-17.894500000000001
 30
0.0
 70
    32
  0
VERTEX
  5
1EDB
  8
241
 10
174.011
 20
-17.890499999999999
 30
0.0
 70
    32
  0
VERTEX
  5
1EDC
  8
241
 10
174.017
 20
-17.886500000000002
 30
0.0
 70
    32
  0
VERTEX
  5
1EDD
  8
241
 10
174.02199999999999
 20
-17.882400000000001
 30
0.0
 70
    32
  0
VERTEX
  5
1EDE
  8
241
 10
174.02799999999999
 20
-17.878399999999999
 30
0.0
 70
    32
  0
VERTEX
  5
1EDF
  8
241
 10
174.03399999999999
 20
-17.874300000000002
 30
0.0
 70
    32
  0
VERTEX
  5
1EE0
  8
241
 10
174.03899999999999
 20
-17.870200000000001
 30
0.0
 70
    32
  0
VERTEX
  5
1EE1
  8
241
 10
174.04499999999999
 20
-17.866099999999999
 30
0.0
 70
    32
  0
VERTEX
  5
1EE2
  8
241
 10
174.05099999999999
 20
-17.861999999999998
 30
0.0
 70
    32
  0
VERTEX
  5
1EE3
  8
241
 10
174.05600000000001
 20
-17.857900000000001
 30
0.0
 70
    32
  0
VERTEX
  5
1EE4
  8
241
 10
174.06200000000001
 20
-17.8538
 30
0.0
 70
    32
  0
VERTEX
  5
1EE5
  8
241
 10
174.06700000000001
 20
-17.849599999999999
 30
0.0
 70
    32
  0
VERTEX
  5
1EE6
  8
241
 10
174.07300000000001
 20
-17.845400000000001
 30
0.0
 70
    32
  0
VERTEX
  5
1EE7
  8
241
 10
174.07900000000001
 20
-17.8413
 30
0.0
 70
    32
  0
VERTEX
  5
1EE8
  8
241
 10
174.084
 20
-17.8371
 30
0.0
 70
    32
  0
VERTEX
  5
1EE9
  8
241
 10
174.09
 20
-17.832899999999999
 30
0.0
 70
    32
  0
VERTEX
  5
1EEA
  8
241
 10
174.095
 20
-17.828700000000001
 30
0.0
 70
    32
  0
VERTEX
  5
1EEB
  8
241
 10
174.101
 20
-17.824400000000001
 30
0.0
 70
    32
  0
VERTEX
  5
1EEC
  8
241
 10
174.10599999999999
 20
-17.8202
 30
0.0
 70
    32
  0
VERTEX
  5
1EED
  8
241
 10
174.11199999999999
 20
-17.815999999999999
 30
0.0
 70
    32
  0
VERTEX
  5
1EEE
  8
241
 10
174.11699999999999
 20
-17.811699999999998
 30
0.0
 70
    32
  0
VERTEX
  5
1EEF
  8
241
 10
174.12200000000001
 20
-17.807400000000001
 30
0.0
 70
    32
  0
VERTEX
  5
1EF0
  8
241
 10
174.12799999999999
 20
-17.803100000000001
 30
0.0
 70
    32
  0
VERTEX
  5
1EF1
  8
241
 10
174.13300000000001
 20
-17.7988
 30
0.0
 70
    32
  0
VERTEX
  5
1EF2
  8
241
 10
174.13800000000001
 20
-17.794499999999999
 30
0.0
 70
    32
  0
VERTEX
  5
1EF3
  8
241
 10
174.14400000000001
 20
-17.790199999999999
 30
0.0
 70
    32
  0
VERTEX
  5
1EF4
  8
241
 10
174.149
 20
-17.785900000000002
 30
0.0
 70
    32
  0
VERTEX
  5
1EF5
  8
241
 10
174.154
 20
-17.781500000000001
 30
0.0
 70
    32
  0
VERTEX
  5
1EF6
  8
241
 10
174.16
 20
-17.777200000000001
 30
0.0
 70
    32
  0
VERTEX
  5
1EF7
  8
241
 10
174.16499999999999
 20
-17.7728
 30
0.0
 70
    32
  0
VERTEX
  5
1EF8
  8
241
 10
174.1699999999999
 20
-17.7684
 30
0.0
 70
    32
  0
VERTEX
  5
1EF9
  8
241
 10
174.17500000000001
 20
-17.763999999999999
 30
0.0
 70
    32
  0
VERTEX
  5
1EFA
  8
241
 10
174.18000000000001
 20
-17.759599999999999
 30
0.0
 70
    32
  0
VERTEX
  5
1EFB
  8
241
 10
174.18599999999989
 20
-17.755199999999999
 30
0.0
 70
    32
  0
VERTEX
  5
1EFC
  8
241
 10
174.191
 20
-17.750800000000002
 30
0.0
 70
    32
  0
VERTEX
  5
1EFD
  8
241
 10
174.196
 20
-17.746300000000002
 30
0.0
 70
    32
  0
VERTEX
  5
1EFE
  8
241
 10
174.20099999999999
 20
-17.741900000000001
 30
0.0
 70
    32
  0
VERTEX
  5
1EFF
  8
241
 10
174.20599999999999
 20
-17.737400000000001
 30
0.0
 70
    32
  0
VERTEX
  5
1F00
  8
241
 10
174.21100000000001
 20
-17.733000000000001
 30
0.0
 70
    32
  0
VERTEX
  5
1F01
  8
241
 10
174.21600000000001
 20
-17.7285
 30
0.0
 70
    32
  0
VERTEX
  5
1F02
  8
241
 10
174.221
 20
-17.724
 30
0.0
 70
    32
  0
VERTEX
  5
1F03
  8
241
 10
174.226
 20
-17.7195
 30
0.0
 70
    32
  0
VERTEX
  5
1F04
  8
241
 10
174.23099999999999
 20
-17.715
 30
0.0
 70
    32
  0
VERTEX
  5
1F05
  8
241
 10
174.23599999999999
 20
-17.7105
 30
0.0
 70
    32
  0
VERTEX
  5
1F06
  8
241
 10
174.24100000000001
 20
-17.7059
 30
0.0
 70
    32
  0
VERTEX
  5
1F07
  8
241
 10
174.24600000000001
 20
-17.7014
 30
0.0
 70
    32
  0
VERTEX
  5
1F08
  8
241
 10
174.251
 20
-17.6968
 30
0.0
 70
    32
  0
VERTEX
  5
1F09
  8
241
 10
174.255
 20
-17.692299999999999
 30
0.0
 70
    32
  0
VERTEX
  5
1F0A
  8
241
 10
174.25999999999999
 20
-17.6877
 30
0.0
 70
    32
  0
VERTEX
  5
1F0B
  8
241
 10
174.26499999999999
 20
-17.6831
 30
0.0
 70
    32
  0
VERTEX
  5
1F0C
  8
241
 10
174.27000000000001
 20
-17.6785
 30
0.0
 70
    32
  0
VERTEX
  5
1F0D
  8
241
 10
174.27500000000001
 20
-17.6739
 30
0.0
 70
    32
  0
VERTEX
  5
1F0E
  8
241
 10
174.279
 20
-17.6693
 30
0.0
 70
    32
  0
VERTEX
  5
1F0F
  8
241
 10
174.28399999999999
 20
-17.6647
 30
0.0
 70
    32
  0
VERTEX
  5
1F10
  8
241
 10
174.28899999999999
 20
-17.6601
 30
0.0
 70
    32
  0
VERTEX
  5
1F11
  8
241
 10
174.29300000000001
 20
-17.6554
 30
0.0
 70
    32
  0
VERTEX
  5
1F12
  8
241
 10
174.298
 20
-17.6508
 30
0.0
 70
    32
  0
VERTEX
  5
1F13
  8
241
 10
174.303
 20
-17.646100000000001
 30
0.0
 70
    32
  0
VERTEX
  5
1F14
  8
241
 10
174.30699999999999
 20
-17.641500000000001
 30
0.0
 70
    32
  0
VERTEX
  5
1F15
  8
241
 10
174.31200000000001
 20
-17.636800000000001
 30
0.0
 70
    32
  0
VERTEX
  5
1F16
  8
241
 10
174.316
 20
-17.632100000000001
 30
0.0
 70
    32
  0
VERTEX
  5
1F17
  8
241
 10
174.321
 20
-17.627400000000002
 30
0.0
 70
    32
  0
VERTEX
  5
1F18
  8
241
 10
174.32499999999999
 20
-17.622699999999998
 30
0.0
 70
    32
  0
VERTEX
  5
1F19
  8
241
 10
174.33000000000001
 20
-17.617999999999999
 30
0.0
 70
    32
  0
VERTEX
  5
1F1A
  8
241
 10
174.334
 20
-17.613199999999999
 30
0.0
 70
    32
  0
VERTEX
  5
1F1B
  8
241
 10
174.339
 20
-17.608499999999999
 30
0.0
 70
    32
  0
VERTEX
  5
1F1C
  8
241
 10
174.34299999999999
 20
-17.6038
 30
0.0
 70
    32
  0
VERTEX
  5
1F1D
  8
241
 10
174.34700000000001
 20
-17.599
 30
0.0
 70
    32
  0
VERTEX
  5
1F1E
  8
241
 10
174.352
 20
-17.594200000000001
 30
0.0
 70
    32
  0
VERTEX
  5
1F1F
  8
241
 10
174.35599999999999
 20
-17.589500000000001
 30
0.0
 70
    32
  0
VERTEX
  5
1F20
  8
241
 10
174.36099999999999
 20
-17.584700000000002
 30
0.0
 70
    32
  0
VERTEX
  5
1F21
  8
241
 10
174.36500000000001
 20
-17.579899999999999
 30
0.0
 70
    32
  0
VERTEX
  5
1F22
  8
241
 10
174.369
 20
-17.575099999999999
 30
0.0
 70
    32
  0
VERTEX
  5
1F23
  8
241
 10
174.37299999999999
 20
-17.5703
 30
0.0
 70
    32
  0
VERTEX
  5
1F24
  8
241
 10
174.37799999999999
 20
-17.5654
 30
0.0
 70
    32
  0
VERTEX
  5
1F25
  8
241
 10
174.38200000000001
 20
-17.560600000000001
 30
0.0
 70
    32
  0
VERTEX
  5
1F26
  8
241
 10
174.386
 20
-17.555800000000001
 30
0.0
 70
    32
  0
VERTEX
  5
1F27
  8
241
 10
174.38999999999999
 20
-17.550899999999999
 30
0.0
 70
    32
  0
VERTEX
  5
1F28
  8
241
 10
174.39400000000001
 20
-17.545999999999999
 30
0.0
 70
    32
  0
VERTEX
  5
1F29
  8
241
 10
174.398
 20
-17.5412
 30
0.0
 70
    32
  0
VERTEX
  5
1F2A
  8
241
 10
174.40199999999999
 20
-17.536300000000001
 30
0.0
 70
    32
  0
VERTEX
  5
1F2B
  8
241
 10
174.40700000000001
 20
-17.531400000000001
 30
0.0
 70
    32
  0
VERTEX
  5
1F2C
  8
241
 10
174.411
 20
-17.526499999999999
 30
0.0
 70
    32
  0
VERTEX
  5
1F2D
  8
241
 10
174.41499999999999
 20
-17.521599999999999
 30
0.0
 70
    32
  0
VERTEX
  5
1F2E
  8
241
 10
174.41900000000001
 20
-17.5166
 30
0.0
 70
    32
  0
VERTEX
  5
1F2F
  8
241
 10
174.423
 20
-17.511700000000001
 30
0.0
 70
    32
  0
VERTEX
  5
1F30
  8
241
 10
174.42699999999999
 20
-17.506699999999999
 30
0.0
 70
    32
  0
VERTEX
  5
1F31
  8
241
 10
174.43100000000001
 20
-17.501799999999999
 30
0.0
 70
    32
  0
VERTEX
  5
1F32
  8
241
 10
174.434
 20
-17.4968
 30
0.0
 70
    32
  0
VERTEX
  5
1F33
  8
241
 10
174.43799999999999
 20
-17.491900000000001
 30
0.0
 70
    32
  0
VERTEX
  5
1F34
  8
241
 10
174.44200000000001
 20
-17.486899999999999
 30
0.0
 70
    32
  0
VERTEX
  5
1F35
  8
241
 10
174.446
 20
-17.4819
 30
0.0
 70
    32
  0
VERTEX
  5
1F36
  8
241
 10
174.44999999999999
 20
-17.476900000000001
 30
0.0
 70
    32
  0
VERTEX
  5
1F37
  8
241
 10
174.45400000000001
 20
-17.471800000000002
 30
0.0
 70
    32
  0
VERTEX
  5
1F38
  8
241
 10
174.45699999999999
 20
-17.466799999999999
 30
0.0
 70
    32
  0
VERTEX
  5
1F39
  8
241
 10
174.4609999999999
 20
-17.4618
 30
0.0
 70
    32
  0
VERTEX
  5
1F3A
  8
241
 10
174.465
 20
-17.456700000000001
 30
0.0
 70
    32
  0
VERTEX
  5
1F3B
  8
241
 10
174.46899999999999
 20
-17.451699999999999
 30
0.0
 70
    32
  0
VERTEX
  5
1F3C
  8
241
 10
174.47200000000001
 20
-17.4466
 30
0.0
 70
    32
  0
VERTEX
  5
1F3D
  8
241
 10
174.476
 20
-17.441500000000001
 30
0.0
 70
    32
  0
VERTEX
  5
1F3E
  8
241
 10
174.47999999999999
 20
-17.436499999999999
 30
0.0
 70
    32
  0
VERTEX
  5
1F3F
  8
241
 10
174.483
 20
-17.4314
 30
0.0
 70
    32
  0
VERTEX
  5
1F40
  8
241
 10
174.48699999999999
 20
-17.426200000000001
 30
0.0
 70
    32
  0
VERTEX
  5
1F41
  8
241
 10
174.49100000000001
 20
-17.421099999999999
 30
0.0
 70
    32
  0
VERTEX
  5
1F42
  8
241
 10
174.494
 20
-17.416
 30
0.0
 70
    32
  0
VERTEX
  5
1F43
  8
241
 10
174.49799999999999
 20
-17.410900000000002
 30
0.0
 70
    32
  0
VERTEX
  5
1F44
  8
241
 10
174.50099999999989
 20
-17.4057
 30
0.0
 70
    32
  0
VERTEX
  5
1F45
  8
241
 10
174.505
 20
-17.400600000000001
 30
0.0
 70
    32
  0
VERTEX
  5
1F46
  8
241
 10
174.5079999999999
 20
-17.395399999999999
 30
0.0
 70
    32
  0
VERTEX
  5
1F47
  8
241
 10
174.512
 20
-17.3902
 30
0.0
 70
    32
  0
VERTEX
  5
1F48
  8
241
 10
174.51499999999999
 20
-17.385000000000002
 30
0.0
 70
    32
  0
VERTEX
  5
1F49
  8
241
 10
174.518
 20
-17.379799999999999
 30
0.0
 70
    32
  0
VERTEX
  5
1F4A
  8
241
 10
174.52199999999999
 20
-17.374600000000001
 30
0.0
 70
    32
  0
VERTEX
  5
1F4B
  8
241
 10
174.52500000000001
 20
-17.369399999999999
 30
0.0
 70
    32
  0
VERTEX
  5
1F4C
  8
241
 10
174.52799999999999
 20
-17.3642
 30
0.0
 70
    32
  0
VERTEX
  5
1F4D
  8
241
 10
174.53200000000001
 20
-17.358899999999998
 30
0.0
 70
    32
  0
VERTEX
  5
1F4E
  8
241
 10
174.535
 20
-17.3537
 30
0.0
 70
    32
  0
VERTEX
  5
1F4F
  8
241
 10
174.53800000000001
 20
-17.348400000000002
 30
0.0
 70
    32
  0
VERTEX
  5
1F50
  8
241
 10
174.542
 20
-17.3431
 30
0.0
 70
    32
  0
VERTEX
  5
1F51
  8
241
 10
174.54499999999999
 20
-17.337800000000001
 30
0.0
 70
    32
  0
VERTEX
  5
1F52
  8
241
 10
174.548
 20
-17.332599999999999
 30
0.0
 70
    32
  0
VERTEX
  5
1F53
  8
241
 10
174.55099999999999
 20
-17.327200000000001
 30
0.0
 70
    32
  0
VERTEX
  5
1F54
  8
241
 10
174.554
 20
-17.321899999999999
 30
0.0
 70
    32
  0
VERTEX
  5
1F55
  8
241
 10
174.55699999999999
 20
-17.316600000000001
 30
0.0
 70
    32
  0
VERTEX
  5
1F56
  8
241
 10
174.56
 20
-17.311299999999999
 30
0.0
 70
    32
  0
VERTEX
  5
1F57
  8
241
 10
174.56399999999999
 20
-17.305900000000001
 30
0.0
 70
    32
  0
VERTEX
  5
1F58
  8
241
 10
174.56700000000001
 20
-17.300599999999999
 30
0.0
 70
    32
  0
VERTEX
  5
1F59
  8
241
 10
174.56999999999999
 20
-17.295200000000001
 30
0.0
 70
    32
  0
VERTEX
  5
1F5A
  8
241
 10
174.57300000000001
 20
-17.289899999999999
 30
0.0
 70
    32
  0
VERTEX
  5
1F5B
  8
241
 10
174.57599999999999
 20
-17.284500000000001
 30
0.0
 70
    32
  0
VERTEX
  5
1F5C
  8
241
 10
174.57900000000001
 20
-17.2791
 30
0.0
 70
    32
  0
VERTEX
  5
1F5D
  8
241
 10
174.58099999999999
 20
-17.273700000000002
 30
0.0
 70
    32
  0
VERTEX
  5
1F5E
  8
241
 10
174.584
 20
-17.2683
 30
0.0
 70
    32
  0
VERTEX
  5
1F5F
  8
241
 10
174.58699999999999
 20
-17.262899999999998
 30
0.0
 70
    32
  0
VERTEX
  5
1F60
  8
241
 10
174.59
 20
-17.2575
 30
0.0
 70
    32
  0
VERTEX
  5
1F61
  8
241
 10
174.59299999999999
 20
-17.252099999999999
 30
0.0
 70
    32
  0
VERTEX
  5
1F62
  8
241
 10
174.596
 20
-17.246600000000001
 30
0.0
 70
    32
  0
VERTEX
  5
1F63
  8
241
 10
174.59899999999999
 20
-17.241199999999999
 30
0.0
 70
    32
  0
VERTEX
  5
1F64
  8
241
 10
174.601
 20
-17.235700000000001
 30
0.0
 70
    32
  0
VERTEX
  5
1F65
  8
241
 10
174.60400000000001
 20
-17.2303
 30
0.0
 70
    32
  0
VERTEX
  5
1F66
  8
241
 10
174.607
 20
-17.224799999999998
 30
0.0
 70
    32
  0
VERTEX
  5
1F67
  8
241
 10
174.60900000000001
 20
-17.2193
 30
0.0
 70
    32
  0
VERTEX
  5
1F68
  8
241
 10
174.61199999999999
 20
-17.213799999999999
 30
0.0
 70
    32
  0
VERTEX
  5
1F69
  8
241
 10
174.61500000000001
 20
-17.208300000000001
 30
0.0
 70
    32
  0
VERTEX
  5
1F6A
  8
241
 10
174.61699999999999
 20
-17.2029
 30
0.0
 70
    32
  0
VERTEX
  5
1F6B
  8
241
 10
174.62
 20
-17.197299999999998
 30
0.0
 70
    32
  0
VERTEX
  5
1F6C
  8
241
 10
174.62200000000001
 20
-17.191800000000001
 30
0.0
 70
    32
  0
VERTEX
  5
1F6D
  8
241
 10
174.625
 20
-17.186299999999999
 30
0.0
 70
    32
  0
VERTEX
  5
1F6E
  8
241
 10
174.62799999999999
 20
-17.180800000000001
 30
0.0
 70
    32
  0
VERTEX
  5
1F6F
  8
241
 10
174.63
 20
-17.1753
 30
0.0
 70
    32
  0
VERTEX
  5
1F70
  8
241
 10
174.63200000000001
 20
-17.169699999999999
 30
0.0
 70
    32
  0
VERTEX
  5
1F71
  8
241
 10
174.63499999999999
 20
-17.164200000000001
 30
0.0
 70
    32
  0
VERTEX
  5
1F72
  8
241
 10
174.637
 20
-17.1586
 30
0.0
 70
    32
  0
VERTEX
  5
1F73
  8
241
 10
174.63999999999999
 20
-17.153099999999998
 30
0.0
 70
    32
  0
VERTEX
  5
1F74
  8
241
 10
174.642
 20
-17.147500000000001
 30
0.0
 70
    32
  0
VERTEX
  5
1F75
  8
241
 10
174.64400000000001
 20
-17.1419
 30
0.0
 70
    32
  0
VERTEX
  5
1F76
  8
241
 10
174.64699999999999
 20
-17.136299999999999
 30
0.0
 70
    32
  0
VERTEX
  5
1F77
  8
241
 10
174.649
 20
-17.130800000000001
 30
0.0
 70
    32
  0
VERTEX
  5
1F78
  8
241
 10
174.6509999999999
 20
-17.1252
 30
0.0
 70
    32
  0
VERTEX
  5
1F79
  8
241
 10
174.654
 20
-17.119599999999998
 30
0.0
 70
    32
  0
VERTEX
  5
1F7A
  8
241
 10
174.65600000000001
 20
-17.114000000000001
 30
0.0
 70
    32
  0
VERTEX
  5
1F7B
  8
241
 10
174.6579999999999
 20
-17.1084
 30
0.0
 70
    32
  0
VERTEX
  5
1F7C
  8
241
 10
174.66
 20
-17.102799999999998
 30
0.0
 70
    32
  0
VERTEX
  5
1F7D
  8
241
 10
174.66200000000001
 20
-17.097200000000001
 30
0.0
 70
    32
  0
VERTEX
  5
1F7E
  8
241
 10
174.66399999999999
 20
-17.0915
 30
0.0
 70
    32
  0
VERTEX
  5
1F7F
  8
241
 10
174.666
 20
-17.085899999999999
 30
0.0
 70
    32
  0
VERTEX
  5
1F80
  8
241
 10
174.66800000000001
 20
-17.080300000000001
 30
0.0
 70
    32
  0
VERTEX
  5
1F81
  8
241
 10
174.66999999999999
 20
-17.0746
 30
0.0
 70
    32
  0
VERTEX
  5
1F82
  8
241
 10
174.673
 20
-17.068999999999999
 30
0.0
 70
    32
  0
VERTEX
  5
1F83
  8
241
 10
174.67400000000001
 20
-17.063300000000002
 30
0.0
 70
    32
  0
VERTEX
  5
1F84
  8
241
 10
174.67599999999999
 20
-17.057700000000001
 30
0.0
 70
    32
  0
VERTEX
  5
1F85
  8
241
 10
174.678
 20
-17.052
 30
0.0
 70
    32
  0
VERTEX
  5
1F86
  8
241
 10
174.68000000000001
 20
-17.046399999999998
 30
0.0
 70
    32
  0
VERTEX
  5
1F87
  8
241
 10
174.68199999999999
 20
-17.040700000000001
 30
0.0
 70
    32
  0
VERTEX
  5
1F88
  8
241
 10
174.684
 20
-17.0351
 30
0.0
 70
    32
  0
VERTEX
  5
1F89
  8
241
 10
174.68600000000001
 20
-17.029399999999999
 30
0.0
 70
    32
  0
VERTEX
  5
1F8A
  8
241
 10
174.68799999999999
 20
-17.023700000000002
 30
0.0
 70
    32
  0
VERTEX
  5
1F8B
  8
241
 10
174.68899999999999
 20
-17.018000000000001
 30
0.0
 70
    32
  0
VERTEX
  5
1F8C
  8
241
 10
174.69099999999989
 20
-17.0123
 30
0.0
 70
    32
  0
VERTEX
  5
1F8D
  8
241
 10
174.69300000000001
 20
-17.006699999999999
 30
0.0
 70
    32
  0
VERTEX
  5
1F8E
  8
241
 10
174.69499999999999
 20
-17.001000000000001
 30
0.0
 70
    32
  0
VERTEX
  5
1F8F
  8
241
 10
174.696
 20
-16.9953
 30
0.0
 70
    32
  0
VERTEX
  5
1F90
  8
241
 10
174.69799999999989
 20
-16.989599999999999
 30
0.0
 70
    32
  0
VERTEX
  5
1F91
  8
241
 10
174.69900000000001
 20
-16.983899999999998
 30
0.0
 70
    32
  0
VERTEX
  5
1F92
  8
241
 10
174.70099999999999
 20
-16.978200000000001
 30
0.0
 70
    32
  0
VERTEX
  5
1F93
  8
241
 10
174.703
 20
-16.9725
 30
0.0
 70
    32
  0
VERTEX
  5
1F94
  8
241
 10
174.70400000000001
 20
-16.966699999999999
 30
0.0
 70
    32
  0
VERTEX
  5
1F95
  8
241
 10
174.70599999999999
 20
-16.960999999999999
 30
0.0
 70
    32
  0
VERTEX
  5
1F96
  8
241
 10
174.70699999999999
 20
-16.955300000000001
 30
0.0
 70
    32
  0
VERTEX
  5
1F97
  8
241
 10
174.709
 20
-16.9496
 30
0.0
 70
    32
  0
VERTEX
  5
1F98
  8
241
 10
174.71000000000001
 20
-16.9438
 30
0.0
 70
    32
  0
VERTEX
  5
1F99
  8
241
 10
174.71199999999999
 20
-16.938099999999999
 30
0.0
 70
    32
  0
VERTEX
  5
1F9A
  8
241
 10
174.71299999999999
 20
-16.932300000000001
 30
0.0
 70
    32
  0
VERTEX
  5
1F9B
  8
241
 10
174.714
 20
-16.926600000000001
 30
0.0
 70
    32
  0
VERTEX
  5
1F9C
  8
241
 10
174.71600000000001
 20
-16.9208
 30
0.0
 70
    32
  0
VERTEX
  5
1F9D
  8
241
 10
174.71700000000001
 20
-16.915099999999999
 30
0.0
 70
    32
  0
VERTEX
  5
1F9E
  8
241
 10
174.71799999999999
 20
-16.909300000000002
 30
0.0
 70
    32
  0
VERTEX
  5
1F9F
  8
241
 10
174.71899999999999
 20
-16.903500000000001
 30
0.0
 70
    32
  0
VERTEX
  5
1FA0
  8
241
 10
174.72099999999989
 20
-16.8977
 30
0.0
 70
    32
  0
VERTEX
  5
1FA1
  8
241
 10
174.72200000000001
 20
-16.891999999999999
 30
0.0
 70
    32
  0
VERTEX
  5
1FA2
  8
241
 10
174.72300000000001
 20
-16.886199999999999
 30
0.0
 70
    32
  0
VERTEX
  5
1FA3
  8
241
 10
174.72399999999999
 20
-16.880400000000002
 30
0.0
 70
    32
  0
VERTEX
  5
1FA4
  8
241
 10
174.72499999999999
 20
-16.874600000000001
 30
0.0
 70
    32
  0
VERTEX
  5
1FA5
  8
241
 10
174.727
 20
-16.8688
 30
0.0
 70
    32
  0
VERTEX
  5
1FA6
  8
241
 10
174.72800000000001
 20
-16.863
 30
0.0
 70
    32
  0
VERTEX
  5
1FA7
  8
241
 10
174.72900000000001
 20
-16.857199999999999
 30
0.0
 70
    32
  0
VERTEX
  5
1FA8
  8
241
 10
174.72999999999999
 20
-16.851299999999998
 30
0.0
 70
    32
  0
VERTEX
  5
1FA9
  8
241
 10
174.73099999999999
 20
-16.845500000000001
 30
0.0
 70
    32
  0
VERTEX
  5
1FAA
  8
241
 10
174.732
 20
-16.839700000000001
 30
0.0
 70
    32
  0
VERTEX
  5
1FAB
  8
241
 10
174.733
 20
-16.8338
 30
0.0
 70
    32
  0
VERTEX
  5
1FAC
  8
241
 10
174.73400000000001
 20
-16.827999999999999
 30
0.0
 70
    32
  0
VERTEX
  5
1FAD
  8
241
 10
174.73400000000001
 20
-16.822199999999999
 30
0.0
 70
    32
  0
VERTEX
  5
1FAE
  8
241
 10
174.73500000000001
 20
-16.816299999999998
 30
0.0
 70
    32
  0
VERTEX
  5
1FAF
  8
241
 10
174.73599999999999
 20
-16.810500000000001
 30
0.0
 70
    32
  0
VERTEX
  5
1FB0
  8
241
 10
174.73699999999999
 20
-16.804600000000001
 30
0.0
 70
    32
  0
VERTEX
  5
1FB1
  8
241
 10
174.738
 20
-16.7987
 30
0.0
 70
    32
  0
VERTEX
  5
1FB2
  8
241
 10
174.739
 20
-16.792899999999999
 30
0.0
 70
    32
  0
VERTEX
  5
1FB3
  8
241
 10
174.739
 20
-16.786999999999999
 30
0.0
 70
    32
  0
VERTEX
  5
1FB4
  8
241
 10
174.74000000000001
 20
-16.781099999999999
 30
0.0
 70
    32
  0
VERTEX
  5
1FB5
  8
241
 10
174.74100000000001
 20
-16.775200000000002
 30
0.0
 70
    32
  0
VERTEX
  5
1FB6
  8
241
 10
174.74199999999999
 20
-16.769300000000001
 30
0.0
 70
    32
  0
VERTEX
  5
1FB7
  8
241
 10
174.74199999999999
 20
-16.763400000000001
 30
0.0
 70
    32
  0
VERTEX
  5
1FB8
  8
241
 10
174.74299999999999
 20
-16.7575
 30
0.0
 70
    32
  0
VERTEX
  5
1FB9
  8
241
 10
174.74299999999999
 20
-16.7516
 30
0.0
 70
    32
  0
VERTEX
  5
1FBA
  8
241
 10
174.744
 20
-16.745699999999999
 30
0.0
 70
    32
  0
VERTEX
  5
1FBB
  8
241
 10
174.744
 20
-16.739799999999999
 30
0.0
 70
    32
  0
VERTEX
  5
1FBC
  8
241
 10
174.745
 20
-16.733899999999998
 30
0.0
 70
    32
  0
VERTEX
  5
1FBD
  8
241
 10
174.74600000000001
 20
-16.727900000000002
 30
0.0
 70
    32
  0
VERTEX
  5
1FBE
  8
241
 10
174.74600000000001
 20
-16.722000000000001
 30
0.0
 70
    32
  0
VERTEX
  5
1FBF
  8
241
 10
174.74600000000001
 20
-16.716100000000001
 30
0.0
 70
    32
  0
VERTEX
  5
1FC0
  8
241
 10
174.74700000000001
 20
-16.710100000000001
 30
0.0
 70
    32
  0
VERTEX
  5
1FC1
  8
241
 10
174.74700000000001
 20
-16.7042
 30
0.0
 70
    32
  0
VERTEX
  5
1FC2
  8
241
 10
174.74799999999999
 20
-16.6982
 30
0.0
 70
    32
  0
VERTEX
  5
1FC3
  8
241
 10
174.74799999999999
 20
-16.692299999999999
 30
0.0
 70
    32
  0
VERTEX
  5
1FC4
  8
241
 10
174.74799999999999
 20
-16.686299999999999
 30
0.0
 70
    32
  0
VERTEX
  5
1FC5
  8
241
 10
174.749
 20
-16.680299999999999
 30
0.0
 70
    32
  0
VERTEX
  5
1FC6
  8
241
 10
174.749
 20
-16.674299999999999
 30
0.0
 70
    32
  0
VERTEX
  5
1FC7
  8
241
 10
174.749
 20
-16.668399999999998
 30
0.0
 70
    32
  0
VERTEX
  5
1FC8
  8
241
 10
174.749
 20
-16.662400000000002
 30
0.0
 70
    32
  0
VERTEX
  5
1FC9
  8
241
 10
174.749
 20
-16.656400000000001
 30
0.0
 70
    32
  0
VERTEX
  5
1FCA
  8
241
 10
174.75
 20
-16.650400000000001
 30
0.0
 70
    32
  0
VERTEX
  5
1FCB
  8
241
 10
174.75
 20
-16.644400000000001
 30
0.0
 70
    32
  0
VERTEX
  5
1FCC
  8
241
 10
174.75
 20
-16.638400000000001
 30
0.0
 70
    32
  0
VERTEX
  5
1FCD
  8
241
 10
174.75
 20
-16.632400000000001
 30
0.0
 70
    32
  0
VERTEX
  5
1FCE
  8
241
 10
174.75
 20
-16.626300000000001
 30
0.0
 70
    32
  0
VERTEX
  5
1FCF
  8
241
 10
174.75
 20
-16.6203
 30
0.0
 70
    32
  0
VERTEX
  5
1FD0
  8
241
 10
174.75
 20
-16.6143
 30
0.0
 70
    32
  0
VERTEX
  5
1FD1
  8
241
 10
174.75
 20
-16.6083
 30
0.0
 70
    32
  0
VERTEX
  5
1FD2
  8
241
 10
174.75
 20
-16.6022
 30
0.0
 70
    32
  0
VERTEX
  5
1FD3
  8
241
 10
174.75
 20
-16.5962
 30
0.0
 70
    32
  0
VERTEX
  5
1FD4
  8
241
 10
174.75
 20
-16.590199999999999
 30
0.0
 70
    32
  0
VERTEX
  5
1FD5
  8
241
 10
174.75
 20
-16.584199999999999
 30
0.0
 70
    32
  0
VERTEX
  5
1FD6
  8
241
 10
174.749
 20
-16.578099999999999
 30
0.0
 70
    32
  0
VERTEX
  5
1FD7
  8
241
 10
174.749
 20
-16.572099999999999
 30
0.0
 70
    32
  0
VERTEX
  5
1FD8
  8
241
 10
174.749
 20
-16.566099999999999
 30
0.0
 70
    32
  0
VERTEX
  5
1FD9
  8
241
 10
174.749
 20
-16.560099999999998
 30
0.0
 70
    32
  0
VERTEX
  5
1FDA
  8
241
 10
174.749
 20
-16.553999999999998
 30
0.0
 70
    32
  0
VERTEX
  5
1FDB
  8
241
 10
174.74799999999999
 20
-16.547999999999998
 30
0.0
 70
    32
  0
VERTEX
  5
1FDC
  8
241
 10
174.74799999999999
 20
-16.542000000000002
 30
0.0
 70
    32
  0
VERTEX
  5
1FDD
  8
241
 10
174.74799999999999
 20
-16.536000000000001
 30
0.0
 70
    32
  0
VERTEX
  5
1FDE
  8
241
 10
174.74700000000001
 20
-16.530000000000001
 30
0.0
 70
    32
  0
VERTEX
  5
1FDF
  8
241
 10
174.74700000000001
 20
-16.524000000000001
 30
0.0
 70
    32
  0
VERTEX
  5
1FE0
  8
241
 10
174.74600000000001
 20
-16.517900000000001
 30
0.0
 70
    32
  0
VERTEX
  5
1FE1
  8
241
 10
174.74600000000001
 20
-16.511900000000001
 30
0.0
 70
    32
  0
VERTEX
  5
1FE2
  8
241
 10
174.74600000000001
 20
-16.5059
 30
0.0
 70
    32
  0
VERTEX
  5
1FE3
  8
241
 10
174.745
 20
-16.4999
 30
0.0
 70
    32
  0
VERTEX
  5
1FE4
  8
241
 10
174.745
 20
-16.4939
 30
0.0
 70
    32
  0
VERTEX
  5
1FE5
  8
241
 10
174.744
 20
-16.4879
 30
0.0
 70
    32
  0
VERTEX
  5
1FE6
  8
241
 10
174.74299999999999
 20
-16.4819
 30
0.0
 70
    32
  0
VERTEX
  5
1FE7
  8
241
 10
174.74299999999999
 20
-16.475899999999999
 30
0.0
 70
    32
  0
VERTEX
  5
1FE8
  8
241
 10
174.74199999999999
 20
-16.469899999999999
 30
0.0
 70
    32
  0
VERTEX
  5
1FE9
  8
241
 10
174.74199999999999
 20
-16.463899999999999
 30
0.0
 70
    32
  0
VERTEX
  5
1FEA
  8
241
 10
174.74100000000001
 20
-16.457899999999999
 30
0.0
 70
    32
  0
VERTEX
  5
1FEB
  8
241
 10
174.74000000000001
 20
-16.451899999999998
 30
0.0
 70
    32
  0
VERTEX
  5
1FEC
  8
241
 10
174.739
 20
-16.445900000000002
 30
0.0
 70
    32
  0
VERTEX
  5
1FED
  8
241
 10
174.739
 20
-16.439800000000002
 30
0.0
 70
    32
  0
VERTEX
  5
1FEE
  8
241
 10
174.738
 20
-16.433800000000002
 30
0.0
 70
    32
  0
VERTEX
  5
1FEF
  8
241
 10
174.73699999999999
 20
-16.427800000000001
 30
0.0
 70
    32
  0
VERTEX
  5
1FF0
  8
241
 10
174.73599999999999
 20
-16.421900000000001
 30
0.0
 70
    32
  0
VERTEX
  5
1FF1
  8
241
 10
174.73500000000001
 20
-16.415900000000001
 30
0.0
 70
    32
  0
VERTEX
  5
1FF2
  8
241
 10
174.73500000000001
 20
-16.4099
 30
0.0
 70
    32
  0
VERTEX
  5
1FF3
  8
241
 10
174.73400000000001
 20
-16.4039
 30
0.0
 70
    32
  0
VERTEX
  5
1FF4
  8
241
 10
174.733
 20
-16.3979
 30
0.0
 70
    32
  0
VERTEX
  5
1FF5
  8
241
 10
174.732
 20
-16.3919
 30
0.0
 70
    32
  0
VERTEX
  5
1FF6
  8
241
 10
174.73099999999999
 20
-16.385899999999999
 30
0.0
 70
    32
  0
VERTEX
  5
1FF7
  8
241
 10
174.72999999999999
 20
-16.379899999999999
 30
0.0
 70
    32
  0
VERTEX
  5
1FF8
  8
241
 10
174.72900000000001
 20
-16.373899999999999
 30
0.0
 70
    32
  0
VERTEX
  5
1FF9
  8
241
 10
174.72800000000001
 20
-16.367899999999999
 30
0.0
 70
    32
  0
VERTEX
  5
1FFA
  8
241
 10
174.727
 20
-16.361899999999999
 30
0.0
 70
    32
  0
VERTEX
  5
1FFB
  8
241
 10
174.726
 20
-16.355899999999998
 30
0.0
 70
    32
  0
VERTEX
  5
1FFC
  8
241
 10
174.72399999999999
 20
-16.349900000000002
 30
0.0
 70
    32
  0
VERTEX
  5
1FFD
  8
241
 10
174.72300000000001
 20
-16.344000000000001
 30
0.0
 70
    32
  0
VERTEX
  5
1FFE
  8
241
 10
174.72200000000001
 20
-16.338000000000001
 30
0.0
 70
    32
  0
VERTEX
  5
1FFF
  8
241
 10
174.72099999999989
 20
-16.332000000000001
 30
0.0
 70
    32
  0
VERTEX
  5
2000
  8
241
 10
174.72
 20
-16.326000000000001
 30
0.0
 70
    32
  0
VERTEX
  5
2001
  8
241
 10
174.71799999999999
 20
-16.32
 30
0.0
 70
    32
  0
VERTEX
  5
2002
  8
241
 10
174.71700000000001
 20
-16.3141
 30
0.0
 70
    32
  0
VERTEX
  5
2003
  8
241
 10
174.71600000000001
 20
-16.3081
 30
0.0
 70
    32
  0
VERTEX
  5
2004
  8
241
 10
174.714
 20
-16.302099999999999
 30
0.0
 70
    32
  0
VERTEX
  5
2005
  8
241
 10
174.71299999999999
 20
-16.296099999999999
 30
0.0
 70
    32
  0
VERTEX
  5
2006
  8
241
 10
174.71199999999999
 20
-16.290099999999999
 30
0.0
 70
    32
  0
VERTEX
  5
2007
  8
241
 10
174.71000000000001
 20
-16.284199999999998
 30
0.0
 70
    32
  0
VERTEX
  5
2008
  8
241
 10
174.709
 20
-16.278199999999998
 30
0.0
 70
    32
  0
VERTEX
  5
2009
  8
241
 10
174.70699999999999
 20
-16.272200000000002
 30
0.0
 70
    32
  0
VERTEX
  5
200A
  8
241
 10
174.70599999999999
 20
-16.266300000000001
 30
0.0
 70
    32
  0
VERTEX
  5
200B
  8
241
 10
174.70400000000001
 20
-16.260300000000001
 30
0.0
 70
    32
  0
VERTEX
  5
200C
  8
241
 10
174.703
 20
-16.254300000000001
 30
0.0
 70
    32
  0
VERTEX
  5
200D
  8
241
 10
174.70099999999999
 20
-16.2483
 30
0.0
 70
    32
  0
VERTEX
  5
200E
  8
241
 10
174.69999999999999
 20
-16.2424
 30
0.0
 70
    32
  0
VERTEX
  5
200F
  8
241
 10
174.69799999999989
 20
-16.2364
 30
0.0
 70
    32
  0
VERTEX
  5
2010
  8
241
 10
174.696
 20
-16.230399999999999
 30
0.0
 70
    32
  0
VERTEX
  5
2011
  8
241
 10
174.69499999999999
 20
-16.224499999999999
 30
0.0
 70
    32
  0
VERTEX
  5
2012
  8
241
 10
174.69300000000001
 20
-16.218499999999999
 30
0.0
 70
    32
  0
VERTEX
  5
2013
  8
241
 10
174.69099999999989
 20
-16.212499999999999
 30
0.0
 70
    32
  0
VERTEX
  5
2014
  8
241
 10
174.69
 20
-16.206600000000002
 30
0.0
 70
    32
  0
VERTEX
  5
2015
  8
241
 10
174.68799999999999
 20
-16.200600000000001
 30
0.0
 70
    32
  0
VERTEX
  5
2016
  8
241
 10
174.68600000000001
 20
-16.194600000000001
 30
0.0
 70
    32
  0
VERTEX
  5
2017
  8
241
 10
174.684
 20
-16.188700000000001
 30
0.0
 70
    32
  0
VERTEX
  5
2018
  8
241
 10
174.68199999999999
 20
-16.182700000000001
 30
0.0
 70
    32
  0
VERTEX
  5
2019
  8
241
 10
174.68000000000001
 20
-16.1767
 30
0.0
 70
    32
  0
VERTEX
  5
201A
  8
241
 10
174.679
 20
-16.1708
 30
0.0
 70
    32
  0
VERTEX
  5
201B
  8
241
 10
174.67699999999999
 20
-16.1648
 30
0.0
 70
    32
  0
VERTEX
  5
201C
  8
241
 10
174.67500000000001
 20
-16.158799999999999
 30
0.0
 70
    32
  0
VERTEX
  5
201D
  8
241
 10
174.673
 20
-16.152899999999999
 30
0.0
 70
    32
  0
VERTEX
  5
201E
  8
241
 10
174.67099999999999
 20
-16.146899999999999
 30
0.0
 70
    32
  0
VERTEX
  5
201F
  8
241
 10
174.66900000000001
 20
-16.140899999999998
 30
0.0
 70
    32
  0
VERTEX
  5
2020
  8
241
 10
174.667
 20
-16.135000000000002
 30
0.0
 70
    32
  0
VERTEX
  5
2021
  8
241
 10
174.66399999999999
 20
-16.129000000000001
 30
0.0
 70
    32
  0
VERTEX
  5
2022
  8
241
 10
174.66200000000001
 20
-16.123100000000001
 30
0.0
 70
    32
  0
VERTEX
  5
2023
  8
241
 10
174.66
 20
-16.117100000000001
 30
0.0
 70
    32
  0
VERTEX
  5
2024
  8
241
 10
174.6579999999999
 20
-16.1111
 30
0.0
 70
    32
  0
VERTEX
  5
2025
  8
241
 10
174.65600000000001
 20
-16.1052
 30
0.0
 70
    32
  0
VERTEX
  5
2026
  8
241
 10
174.654
 20
-16.0992
 30
0.0
 70
    32
  0
VERTEX
  5
2027
  8
241
 10
174.6509999999999
 20
-16.093299999999999
 30
0.0
 70
    32
  0
VERTEX
  5
2028
  8
241
 10
174.649
 20
-16.087299999999999
 30
0.0
 70
    32
  0
VERTEX
  5
2029
  8
241
 10
174.64699999999999
 20
-16.081399999999999
 30
0.0
 70
    32
  0
VERTEX
  5
202A
  8
241
 10
174.64500000000001
 20
-16.075399999999998
 30
0.0
 70
    32
  0
VERTEX
  5
202B
  8
241
 10
174.642
 20
-16.069500000000001
 30
0.0
 70
    32
  0
VERTEX
  5
202C
  8
241
 10
174.63999999999999
 20
-16.063500000000001
 30
0.0
 70
    32
  0
VERTEX
  5
202D
  8
241
 10
174.63800000000001
 20
-16.057600000000001
 30
0.0
 70
    32
  0
VERTEX
  5
202E
  8
241
 10
174.63499999999999
 20
-16.0517
 30
0.0
 70
    32
  0
VERTEX
  5
202F
  8
241
 10
174.63300000000001
 20
-16.0457
 30
0.0
 70
    32
  0
VERTEX
  5
2030
  8
241
 10
174.63
 20
-16.0398
 30
0.0
 70
    32
  0
VERTEX
  5
2031
  8
241
 10
174.62799999999999
 20
-16.033899999999999
 30
0.0
 70
    32
  0
VERTEX
  5
2032
  8
241
 10
174.625
 20
-16.027999999999999
 30
0.0
 70
    32
  0
VERTEX
  5
2033
  8
241
 10
174.62299999999999
 20
-16.021999999999998
 30
0.0
 70
    32
  0
VERTEX
  5
2034
  8
241
 10
174.62
 20
-16.016100000000002
 30
0.0
 70
    32
  0
VERTEX
  5
2035
  8
241
 10
174.61799999999999
 20
-16.010200000000001
 30
0.0
 70
    32
  0
VERTEX
  5
2036
  8
241
 10
174.61500000000001
 20
-16.004300000000001
 30
0.0
 70
    32
  0
VERTEX
  5
2037
  8
241
 10
174.61199999999999
 20
-15.9984
 30
0.0
 70
    32
  0
VERTEX
  5
2038
  8
241
 10
174.61000000000001
 20
-15.9925
 30
0.0
 70
    32
  0
VERTEX
  5
2039
  8
241
 10
174.607
 20
-15.986599999999999
 30
0.0
 70
    32
  0
VERTEX
  5
203A
  8
241
 10
174.60400000000001
 20
-15.980700000000001
 30
0.0
 70
    32
  0
VERTEX
  5
203B
  8
241
 10
174.602
 20
-15.9748
 30
0.0
 70
    32
  0
VERTEX
  5
203C
  8
241
 10
174.59899999999999
 20
-15.9689
 30
0.0
 70
    32
  0
VERTEX
  5
203D
  8
241
 10
174.596
 20
-15.962999999999999
 30
0.0
 70
    32
  0
VERTEX
  5
203E
  8
241
 10
174.59299999999999
 20
-15.9572
 30
0.0
 70
    32
  0
VERTEX
  5
203F
  8
241
 10
174.59
 20
-15.9513
 30
0.0
 70
    32
  0
VERTEX
  5
2040
  8
241
 10
174.58699999999999
 20
-15.945399999999999
 30
0.0
 70
    32
  0
VERTEX
  5
2041
  8
241
 10
174.58500000000001
 20
-15.9396
 30
0.0
 70
    32
  0
VERTEX
  5
2042
  8
241
 10
174.58199999999999
 20
-15.9337
 30
0.0
 70
    32
  0
VERTEX
  5
2043
  8
241
 10
174.57900000000001
 20
-15.927899999999999
 30
0.0
 70
    32
  0
VERTEX
  5
2044
  8
241
 10
174.57599999999999
 20
-15.922000000000001
 30
0.0
 70
    32
  0
VERTEX
  5
2045
  8
241
 10
174.57300000000001
 20
-15.9162
 30
0.0
 70
    32
  0
VERTEX
  5
2046
  8
241
 10
174.56999999999999
 20
-15.910399999999999
 30
0.0
 70
    32
  0
VERTEX
  5
2047
  8
241
 10
174.56700000000001
 20
-15.904500000000001
 30
0.0
 70
    32
  0
VERTEX
  5
2048
  8
241
 10
174.56399999999999
 20
-15.8987
 30
0.0
 70
    32
  0
VERTEX
  5
2049
  8
241
 10
174.56100000000001
 20
-15.892899999999999
 30
0.0
 70
    32
  0
VERTEX
  5
204A
  8
241
 10
174.55799999999999
 20
-15.8871
 30
0.0
 70
    32
  0
VERTEX
  5
204B
  8
241
 10
174.554
 20
-15.8813
 30
0.0
 70
    32
  0
VERTEX
  5
204C
  8
241
 10
174.55099999999999
 20
-15.875500000000001
 30
0.0
 70
    32
  0
VERTEX
  5
204D
  8
241
 10
174.548
 20
-15.8697
 30
0.0
 70
    32
  0
VERTEX
  5
204E
  8
241
 10
174.54499999999999
 20
-15.863899999999999
 30
0.0
 70
    32
  0
VERTEX
  5
204F
  8
241
 10
174.542
 20
-15.8581
 30
0.0
 70
    32
  0
VERTEX
  5
2050
  8
241
 10
174.53899999999999
 20
-15.852399999999999
 30
0.0
 70
    32
  0
VERTEX
  5
2051
  8
241
 10
174.535
 20
-15.8466
 30
0.0
 70
    32
  0
VERTEX
  5
2052
  8
241
 10
174.53200000000001
 20
-15.8409
 30
0.0
 70
    32
  0
VERTEX
  5
2053
  8
241
 10
174.529
 20
-15.835100000000001
 30
0.0
 70
    32
  0
VERTEX
  5
2054
  8
241
 10
174.52500000000001
 20
-15.8294
 30
0.0
 70
    32
  0
VERTEX
  5
2055
  8
241
 10
174.52199999999999
 20
-15.823600000000001
 30
0.0
 70
    32
  0
VERTEX
  5
2056
  8
241
 10
174.51900000000001
 20
-15.8179
 30
0.0
 70
    32
  0
VERTEX
  5
2057
  8
241
 10
174.51499999999999
 20
-15.812200000000001
 30
0.0
 70
    32
  0
VERTEX
  5
2058
  8
241
 10
174.512
 20
-15.8065
 30
0.0
 70
    32
  0
VERTEX
  5
2059
  8
241
 10
174.5079999999999
 20
-15.800800000000001
 30
0.0
 70
    32
  0
VERTEX
  5
205A
  8
241
 10
174.505
 20
-15.7951
 30
0.0
 70
    32
  0
VERTEX
  5
205B
  8
241
 10
174.50099999999989
 20
-15.789400000000001
 30
0.0
 70
    32
  0
VERTEX
  5
205C
  8
241
 10
174.49799999999999
 20
-15.7837
 30
0.0
 70
    32
  0
VERTEX
  5
205D
  8
241
 10
174.494
 20
-15.7781
 30
0.0
 70
    32
  0
VERTEX
  5
205E
  8
241
 10
174.49100000000001
 20
-15.772399999999999
 30
0.0
 70
    32
  0
VERTEX
  5
205F
  8
241
 10
174.48699999999999
 20
-15.7667
 30
0.0
 70
    32
  0
VERTEX
  5
2060
  8
241
 10
174.48400000000001
 20
-15.761100000000001
 30
0.0
 70
    32
  0
VERTEX
  5
2061
  8
241
 10
174.47999999999999
 20
-15.7555
 30
0.0
 70
    32
  0
VERTEX
  5
2062
  8
241
 10
174.476
 20
-15.7498
 30
0.0
 70
    32
  0
VERTEX
  5
2063
  8
241
 10
174.47300000000001
 20
-15.744199999999999
 30
0.0
 70
    32
  0
VERTEX
  5
2064
  8
241
 10
174.46899999999999
 20
-15.7386
 30
0.0
 70
    32
  0
VERTEX
  5
2065
  8
241
 10
174.465
 20
-15.733000000000001
 30
0.0
 70
    32
  0
VERTEX
  5
2066
  8
241
 10
174.46199999999999
 20
-15.727399999999999
 30
0.0
 70
    32
  0
VERTEX
  5
2067
  8
241
 10
174.458
 20
-15.7218
 30
0.0
 70
    32
  0
VERTEX
  5
2068
  8
241
 10
174.45400000000001
 20
-15.716200000000001
 30
0.0
 70
    32
  0
VERTEX
  5
2069
  8
241
 10
174.44999999999999
 20
-15.710599999999999
 30
0.0
 70
    32
  0
VERTEX
  5
206A
  8
241
 10
174.446
 20
-15.705
 30
0.0
 70
    32
  0
VERTEX
  5
206B
  8
241
 10
174.44300000000001
 20
-15.6995
 30
0.0
 70
    32
  0
VERTEX
  5
206C
  8
241
 10
174.43899999999999
 20
-15.693899999999999
 30
0.0
 70
    32
  0
VERTEX
  5
206D
  8
241
 10
174.435
 20
-15.6884
 30
0.0
 70
    32
  0
VERTEX
  5
206E
  8
241
 10
174.43100000000001
 20
-15.6828
 30
0.0
 70
    32
  0
VERTEX
  5
206F
  8
241
 10
174.42699999999999
 20
-15.677300000000001
 30
0.0
 70
    32
  0
VERTEX
  5
2070
  8
241
 10
174.423
 20
-15.671799999999999
 30
0.0
 70
    32
  0
VERTEX
  5
2071
  8
241
 10
174.41900000000001
 20
-15.6662
 30
0.0
 70
    32
  0
VERTEX
  5
2072
  8
241
 10
174.41499999999999
 20
-15.6607
 30
0.0
 70
    32
  0
VERTEX
  5
2073
  8
241
 10
174.411
 20
-15.655200000000001
 30
0.0
 70
    32
  0
VERTEX
  5
2074
  8
241
 10
174.40700000000001
 20
-15.649699999999999
 30
0.0
 70
    32
  0
VERTEX
  5
2075
  8
241
 10
174.40299999999999
 20
-15.644299999999999
 30
0.0
 70
    32
  0
VERTEX
  5
2076
  8
241
 10
174.399
 20
-15.6388
 30
0.0
 70
    32
  0
VERTEX
  5
2077
  8
241
 10
174.39500000000001
 20
-15.6333
 30
0.0
 70
    32
  0
VERTEX
  5
2078
  8
241
 10
174.38999999999999
 20
-15.627800000000001
 30
0.0
 70
    32
  0
VERTEX
  5
2079
  8
241
 10
174.386
 20
-15.622400000000001
 30
0.0
 70
    32
  0
VERTEX
  5
207A
  8
241
 10
174.38200000000001
 20
-15.616899999999999
 30
0.0
 70
    32
  0
VERTEX
  5
207B
  8
241
 10
174.37799999999999
 20
-15.611499999999999
 30
0.0
 70
    32
  0
VERTEX
  5
207C
  8
241
 10
174.374
 20
-15.6061
 30
0.0
 70
    32
  0
VERTEX
  5
207D
  8
241
 10
174.369
 20
-15.6006
 30
0.0
 70
    32
  0
VERTEX
  5
207E
  8
241
 10
174.36500000000001
 20
-15.5952
 30
0.0
 70
    32
  0
VERTEX
  5
207F
  8
241
 10
174.36099999999999
 20
-15.5898
 30
0.0
 70
    32
  0
VERTEX
  5
2080
  8
241
 10
174.357
 20
-15.5844
 30
0.0
 70
    32
  0
VERTEX
  5
2081
  8
241
 10
174.352
 20
-15.579000000000001
 30
0.0
 70
    32
  0
VERTEX
  5
2082
  8
241
 10
174.34800000000001
 20
-15.573600000000001
 30
0.0
 70
    32
  0
VERTEX
  5
2083
  8
241
 10
174.34299999999999
 20
-15.568199999999999
 30
0.0
 70
    32
  0
VERTEX
  5
2084
  8
241
 10
174.339
 20
-15.562900000000001
 30
0.0
 70
    32
  0
VERTEX
  5
2085
  8
241
 10
174.33500000000001
 20
-15.557499999999999
 30
0.0
 70
    32
  0
VERTEX
  5
2086
  8
241
 10
174.33000000000001
 20
-15.552099999999999
 30
0.0
 70
    32
  0
VERTEX
  5
2087
  8
241
 10
174.32599999999999
 20
-15.546799999999999
 30
0.0
 70
    32
  0
VERTEX
  5
2088
  8
241
 10
174.321
 20
-15.541499999999999
 30
0.0
 70
    32
  0
VERTEX
  5
2089
  8
241
 10
174.31700000000001
 20
-15.536099999999999
 30
0.0
 70
    32
  0
VERTEX
  5
208A
  8
241
 10
174.31200000000001
 20
-15.530799999999999
 30
0.0
 70
    32
  0
VERTEX
  5
208B
  8
241
 10
174.30699999999999
 20
-15.525499999999999
 30
0.0
 70
    32
  0
VERTEX
  5
208C
  8
241
 10
174.303
 20
-15.520200000000001
 30
0.0
 70
    32
  0
VERTEX
  5
208D
  8
241
 10
174.298
 20
-15.514900000000001
 30
0.0
 70
    32
  0
VERTEX
  5
208E
  8
241
 10
174.29400000000001
 20
-15.509600000000001
 30
0.0
 70
    32
  0
VERTEX
  5
208F
  8
241
 10
174.28899999999999
 20
-15.504300000000001
 30
0.0
 70
    32
  0
VERTEX
  5
2090
  8
241
 10
174.28399999999999
 20
-15.499000000000001
 30
0.0
 70
    32
  0
VERTEX
  5
2091
  8
241
 10
174.28
 20
-15.4937
 30
0.0
 70
    32
  0
VERTEX
  5
2092
  8
241
 10
174.27500000000001
 20
-15.4885
 30
0.0
 70
    32
  0
VERTEX
  5
2093
  8
241
 10
174.27000000000001
 20
-15.4832
 30
0.0
 70
    32
  0
VERTEX
  5
2094
  8
241
 10
174.26499999999999
 20
-15.478
 30
0.0
 70
    32
  0
VERTEX
  5
2095
  8
241
 10
174.261
 20
-15.4727
 30
0.0
 70
    32
  0
VERTEX
  5
2096
  8
241
 10
174.25599999999989
 20
-15.467499999999999
 30
0.0
 70
    32
  0
VERTEX
  5
2097
  8
241
 10
174.251
 20
-15.462300000000001
 30
0.0
 70
    32
  0
VERTEX
  5
2098
  8
241
 10
174.24600000000001
 20
-15.457100000000001
 30
0.0
 70
    32
  0
VERTEX
  5
2099
  8
241
 10
174.24100000000001
 20
-15.4519
 30
0.0
 70
    32
  0
VERTEX
  5
209A
  8
241
 10
174.23599999999999
 20
-15.4467
 30
0.0
 70
    32
  0
VERTEX
  5
209B
  8
241
 10
174.23099999999999
 20
-15.4415
 30
0.0
 70
    32
  0
VERTEX
  5
209C
  8
241
 10
174.226
 20
-15.436299999999999
 30
0.0
 70
    32
  0
VERTEX
  5
209D
  8
241
 10
174.221
 20
-15.431100000000001
 30
0.0
 70
    32
  0
VERTEX
  5
209E
  8
241
 10
174.21600000000001
 20
-15.426
 30
0.0
 70
    32
  0
VERTEX
  5
209F
  8
241
 10
174.21100000000001
 20
-15.4208
 30
0.0
 70
    32
  0
VERTEX
  5
20A0
  8
241
 10
174.20599999999999
 20
-15.415699999999999
 30
0.0
 70
    32
  0
VERTEX
  5
20A1
  8
241
 10
174.20099999999999
 20
-15.410500000000001
 30
0.0
 70
    32
  0
VERTEX
  5
20A2
  8
241
 10
174.196
 20
-15.4054
 30
0.0
 70
    32
  0
VERTEX
  5
20A3
  8
241
 10
174.191
 20
-15.4003
 30
0.0
 70
    32
  0
VERTEX
  5
20A4
  8
241
 10
174.18599999999989
 20
-15.395200000000001
 30
0.0
 70
    32
  0
VERTEX
  5
20A5
  8
241
 10
174.18100000000001
 20
-15.3901
 30
0.0
 70
    32
  0
VERTEX
  5
20A6
  8
241
 10
174.17599999999999
 20
-15.385
 30
0.0
 70
    32
  0
VERTEX
  5
20A7
  8
241
 10
174.1699999999999
 20
-15.379899999999999
 30
0.0
 70
    32
  0
VERTEX
  5
20A8
  8
241
 10
174.16499999999999
 20
-15.3749
 30
0.0
 70
    32
  0
VERTEX
  5
20A9
  8
241
 10
174.16
 20
-15.3698
 30
0.0
 70
    32
  0
VERTEX
  5
20AA
  8
241
 10
174.155
 20
-15.364800000000001
 30
0.0
 70
    32
  0
VERTEX
  5
20AB
  8
241
 10
174.149
 20
-15.3597
 30
0.0
 70
    32
  0
VERTEX
  5
20AC
  8
241
 10
174.14400000000001
 20
-15.354699999999999
 30
0.0
 70
    32
  0
VERTEX
  5
20AD
  8
241
 10
174.13900000000001
 20
-15.3497
 30
0.0
 70
    32
  0
VERTEX
  5
20AE
  8
241
 10
174.13300000000001
 20
-15.3447
 30
0.0
 70
    32
  0
VERTEX
  5
20AF
  8
241
 10
174.12799999999999
 20
-15.339700000000001
 30
0.0
 70
    32
  0
VERTEX
  5
20B0
  8
241
 10
174.12299999999999
 20
-15.3347
 30
0.0
 70
    32
  0
VERTEX
  5
20B1
  8
241
 10
174.11699999999999
 20
-15.329800000000001
 30
0.0
 70
    32
  0
VERTEX
  5
20B2
  8
241
 10
174.11199999999999
 20
-15.3248
 30
0.0
 70
    32
  0
VERTEX
  5
20B3
  8
241
 10
174.10599999999999
 20
-15.319900000000001
 30
0.0
 70
    32
  0
VERTEX
  5
20B4
  8
241
 10
174.101
 20
-15.315
 30
0.0
 70
    32
  0
VERTEX
  5
20B5
  8
241
 10
174.095
 20
-15.31
 30
0.0
 70
    32
  0
VERTEX
  5
20B6
  8
241
 10
174.09
 20
-15.305099999999999
 30
0.0
 70
    32
  0
VERTEX
  5
20B7
  8
241
 10
174.084
 20
-15.3002
 30
0.0
 70
    32
  0
VERTEX
  5
20B8
  8
241
 10
174.07900000000001
 20
-15.295400000000001
 30
0.0
 70
    32
  0
VERTEX
  5
20B9
  8
241
 10
174.07300000000001
 20
-15.2905
 30
0.0
 70
    32
  0
VERTEX
  5
20BA
  8
241
 10
174.06800000000001
 20
-15.285600000000001
 30
0.0
 70
    32
  0
VERTEX
  5
20BB
  8
241
 10
174.06200000000001
 20
-15.280799999999999
 30
0.0
 70
    32
  0
VERTEX
  5
20BC
  8
241
 10
174.05699999999999
 20
-15.276
 30
0.0
 70
    32
  0
VERTEX
  5
20BD
  8
241
 10
174.05099999999999
 20
-15.271100000000001
 30
0.0
 70
    32
  0
VERTEX
  5
20BE
  8
241
 10
174.04499999999999
 20
-15.266299999999999
 30
0.0
 70
    32
  0
VERTEX
  5
20BF
  8
241
 10
174.03999999999999
 20
-15.2615
 30
0.0
 70
    32
  0
VERTEX
  5
20C0
  8
241
 10
174.03399999999999
 20
-15.2568
 30
0.0
 70
    32
  0
VERTEX
  5
20C1
  8
241
 10
174.02799999999999
 20
-15.252000000000001
 30
0.0
 70
    32
  0
VERTEX
  5
20C2
  8
241
 10
174.023
 20
-15.247199999999999
 30
0.0
 70
    32
  0
VERTEX
  5
20C3
  8
241
 10
174.017
 20
-15.2425
 30
0.0
 70
    32
  0
VERTEX
  5
20C4
  8
241
 10
174.011
 20
-15.2378
 30
0.0
 70
    32
  0
VERTEX
  5
20C5
  8
241
 10
174.005
 20
-15.2331
 30
0.0
 70
    32
  0
VERTEX
  5
20C6
  8
241
 10
174.0
 20
-15.228400000000001
 30
0.0
 70
    32
  0
VERTEX
  5
20C7
  8
241
 10
173.994
 20
-15.223699999999999
 30
0.0
 70
    32
  0
VERTEX
  5
20C8
  8
241
 10
173.988
 20
-15.218999999999999
 30
0.0
 70
    32
  0
VERTEX
  5
20C9
  8
241
 10
173.982
 20
-15.214399999999999
 30
0.0
 70
    32
  0
VERTEX
  5
20CA
  8
241
 10
173.976
 20
-15.2097
 30
0.0
 70
    32
  0
VERTEX
  5
20CB
  8
241
 10
173.97
 20
-15.2051
 30
0.0
 70
    32
  0
VERTEX
  5
20CC
  8
241
 10
173.965
 20
-15.2005
 30
0.0
 70
    32
  0
VERTEX
  5
20CD
  8
241
 10
173.959
 20
-15.1959
 30
0.0
 70
    32
  0
VERTEX
  5
20CE
  8
241
 10
173.953
 20
-15.1913
 30
0.0
 70
    32
  0
VERTEX
  5
20CF
  8
241
 10
173.947
 20
-15.1868
 30
0.0
 70
    32
  0
VERTEX
  5
20D0
  8
241
 10
173.94099999999989
 20
-15.1822
 30
0.0
 70
    32
  0
VERTEX
  5
20D1
  8
241
 10
173.935
 20
-15.1777
 30
0.0
 70
    32
  0
VERTEX
  5
20D2
  8
241
 10
173.929
 20
-15.1731
 30
0.0
 70
    32
  0
VERTEX
  5
20D3
  8
241
 10
173.923
 20
-15.1686
 30
0.0
 70
    32
  0
VERTEX
  5
20D4
  8
241
 10
173.917
 20
-15.164099999999999
 30
0.0
 70
    32
  0
VERTEX
  5
20D5
  8
241
 10
173.91099999999989
 20
-15.159700000000001
 30
0.0
 70
    32
  0
VERTEX
  5
20D6
  8
241
 10
173.905
 20
-15.155200000000001
 30
0.0
 70
    32
  0
VERTEX
  5
20D7
  8
241
 10
173.899
 20
-15.150700000000001
 30
0.0
 70
    32
  0
VERTEX
  5
20D8
  8
241
 10
173.893
 20
-15.1463
 30
0.0
 70
    32
  0
VERTEX
  5
20D9
  8
241
 10
173.887
 20
-15.1419
 30
0.0
 70
    32
  0
VERTEX
  5
20DA
  8
241
 10
173.88
 20
-15.137499999999999
 30
0.0
 70
    32
  0
VERTEX
  5
20DB
  8
241
 10
173.874
 20
-15.133100000000001
 30
0.0
 70
    32
  0
VERTEX
  5
20DC
  8
241
 10
173.86799999999999
 20
-15.1287
 30
0.0
 70
    32
  0
VERTEX
  5
20DD
  8
241
 10
173.86199999999999
 20
-15.1243
 30
0.0
 70
    32
  0
VERTEX
  5
20DE
  8
241
 10
173.85599999999999
 20
-15.119899999999999
 30
0.0
 70
    32
  0
VERTEX
  5
20DF
  8
241
 10
173.84999999999999
 20
-15.115600000000001
 30
0.0
 70
    32
  0
VERTEX
  5
20E0
  8
241
 10
173.84299999999999
 20
-15.1113
 30
0.0
 70
    32
  0
VERTEX
  5
20E1
  8
241
 10
173.83699999999999
 20
-15.1069
 30
0.0
 70
    32
  0
VERTEX
  5
20E2
  8
241
 10
173.83099999999999
 20
-15.102600000000001
 30
0.0
 70
    32
  0
VERTEX
  5
20E3
  8
241
 10
173.82499999999999
 20
-15.0983
 30
0.0
 70
    32
  0
VERTEX
  5
20E4
  8
241
 10
173.81800000000001
 20
-15.094099999999999
 30
0.0
 70
    32
  0
VERTEX
  5
20E5
  8
241
 10
173.81200000000001
 20
-15.0898
 30
0.0
 70
    32
  0
VERTEX
  5
20E6
  8
241
 10
173.80600000000001
 20
-15.0855
 30
0.0
 70
    32
  0
VERTEX
  5
20E7
  8
241
 10
173.79900000000001
 20
-15.081300000000001
 30
0.0
 70
    32
  0
VERTEX
  5
20E8
  8
241
 10
173.79300000000001
 20
-15.0771
 30
0.0
 70
    32
  0
VERTEX
  5
20E9
  8
241
 10
173.78700000000001
 20
-15.072900000000001
 30
0.0
 70
    32
  0
VERTEX
  5
20EA
  8
241
 10
173.78
 20
-15.0687
 30
0.0
 70
    32
  0
VERTEX
  5
20EB
  8
241
 10
173.774
 20
-15.064500000000001
 30
0.0
 70
    32
  0
VERTEX
  5
20EC
  8
241
 10
173.767
 20
-15.0603
 30
0.0
 70
    32
  0
VERTEX
  5
20ED
  8
241
 10
173.761
 20
-15.0562
 30
0.0
 70
    32
  0
VERTEX
  5
20EE
  8
241
 10
173.755
 20
-15.052
 30
0.0
 70
    32
  0
VERTEX
  5
20EF
  8
241
 10
173.74799999999999
 20
-15.0479
 30
0.0
 70
    32
  0
VERTEX
  5
20F0
  8
241
 10
173.74199999999999
 20
-15.043799999999999
 30
0.0
 70
    32
  0
VERTEX
  5
20F1
  8
241
 10
173.73500000000001
 20
-15.0397
 30
0.0
 70
    32
  0
VERTEX
  5
20F2
  8
241
 10
173.72900000000001
 20
-15.035600000000001
 30
0.0
 70
    32
  0
VERTEX
  5
20F3
  8
241
 10
173.72200000000001
 20
-15.031599999999999
 30
0.0
 70
    32
  0
VERTEX
  5
20F4
  8
241
 10
173.715
 20
-15.0275
 30
0.0
 70
    32
  0
VERTEX
  5
20F5
  8
241
 10
173.709
 20
-15.0235
 30
0.0
 70
    32
  0
VERTEX
  5
20F6
  8
241
 10
173.702
 20
-15.019399999999999
 30
0.0
 70
    32
  0
VERTEX
  5
20F7
  8
241
 10
173.696
 20
-15.0154
 30
0.0
 70
    32
  0
VERTEX
  5
20F8
  8
241
 10
173.68899999999999
 20
-15.0114
 30
0.0
 70
    32
  0
VERTEX
  5
20F9
  8
241
 10
173.68199999999999
 20
-15.007400000000001
 30
0.0
 70
    32
  0
VERTEX
  5
20FA
  8
241
 10
173.67599999999999
 20
-15.003500000000001
 30
0.0
 70
    32
  0
VERTEX
  5
20FB
  8
241
 10
173.66900000000001
 20
-14.999499999999999
 30
0.0
 70
    32
  0
VERTEX
  5
20FC
  8
241
 10
173.66200000000001
 20
-14.9956
 30
0.0
 70
    32
  0
VERTEX
  5
20FD
  8
241
 10
173.65600000000001
 20
-14.9916
 30
0.0
 70
    32
  0
VERTEX
  5
20FE
  8
241
 10
173.649
 20
-14.9877
 30
0.0
 70
    32
  0
VERTEX
  5
20FF
  8
241
 10
173.642
 20
-14.9838
 30
0.0
 70
    32
  0
VERTEX
  5
2100
  8
241
 10
173.63499999999999
 20
-14.979900000000001
 30
0.0
 70
    32
  0
VERTEX
  5
2101
  8
241
 10
173.62899999999999
 20
-14.976100000000001
 30
0.0
 70
    32
  0
VERTEX
  5
2102
  8
241
 10
173.62200000000001
 20
-14.972200000000001
 30
0.0
 70
    32
  0
VERTEX
  5
2103
  8
241
 10
173.61500000000001
 20
-14.968400000000001
 30
0.0
 70
    32
  0
VERTEX
  5
2104
  8
241
 10
173.608
 20
-14.964499999999999
 30
0.0
 70
    32
  0
VERTEX
  5
2105
  8
241
 10
173.601
 20
-14.960699999999999
 30
0.0
 70
    32
  0
VERTEX
  5
2106
  8
241
 10
173.59399999999999
 20
-14.956899999999999
 30
0.0
 70
    32
  0
VERTEX
  5
2107
  8
241
 10
173.58699999999999
 20
-14.953099999999999
 30
0.0
 70
    32
  0
VERTEX
  5
2108
  8
241
 10
173.58099999999999
 20
-14.949299999999999
 30
0.0
 70
    32
  0
VERTEX
  5
2109
  8
241
 10
173.57400000000001
 20
-14.945600000000001
 30
0.0
 70
    32
  0
VERTEX
  5
210A
  8
241
 10
173.56700000000001
 20
-14.941800000000001
 30
0.0
 70
    32
  0
VERTEX
  5
210B
  8
241
 10
173.56
 20
-14.9381
 30
0.0
 70
    32
  0
VERTEX
  5
210C
  8
241
 10
173.553
 20
-14.9344
 30
0.0
 70
    32
  0
VERTEX
  5
210D
  8
241
 10
173.54599999999999
 20
-14.9307
 30
0.0
 70
    32
  0
VERTEX
  5
210E
  8
241
 10
173.53899999999999
 20
-14.927
 30
0.0
 70
    32
  0
VERTEX
  5
210F
  8
241
 10
173.53200000000001
 20
-14.923299999999999
 30
0.0
 70
    32
  0
VERTEX
  5
2110
  8
241
 10
173.52500000000001
 20
-14.919700000000001
 30
0.0
 70
    32
  0
VERTEX
  5
2111
  8
241
 10
173.518
 20
-14.916
 30
0.0
 70
    32
  0
VERTEX
  5
2112
  8
241
 10
173.50999999999999
 20
-14.9124
 30
0.0
 70
    32
  0
VERTEX
  5
2113
  8
241
 10
173.50299999999999
 20
-14.908799999999999
 30
0.0
 70
    32
  0
VERTEX
  5
2114
  8
241
 10
173.49600000000001
 20
-14.905200000000001
 30
0.0
 70
    32
  0
VERTEX
  5
2115
  8
241
 10
173.489
 20
-14.9016
 30
0.0
 70
    32
  0
VERTEX
  5
2116
  8
241
 10
173.482
 20
-14.898099999999999
 30
0.0
 70
    32
  0
VERTEX
  5
2117
  8
241
 10
173.47499999999999
 20
-14.894500000000001
 30
0.0
 70
    32
  0
VERTEX
  5
2118
  8
241
 10
173.46799999999999
 20
-14.891
 30
0.0
 70
    32
  0
VERTEX
  5
2119
  8
241
 10
173.46100000000001
 20
-14.887499999999999
 30
0.0
 70
    32
  0
VERTEX
  5
211A
  8
241
 10
173.453
 20
-14.884
 30
0.0
 70
    32
  0
VERTEX
  5
211B
  8
241
 10
173.446
 20
-14.880599999999999
 30
0.0
 70
    32
  0
VERTEX
  5
211C
  8
241
 10
173.43899999999999
 20
-14.8771
 30
0.0
 70
    32
  0
VERTEX
  5
211D
  8
241
 10
173.43199999999999
 20
-14.873699999999999
 30
0.0
 70
    32
  0
VERTEX
  5
211E
  8
241
 10
173.42500000000001
 20
-14.870200000000001
 30
0.0
 70
    32
  0
VERTEX
  5
211F
  8
241
 10
173.417
 20
-14.8668
 30
0.0
 70
    32
  0
VERTEX
  5
2120
  8
241
 10
173.41
 20
-14.8635
 30
0.0
 70
    32
  0
VERTEX
  5
2121
  8
241
 10
173.40299999999999
 20
-14.860099999999999
 30
0.0
 70
    32
  0
VERTEX
  5
2122
  8
241
 10
173.39500000000001
 20
-14.8567
 30
0.0
 70
    32
  0
VERTEX
  5
2123
  8
241
 10
173.38800000000001
 20
-14.853400000000001
 30
0.0
 70
    32
  0
VERTEX
  5
2124
  8
241
 10
173.381
 20
-14.850099999999999
 30
0.0
 70
    32
  0
VERTEX
  5
2125
  8
241
 10
173.374
 20
-14.8468
 30
0.0
 70
    32
  0
VERTEX
  5
2126
  8
241
 10
173.36600000000001
 20
-14.843500000000001
 30
0.0
 70
    32
  0
VERTEX
  5
2127
  8
241
 10
173.35900000000001
 20
-14.840199999999999
 30
0.0
 70
    32
  0
VERTEX
  5
2128
  8
241
 10
173.351
 20
-14.837
 30
0.0
 70
    32
  0
VERTEX
  5
2129
  8
241
 10
173.34399999999999
 20
-14.8338
 30
0.0
 70
    32
  0
VERTEX
  5
212A
  8
241
 10
173.33699999999999
 20
-14.830500000000001
 30
0.0
 70
    32
  0
VERTEX
  5
212B
  8
241
 10
173.32900000000001
 20
-14.827299999999999
 30
0.0
 70
    32
  0
VERTEX
  5
212C
  8
241
 10
173.322
 20
-14.824199999999999
 30
0.0
 70
    32
  0
VERTEX
  5
212D
  8
241
 10
173.31399999999999
 20
-14.821
 30
0.0
 70
    32
  0
VERTEX
  5
212E
  8
241
 10
173.30699999999999
 20
-14.8179
 30
0.0
 70
    32
  0
VERTEX
  5
212F
  8
241
 10
173.30000000000001
 20
-14.8147
 30
0.0
 70
    32
  0
VERTEX
  5
2130
  8
241
 10
173.292
 20
-14.8116
 30
0.0
 70
    32
  0
VERTEX
  5
2131
  8
241
 10
173.285
 20
-14.8085
 30
0.0
 70
    32
  0
VERTEX
  5
2132
  8
241
 10
173.27699999999999
 20
-14.8055
 30
0.0
 70
    32
  0
VERTEX
  5
2133
  8
241
 10
173.27000000000001
 20
-14.8024
 30
0.0
 70
    32
  0
VERTEX
  5
2134
  8
241
 10
173.262
 20
-14.7994
 30
0.0
 70
    32
  0
VERTEX
  5
2135
  8
241
 10
173.255
 20
-14.7964
 30
0.0
 70
    32
  0
VERTEX
  5
2136
  8
241
 10
173.24700000000001
 20
-14.7934
 30
0.0
 70
    32
  0
VERTEX
  5
2137
  8
241
 10
173.24000000000001
 20
-14.7904
 30
0.0
 70
    32
  0
VERTEX
  5
2138
  8
241
 10
173.232
 20
-14.7874
 30
0.0
 70
    32
  0
VERTEX
  5
2139
  8
241
 10
173.22499999999999
 20
-14.7845
 30
0.0
 70
    32
  0
VERTEX
  5
213A
  8
241
 10
173.21700000000001
 20
-14.781499999999999
 30
0.0
 70
    32
  0
VERTEX
  5
213B
  8
241
 10
173.21000000000001
 20
-14.778600000000001
 30
0.0
 70
    32
  0
VERTEX
  5
213C
  8
241
 10
173.202
 20
-14.7758
 30
0.0
 70
    32
  0
VERTEX
  5
213D
  8
241
 10
173.19399999999999
 20
-14.7729
 30
0.0
 70
    32
  0
VERTEX
  5
213E
  8
241
 10
173.18700000000001
 20
-14.77
 30
0.0
 70
    32
  0
VERTEX
  5
213F
  8
241
 10
173.179
 20
-14.767200000000001
 30
0.0
 70
    32
  0
VERTEX
  5
2140
  8
241
 10
173.172
 20
-14.7644
 30
0.0
 70
    32
  0
VERTEX
  5
2141
  8
241
 10
173.16399999999999
 20
-14.7616
 30
0.0
 70
    32
  0
VERTEX
  5
2142
  8
241
 10
173.15599999999989
 20
-14.758800000000001
 30
0.0
 70
    32
  0
VERTEX
  5
2143
  8
241
 10
173.149
 20
-14.756
 30
0.0
 70
    32
  0
VERTEX
  5
2144
  8
241
 10
173.14099999999999
 20
-14.753299999999999
 30
0.0
 70
    32
  0
VERTEX
  5
2145
  8
241
 10
173.1329999999999
 20
-14.7506
 30
0.0
 70
    32
  0
VERTEX
  5
2146
  8
241
 10
173.12599999999989
 20
-14.7479
 30
0.0
 70
    32
  0
VERTEX
  5
2147
  8
241
 10
173.11799999999999
 20
-14.745200000000001
 30
0.0
 70
    32
  0
VERTEX
  5
2148
  8
241
 10
173.11000000000001
 20
-14.7425
 30
0.0
 70
    32
  0
VERTEX
  5
2149
  8
241
 10
173.10300000000001
 20
-14.739800000000001
 30
0.0
 70
    32
  0
VERTEX
  5
214A
  8
241
 10
173.095
 20
-14.7372
 30
0.0
 70
    32
  0
VERTEX
  5
214B
  8
241
 10
173.08699999999999
 20
-14.7346
 30
0.0
 70
    32
  0
VERTEX
  5
214C
  8
241
 10
173.07900000000001
 20
-14.731999999999999
 30
0.0
 70
    32
  0
VERTEX
  5
214D
  8
241
 10
173.072
 20
-14.7294
 30
0.0
 70
    32
  0
VERTEX
  5
214E
  8
241
 10
173.06399999999999
 20
-14.726900000000001
 30
0.0
 70
    32
  0
VERTEX
  5
214F
  8
241
 10
173.05600000000001
 20
-14.724299999999999
 30
0.0
 70
    32
  0
VERTEX
  5
2150
  8
241
 10
173.048
 20
-14.7218
 30
0.0
 70
    32
  0
VERTEX
  5
2151
  8
241
 10
173.041
 20
-14.7193
 30
0.0
 70
    32
  0
VERTEX
  5
2152
  8
241
 10
173.03299999999999
 20
-14.716799999999999
 30
0.0
 70
    32
  0
VERTEX
  5
2153
  8
241
 10
173.02500000000001
 20
-14.714399999999999
 30
0.0
 70
    32
  0
VERTEX
  5
2154
  8
241
 10
173.017
 20
-14.7119
 30
0.0
 70
    32
  0
VERTEX
  5
2155
  8
241
 10
173.00899999999999
 20
-14.7095
 30
0.0
 70
    32
  0
VERTEX
  5
2156
  8
241
 10
173.00200000000001
 20
-14.707100000000001
 30
0.0
 70
    32
  0
VERTEX
  5
2157
  8
241
 10
172.994
 20
-14.704700000000001
 30
0.0
 70
    32
  0
VERTEX
  5
2158
  8
241
 10
172.98599999999999
 20
-14.702299999999999
 30
0.0
 70
    32
  0
VERTEX
  5
2159
  8
241
 10
172.97800000000001
 20
-14.699999999999999
 30
0.0
 70
    32
  0
VERTEX
  5
215A
  8
241
 10
172.97
 20
-14.6976
 30
0.0
 70
    32
  0
VERTEX
  5
215B
  8
241
 10
172.96199999999999
 20
-14.6953
 30
0.0
 70
    32
  0
VERTEX
  5
215C
  8
241
 10
172.95400000000001
 20
-14.693
 30
0.0
 70
    32
  0
VERTEX
  5
215D
  8
241
 10
172.947
 20
-14.6907
 30
0.0
 70
    32
  0
VERTEX
  5
215E
  8
241
 10
172.93899999999999
 20
-14.688499999999999
 30
0.0
 70
    32
  0
VERTEX
  5
215F
  8
241
 10
172.93100000000001
 20
-14.686199999999999
 30
0.0
 70
    32
  0
VERTEX
  5
2160
  8
241
 10
172.923
 20
-14.683999999999999
 30
0.0
 70
    32
  0
VERTEX
  5
2161
  8
241
 10
172.91499999999999
 20
-14.681800000000001
 30
0.0
 70
    32
  0
VERTEX
  5
2162
  8
241
 10
172.90700000000001
 20
-14.679600000000001
 30
0.0
 70
    32
  0
VERTEX
  5
2163
  8
241
 10
172.899
 20
-14.6774
 30
0.0
 70
    32
  0
VERTEX
  5
2164
  8
241
 10
172.89099999999999
 20
-14.6753
 30
0.0
 70
    32
  0
VERTEX
  5
2165
  8
241
 10
172.88300000000001
 20
-14.6732
 30
0.0
 70
    32
  0
VERTEX
  5
2166
  8
241
 10
172.875
 20
-14.670999999999999
 30
0.0
 70
    32
  0
VERTEX
  5
2167
  8
241
 10
172.86699999999999
 20
-14.668900000000001
 30
0.0
 70
    32
  0
VERTEX
  5
2168
  8
241
 10
172.85900000000001
 20
-14.6669
 30
0.0
 70
    32
  0
VERTEX
  5
2169
  8
241
 10
172.851
 20
-14.6648
 30
0.0
 70
    32
  0
VERTEX
  5
216A
  8
241
 10
172.84299999999999
 20
-14.662800000000001
 30
0.0
 70
    32
  0
VERTEX
  5
216B
  8
241
 10
172.83500000000001
 20
-14.6608
 30
0.0
 70
    32
  0
VERTEX
  5
216C
  8
241
 10
172.827
 20
-14.658799999999999
 30
0.0
 70
    32
  0
VERTEX
  5
216D
  8
241
 10
172.81899999999999
 20
-14.6568
 30
0.0
 70
    32
  0
VERTEX
  5
216E
  8
241
 10
172.81100000000001
 20
-14.6548
 30
0.0
 70
    32
  0
VERTEX
  5
216F
  8
241
 10
172.803
 20
-14.652900000000001
 30
0.0
 70
    32
  0
VERTEX
  5
2170
  8
241
 10
172.79499999999999
 20
-14.6509
 30
0.0
 70
    32
  0
VERTEX
  5
2171
  8
241
 10
172.78700000000001
 20
-14.648999999999999
 30
0.0
 70
    32
  0
VERTEX
  5
2172
  8
241
 10
172.779
 20
-14.6472
 30
0.0
 70
    32
  0
VERTEX
  5
2173
  8
241
 10
172.77000000000001
 20
-14.645300000000001
 30
0.0
 70
    32
  0
VERTEX
  5
2174
  8
241
 10
172.762
 20
-14.6434
 30
0.0
 70
    32
  0
VERTEX
  5
2175
  8
241
 10
172.75399999999999
 20
-14.6416
 30
0.0
 70
    32
  0
VERTEX
  5
2176
  8
241
 10
172.7459999999999
 20
-14.639799999999999
 30
0.0
 70
    32
  0
VERTEX
  5
2177
  8
241
 10
172.738
 20
-14.638
 30
0.0
 70
    32
  0
VERTEX
  5
2178
  8
241
 10
172.72999999999999
 20
-14.636200000000001
 30
0.0
 70
    32
  0
VERTEX
  5
2179
  8
241
 10
172.72200000000001
 20
-14.634499999999999
 30
0.0
 70
    32
  0
VERTEX
  5
217A
  8
241
 10
172.71299999999999
 20
-14.6328
 30
0.0
 70
    32
  0
VERTEX
  5
217B
  8
241
 10
172.70500000000001
 20
-14.631
 30
0.0
 70
    32
  0
VERTEX
  5
217C
  8
241
 10
172.697
 20
-14.6294
 30
0.0
 70
    32
  0
VERTEX
  5
217D
  8
241
 10
172.68899999999999
 20
-14.627700000000001
 30
0.0
 70
    32
  0
VERTEX
  5
217E
  8
241
 10
172.68100000000001
 20
-14.625999999999999
 30
0.0
 70
    32
  0
VERTEX
  5
217F
  8
241
 10
172.673
 20
-14.6244
 30
0.0
 70
    32
  0
VERTEX
  5
2180
  8
241
 10
172.66399999999999
 20
-14.6228
 30
0.0
 70
    32
  0
VERTEX
  5
2181
  8
241
 10
172.65600000000001
 20
-14.6212
 30
0.0
 70
    32
  0
VERTEX
  5
2182
  8
241
 10
172.648
 20
-14.6196
 30
0.0
 70
    32
  0
VERTEX
  5
2183
  8
241
 10
172.63999999999999
 20
-14.618
 30
0.0
 70
    32
  0
VERTEX
  5
2184
  8
241
 10
172.63099999999989
 20
-14.6165
 30
0.0
 70
    32
  0
VERTEX
  5
2185
  8
241
 10
172.62299999999999
 20
-14.615
 30
0.0
 70
    32
  0
VERTEX
  5
2186
  8
241
 10
172.61500000000001
 20
-14.6135
 30
0.0
 70
    32
  0
VERTEX
  5
2187
  8
241
 10
172.607
 20
-14.612
 30
0.0
 70
    32
  0
VERTEX
  5
2188
  8
241
 10
172.59800000000001
 20
-14.6105
 30
0.0
 70
    32
  0
VERTEX
  5
2189
  8
241
 10
172.59
 20
-14.6091
 30
0.0
 70
    32
  0
VERTEX
  5
218A
  8
241
 10
172.58199999999999
 20
-14.607699999999999
 30
0.0
 70
    32
  0
VERTEX
  5
218B
  8
241
 10
172.57400000000001
 20
-14.606299999999999
 30
0.0
 70
    32
  0
VERTEX
  5
218C
  8
241
 10
172.565
 20
-14.604900000000001
 30
0.0
 70
    32
  0
VERTEX
  5
218D
  8
241
 10
172.55699999999999
 20
-14.6035
 30
0.0
 70
    32
  0
VERTEX
  5
218E
  8
241
 10
172.54900000000001
 20
-14.6022
 30
0.0
 70
    32
  0
VERTEX
  5
218F
  8
241
 10
172.53999999999999
 20
-14.600899999999999
 30
0.0
 70
    32
  0
VERTEX
  5
2190
  8
241
 10
172.53200000000001
 20
-14.599600000000001
 30
0.0
 70
    32
  0
VERTEX
  5
2191
  8
241
 10
172.524
 20
-14.5983
 30
0.0
 70
    32
  0
VERTEX
  5
2192
  8
241
 10
172.51599999999999
 20
-14.597
 30
0.0
 70
    32
  0
VERTEX
  5
2193
  8
241
 10
172.50700000000001
 20
-14.595800000000001
 30
0.0
 70
    32
  0
VERTEX
  5
2194
  8
241
 10
172.499
 20
-14.5945
 30
0.0
 70
    32
  0
VERTEX
  5
2195
  8
241
 10
172.49100000000001
 20
-14.593299999999999
 30
0.0
 70
    32
  0
VERTEX
  5
2196
  8
241
 10
172.482
 20
-14.5921
 30
0.0
 70
    32
  0
VERTEX
  5
2197
  8
241
 10
172.47399999999999
 20
-14.590999999999999
 30
0.0
 70
    32
  0
VERTEX
  5
2198
  8
241
 10
172.465
 20
-14.5898
 30
0.0
 70
    32
  0
VERTEX
  5
2199
  8
241
 10
172.45699999999999
 20
-14.588699999999999
 30
0.0
 70
    32
  0
VERTEX
  5
219A
  8
241
 10
172.44900000000001
 20
-14.5876
 30
0.0
 70
    32
  0
VERTEX
  5
219B
  8
241
 10
172.44
 20
-14.586499999999999
 30
0.0
 70
    32
  0
VERTEX
  5
219C
  8
241
 10
172.43199999999999
 20
-14.5855
 30
0.0
 70
    32
  0
VERTEX
  5
219D
  8
241
 10
172.42400000000001
 20
-14.5844
 30
0.0
 70
    32
  0
VERTEX
  5
219E
  8
241
 10
172.41499999999999
 20
-14.583399999999999
 30
0.0
 70
    32
  0
VERTEX
  5
219F
  8
241
 10
172.40700000000001
 20
-14.5824
 30
0.0
 70
    32
  0
VERTEX
  5
21A0
  8
241
 10
172.398
 20
-14.5814
 30
0.0
 70
    32
  0
VERTEX
  5
21A1
  8
241
 10
172.38999999999999
 20
-14.580399999999999
 30
0.0
 70
    32
  0
VERTEX
  5
21A2
  8
241
 10
172.38200000000001
 20
-14.579499999999999
 30
0.0
 70
    32
  0
VERTEX
  5
21A3
  8
241
 10
172.37299999999999
 20
-14.5786
 30
0.0
 70
    32
  0
VERTEX
  5
21A4
  8
241
 10
172.36500000000001
 20
-14.5777
 30
0.0
 70
    32
  0
VERTEX
  5
21A5
  8
241
 10
172.35599999999999
 20
-14.5768
 30
0.0
 70
    32
  0
VERTEX
  5
21A6
  8
241
 10
172.34800000000001
 20
-14.575900000000001
 30
0.0
 70
    32
  0
VERTEX
  5
21A7
  8
241
 10
172.34
 20
-14.575100000000001
 30
0.0
 70
    32
  0
VERTEX
  5
21A8
  8
241
 10
172.33099999999999
 20
-14.574299999999999
 30
0.0
 70
    32
  0
VERTEX
  5
21A9
  8
241
 10
172.32300000000001
 20
-14.573499999999999
 30
0.0
 70
    32
  0
VERTEX
  5
21AA
  8
241
 10
172.31399999999999
 20
-14.572699999999999
 30
0.0
 70
    32
  0
VERTEX
  5
21AB
  8
241
 10
172.30600000000001
 20
-14.571899999999999
 30
0.0
 70
    32
  0
VERTEX
  5
21AC
  8
241
 10
172.297
 20
-14.571199999999999
 30
0.0
 70
    32
  0
VERTEX
  5
21AD
  8
241
 10
172.28899999999999
 20
-14.570399999999999
 30
0.0
 70
    32
  0
VERTEX
  5
21AE
  8
241
 10
172.28
 20
-14.569699999999999
 30
0.0
 70
    32
  0
VERTEX
  5
21AF
  8
241
 10
172.27199999999999
 20
-14.569100000000001
 30
0.0
 70
    32
  0
VERTEX
  5
21B0
  8
241
 10
172.26400000000001
 20
-14.5684
 30
0.0
 70
    32
  0
VERTEX
  5
21B1
  8
241
 10
172.255
 20
-14.5678
 30
0.0
 70
    32
  0
VERTEX
  5
21B2
  8
241
 10
172.24700000000001
 20
-14.5672
 30
0.0
 70
    32
  0
VERTEX
  5
21B3
  8
241
 10
172.238
 20
-14.566599999999999
 30
0.0
 70
    32
  0
VERTEX
  5
21B4
  8
241
 10
172.22999999999999
 20
-14.566000000000001
 30
0.0
 70
    32
  0
VERTEX
  5
21B5
  8
241
 10
172.221
 20
-14.5654
 30
0.0
 70
    32
  0
VERTEX
  5
21B6
  8
241
 10
172.21299999999999
 20
-14.5649
 30
0.0
 70
    32
  0
VERTEX
  5
21B7
  8
241
 10
172.20400000000001
 20
-14.564399999999999
 30
0.0
 70
    32
  0
VERTEX
  5
21B8
  8
241
 10
172.196
 20
-14.5639
 30
0.0
 70
    32
  0
VERTEX
  5
21B9
  8
241
 10
172.18700000000001
 20
-14.5634
 30
0.0
 70
    32
  0
VERTEX
  5
21BA
  8
241
 10
172.179
 20
-14.563000000000001
 30
0.0
 70
    32
  0
VERTEX
  5
21BB
  8
241
 10
172.16999999999999
 20
-14.5625
 30
0.0
 70
    32
  0
VERTEX
  5
21BC
  8
241
 10
172.16200000000001
 20
-14.562099999999999
 30
0.0
 70
    32
  0
VERTEX
  5
21BD
  8
241
 10
172.15299999999999
 20
-14.5617
 30
0.0
 70
    32
  0
VERTEX
  5
21BE
  8
241
 10
172.14500000000001
 20
-14.561400000000001
 30
0.0
 70
    32
  0
VERTEX
  5
21BF
  8
241
 10
172.136
 20
-14.561
 30
0.0
 70
    32
  0
VERTEX
  5
21C0
  8
241
 10
172.12799999999999
 20
-14.560700000000001
 30
0.0
 70
    32
  0
VERTEX
  5
21C1
  8
241
 10
172.119
 20
-14.5604
 30
0.0
 70
    32
  0
VERTEX
  5
21C2
  8
241
 10
172.11099999999999
 20
-14.5601
 30
0.0
 70
    32
  0
VERTEX
  5
21C3
  8
241
 10
172.102
 20
-14.559799999999999
 30
0.0
 70
    32
  0
VERTEX
  5
21C4
  8
241
 10
172.09399999999999
 20
-14.5596
 30
0.0
 70
    32
  0
VERTEX
  5
21C5
  8
241
 10
172.08500000000001
 20
-14.5594
 30
0.0
 70
    32
  0
VERTEX
  5
21C6
  8
241
 10
172.077
 20
-14.559200000000001
 30
0.0
 70
    32
  0
VERTEX
  5
21C7
  8
241
 10
172.0679999999999
 20
-14.558999999999999
 30
0.0
 70
    32
  0
VERTEX
  5
21C8
  8
241
 10
172.06
 20
-14.5588
 30
0.0
 70
    32
  0
VERTEX
  5
21C9
  8
241
 10
172.05099999999999
 20
-14.5587
 30
0.0
 70
    32
  0
VERTEX
  5
21CA
  8
241
 10
172.04300000000001
 20
-14.5586
 30
0.0
 70
    32
  0
VERTEX
  5
21CB
  8
241
 10
172.03399999999999
 20
-14.5585
 30
0.0
 70
    32
  0
VERTEX
  5
21CC
  8
241
 10
172.02600000000001
 20
-14.558400000000001
 30
0.0
 70
    32
  0
VERTEX
  5
21CD
  8
241
 10
172.017
 20
-14.558299999999999
 30
0.0
 70
    32
  0
VERTEX
  5
21CE
  8
241
 10
172.00899999999999
 20
-14.558299999999999
 30
0.0
 70
    32
  0
VERTEX
  5
21CF
  8
241
 10
172.0
 20
-14.558299999999999
 30
0.0
 70
    32
  0
SEQEND
  5
21D0
  8
241
  0
LINE
  5
15B3
  8
241
 10
157.59807621135309
 20
14.251938232161081
 30
0.0
 11
165.4019237886468
 21
14.251938232161081
 31
0.0
  0
LINE
  5
15B4
  8
241
 10
157.59807621135309
 20
9.0557858094547594
 30
0.0
 11
165.4019237886468
 21
9.0557858094547594
 31
0.0
  0
LINE
  5
15B5
  8
241
 10
157.59807621135309
 20
12.81591430375013
 30
0.0
 11
165.4019237886468
 21
12.81591430375013
 31
0.0
  0
ARC
  5
15B6
  8
241
 10
157.59807621135309
 20
11.65386202080793
 30
0.0
 40
2.598076211353145
 50
90.0
 51
270.0
  0
ARC
  5
15B7
  8
241
 10
165.4019237886468
 20
11.65386202080791
 30
0.0
 40
2.598076211353173
 50
270.0
 51
90.0
  0
LINE
  5
15B8
  8
241
 10
157.59807621135309
 20
12.81591430375013
 30
0.0
 11
165.4019237886468
 21
12.81591430375013
 31
0.0
  0
ARC
  5
15B9
  8
241
 10
157.59807621135309
 20
10.21783809239699
 30
0.0
 40
2.598076211353145
 50
90.0
 51
163.95674740329409
  0
ARC
  5
15BA
  8
241
 10
165.4019237886468
 20
10.21783809239696
 30
0.0
 40
2.598076211353173
 50
16.043252596705852
 51
90.0
  0
LINE
  5
15CA
  8
243
 10
173.5000000000002
 20
4.0
 30
0.0
 11
40.799999999999933
 21
3.9999999999999991
 31
0.0
  0
LINE
  5
15D0
  8
243
 10
173.5000000000002
 20
-4.0
 30
0.0
 11
40.79999999999994
 21
-3.9999999999999991
 31
0.0
  0
LINE
  5
15DB
  8
244
 10
19.249999999999879
 20
-19.0
 30
0.0
 11
3.1443375672972982
 21
-19.0
 31
0.0
  0
ARC
  5
15DC
  8
243
 10
1.0
 20
-20.25
 30
0.0
 40
1.0
 50
90.000000000000057
 51
180.0
1001
ASK_MEN_XD
1005
13DC
1070
     1
1005
13FE
1070
     0
  0
LINE
  5
15DE
  8
243
 10
18.499999999999879
 20
18.25
 30
0.0
 11
18.499999999999879
 21
-18.25
 31
0.0
  0
LINE
  5
15DF
  8
243
 10
3.577350269189536
 20
18.25
 30
0.0
 11
3.577350269189536
 21
-18.25
 31
0.0
  0
LINE
  5
15E1
  8
243
 10
23.74999999999989
 20
-18.0
 30
0.0
 11
22.49999999999989
 21
-19.25
 31
0.0
  0
LINE
  5
15E2
  8
243
 10
19.499999999999879
 20
-19.25
 30
0.0
 11
18.499999999999879
 21
-18.25
 31
0.0
  0
LINE
  5
15E3
  8
243
 10
22.49999999999989
 20
-19.25
 30
0.0
 11
19.499999999999879
 21
-19.25
 31
0.0
  0
LINE
  5
15E4
  8
243
 10
3.577350269189536
 20
-18.25
 30
0.0
 11
2.999999999999885
 21
-19.25
 31
0.0
  0
LINE
  5
15E5
  8
243
 10
2.999999999999885
 20
-19.25
 30
0.0
 11
1.0
 21
-19.25
 31
0.0
  0
LINE
  5
15E6
  8
243
 10
18.499999999999879
 20
-18.25
 30
0.0
 11
3.577350269189536
 21
-18.25
 31
0.0
  0
LINE
  5
15E7
  8
243
 10
40.79999999999994
 20
-18.0
 30
0.0
 11
23.74999999999989
 21
-18.0
 31
0.0
  0
LINE
  5
15E8
  8
243
 10
19.49999999999579
 20
-19.25
 30
0.0
 11
19.49999999999579
 21
19.25
 31
0.0
  0
LINE
  5
15E9
  8
243
 10
22.49999999999989
 20
-19.25
 30
0.0
 11
22.499999999999918
 21
19.25
 31
0.0
  0
LINE
  5
1669
  8
243
 10
170.5000000000002
 20
9.5
 30
0.0
 11
170.5000000000002
 21
4.0
 31
0.0
  0
LINE
  5
166F
  8
243
 10
173.5000000000002
 20
6.5
 30
0.0
 11
173.5000000000002
 21
-4.0
 31
0.0
  0
TEXT
  5
17A0
  8
241
 10
-3.7999999999999958
 20
56.0
 30
0.0
 40
5.0
  1
SDF36-FMH22DP-47-180
  7
YOKO
 11
-3.7999999999999958
 21
56.0
 31
0.0
 73
     1
  0
LINE
  5
17A2
  8
250
 10
179.5
 20
23.5
 30
0.0
 11
232.0
 21
23.499999999999972
 31
0.0
  0
LINE
  5
17A3
  8
250
 10
179.5
 20
-23.5
 30
0.0
 11
232.0
 21
-23.500000000000021
 31
0.0
  0
LINE
  5
17A4
  8
250
 10
231.0
 20
21.269999999999978
 30
0.0
 11
231.0
 21
-21.270000000000021
 31
0.0
  0
LINE
  5
17A8
  8
250
 10
180.0
 20
23.0
 30
0.0
 11
180.0
 21
36.0
 31
0.0
  0
LINE
  5
17A9
  8
250
 10
185.0000000000002
 20
5.5
 30
0.0
 11
185.0000000000002
 21
36.0
 31
0.0
  0
LINE
  5
17AA
  8
250
 10
177.77000000000001
 20
35.0
 30
0.0
 11
175.53999999999999
 21
35.0
 31
0.0
  0
LINE
  5
17AB
  8
250
 10
187.2300000000001
 20
35.0
 30
0.0
 11
193.32666666666691
 21
35.0
 31
0.0
  0
LINE
  5
17AC
  8
250
 10
180.0
 20
35.0
 30
0.0
 11
185.0000000000002
 21
35.0
 31
0.0
  0
LINE
  5
17B0
  8
250
 10
180.0
 20
23.0
 30
0.0
 11
180.0
 21
43.0
 31
0.0
  0
LINE
  5
17B1
  8
250
 10
198.0000000000002
 20
10.0
 30
0.0
 11
198.0000000000002
 21
43.0
 31
0.0
  0
LINE
  5
17B2
  8
250
 10
182.22999999999999
 20
42.0
 30
0.0
 11
195.7700000000001
 21
42.0
 31
0.0
  0
LINE
  5
17B6
  8
250
 10
0.0
 20
23.899999999999981
 30
0.0
 11
0.0000000000000012
 21
43.0
 31
0.0
  0
LINE
  5
17B7
  8
250
 10
180.0
 20
23.0
 30
0.0
 11
180.0
 21
43.0
 31
0.0
  0
LINE
  5
17B8
  8
250
 10
2.23
 20
42.0
 30
0.0
 11
177.77000000000001
 21
42.0
 31
0.0
  0
LINE
  5
17BC
  8
241
 10
174.5
 20
-16.26345596729066
 30
0.0
 11
174.48177218524501
 21
-16.476536727266311
 31
0.0
  0
LINE
  5
17BD
  8
241
 10
174.48177218524501
 20
-16.476536727266311
 30
0.0
 11
174.33754060671339
 21
-16.890314767964838
 31
0.0
  0
LINE
  5
17BE
  8
241
 10
174.33754060671339
 20
-16.890314767964838
 30
0.0
 11
174.05745966473401
 21
-17.26766205370722
 31
0.0
  0
LINE
  5
17BF
  8
241
 10
174.05745966473401
 20
-17.26766205370722
 30
0.0
 11
173.65780664560191
 21
-17.586648531847679
 31
0.0
  0
LINE
  5
17C0
  8
241
 10
173.65780664560191
 20
-17.586648531847679
 30
0.0
 11
173.16180793010929
 21
-17.828735867745358
 31
0.0
  0
LINE
  5
17C1
  8
241
 10
173.16180793010929
 20
-17.828735867745358
 30
0.0
 11
172.59828916071891
 21
-17.979854825389541
 31
0.0
  0
LINE
  5
17C2
  8
241
 10
172.59828916071891
 20
-17.979854825389541
 30
0.0
 11
172.0
 21
-18.031222920257012
 31
0.0
  0
LINE
  5
17C3
  8
241
 10
172.0
 20
-18.031222920257012
 30
0.0
 11
171.40171083928101
 21
-17.979854825389541
 31
0.0
  0
LINE
  5
17C4
  8
241
 10
171.40171083928101
 20
-17.979854825389541
 30
0.0
 11
170.83819206989051
 21
-17.828735867745358
 31
0.0
  0
LINE
  5
17C5
  8
241
 10
170.83819206989051
 20
-17.828735867745358
 30
0.0
 11
170.34219335439781
 21
-17.586648531847661
 31
0.0
  0
LINE
  5
17C6
  8
241
 10
170.34219335439781
 20
-17.586648531847661
 30
0.0
 11
169.94254033526579
 21
-17.267662053707198
 31
0.0
  0
LINE
  5
17C7
  8
241
 10
169.94254033526579
 20
-17.267662053707198
 30
0.0
 11
169.6624593932863
 21
-16.89031476796481
 31
0.0
  0
LINE
  5
17C8
  8
241
 10
169.6624593932863
 20
-16.89031476796481
 30
0.0
 11
169.51822781475479
 21
-16.476536727266279
 31
0.0
  0
LINE
  5
17C9
  8
241
 10
169.51822781475479
 20
-16.476536727266279
 30
0.0
 11
169.5
 21
-16.26345596729066
 31
0.0
  0
LINE
  5
17CA
  8
250
 10
197.5000000000002
 20
-11.0
 30
0.0
 11
225.0
 21
-11.0
 31
0.0
  0
LINE
  5
17CB
  8
250
 10
197.5000000000002
 20
11.0
 30
0.0
 11
225.0
 21
10.99999999999998
 31
0.0
  0
LINE
  5
17CC
  8
250
 10
224.0
 20
-8.7700000000000067
 30
0.0
 11
224.0
 21
8.7699999999999925
 31
0.0
  0
TEXT
  5
17D0
  8
250
 10
230.0
 20
-3.7999999999999772
 30
0.0
 40
2.799999999999998
  1
\U+220547
 50
90.0
  0
LINE
  5
17D1
  8
250
 10
231.3716666666667
 20
-21.270000000000021
 30
0.0
 11
231.0
 21
-23.500000000000021
 31
0.0
  0
LINE
  5
17D2
  8
250
 10
230.6283333333333
 20
-21.270000000000021
 30
0.0
 11
231.0
 21
-23.500000000000021
 31
0.0
  0
LINE
  5
17D3
  8
250
 10
231.0
 20
-23.500000000000021
 30
0.0
 11
231.0
 21
-21.270000000000021
 31
0.0
  0
LINE
  5
17D4
  8
250
 10
230.6283333333333
 20
21.269999999999978
 30
0.0
 11
231.0
 21
23.499999999999989
 31
0.0
  0
LINE
  5
17D5
  8
250
 10
231.3716666666667
 20
21.269999999999978
 30
0.0
 11
231.0
 21
23.499999999999989
 31
0.0
  0
LINE
  5
17D6
  8
250
 10
231.0
 20
23.499999999999989
 30
0.0
 11
231.0
 21
21.269999999999978
 31
0.0
  0
TEXT
  5
17D7
  8
250
 10
190.0600000000002
 20
36.0
 30
0.0
 40
2.799999999999998
  1
5
  0
LINE
  5
17D8
  8
250
 10
187.2300000000001
 20
34.62833333333333
 30
0.0
 11
185.0000000000002
 21
35.0
 31
0.0
  0
LINE
  5
17D9
  8
250
 10
187.2300000000001
 20
35.37166666666667
 30
0.0
 11
185.0000000000002
 21
35.0
 31
0.0
  0
LINE
  5
17DA
  8
250
 10
185.0000000000002
 20
35.0
 30
0.0
 11
187.2300000000001
 21
35.0
 31
0.0
  0
LINE
  5
17DB
  8
250
 10
177.77000000000001
 20
35.37166666666667
 30
0.0
 11
180.0
 21
35.0
 31
0.0
  0
LINE
  5
17DC
  8
250
 10
177.77000000000001
 20
34.62833333333333
 30
0.0
 11
180.0
 21
35.0
 31
0.0
  0
LINE
  5
17DD
  8
250
 10
180.0
 20
35.0
 30
0.0
 11
177.77000000000001
 21
35.0
 31
0.0
  0
TEXT
  5
17DE
  8
250
 10
186.13333333333341
 20
43.0
 30
0.0
 40
2.799999999999998
  1
18
  0
LINE
  5
17DF
  8
250
 10
195.7700000000001
 20
42.371666666666663
 30
0.0
 11
198.0000000000002
 21
42.0
 31
0.0
  0
LINE
  5
17E0
  8
250
 10
195.7700000000001
 20
41.62833333333333
 30
0.0
 11
198.0000000000002
 21
42.0
 31
0.0
  0
LINE
  5
17E1
  8
250
 10
198.0000000000002
 20
42.0
 30
0.0
 11
195.7700000000001
 21
42.0
 31
0.0
  0
LINE
  5
17E2
  8
250
 10
182.22999999999999
 20
41.62833333333333
 30
0.0
 11
180.0
 21
42.0
 31
0.0
  0
LINE
  5
17E3
  8
250
 10
182.22999999999999
 20
42.371666666666663
 30
0.0
 11
180.0
 21
42.0
 31
0.0
  0
LINE
  5
17E4
  8
250
 10
180.0
 20
42.0
 30
0.0
 11
182.22999999999999
 21
42.0
 31
0.0
  0
TEXT
  5
17E5
  8
250
 10
85.799999999999983
 20
43.0
 30
0.0
 40
2.799999999999998
  1
180
  0
LINE
  5
17E6
  8
250
 10
177.77000000000001
 20
42.371666666666663
 30
0.0
 11
180.0
 21
42.0
 31
0.0
  0
LINE
  5
17E7
  8
250
 10
177.77000000000001
 20
41.62833333333333
 30
0.0
 11
180.0
 21
42.0
 31
0.0
  0
LINE
  5
17E8
  8
250
 10
180.0
 20
42.0
 30
0.0
 11
177.77000000000001
 21
42.0
 31
0.0
  0
LINE
  5
17E9
  8
250
 10
2.23
 20
41.62833333333333
 30
0.0
 11
0.0000000000000011
 21
42.0
 31
0.0
  0
LINE
  5
17EA
  8
250
 10
2.23
 20
42.371666666666663
 30
0.0
 11
0.0000000000000011
 21
42.0
 31
0.0
  0
LINE
  5
17EB
  8
250
 10
0.0000000000000011
 20
42.0
 30
0.0
 11
2.23
 21
42.0
 31
0.0
  0
TEXT
  5
17EC
  8
250
 10
223.0
 20
-3.8952380952380929
 30
0.0
 40
3.0
  1
\U+2205
 50
90.0
  0
TEXT
  5
17ED
  8
250
 10
222.90000000000001
 20
-1.1809523809523801
 30
0.0
 40
2.799999999999998
  1
22
 50
90.0
  0
LINE
  5
17EE
  8
250
 10
223.6283333333333
 20
8.7699999999999925
 30
0.0
 11
224.0
 21
10.99999999999998
 31
0.0
  0
LINE
  5
17EF
  8
250
 10
224.3716666666667
 20
8.7699999999999925
 30
0.0
 11
224.0
 21
10.99999999999998
 31
0.0
  0
LINE
  5
17F0
  8
250
 10
224.0
 20
10.99999999999998
 30
0.0
 11
224.0
 21
8.7699999999999925
 31
0.0
  0
LINE
  5
17F1
  8
250
 10
224.3716666666667
 20
-8.7700000000000067
 30
0.0
 11
224.0
 21
-11.0
 31
0.0
  0
LINE
  5
17F2
  8
250
 10
223.6283333333333
 20
-8.7700000000000067
 30
0.0
 11
224.0
 21
-11.0
 31
0.0
  0
LINE
  5
17F3
  8
250
 10
224.0
 20
-11.0
 30
0.0
 11
224.0
 21
-8.7700000000000067
 31
0.0
  0
VIEWPORT
  5
22
 67
     1
  8
0
 10
261.51769911504419
 20
148.5
 30
0.0
 40
523.0353982300885
 41
297.0
 68
     1
 69
     1
1001
ACAD
1000
MVIEW
1002
{
1070
    16
1010
0.0
1020
0.0
1030
0.0
1010
0.0
1020
0.0
1030
1.0
1040
0.0
1040
297.0
1040
261.51769911504419
1040
148.5
1040
50.0
1040
0.0
1040
0.0
1070
     0
1070
   100
1070
     1
1070
     1
1070
     0
1070
     0
1070
     0
1070
     0
1040
0.0
1040
0.0
1040
0.0
1040
1.0
1040
1.0
1040
10.0
1040
10.0
1070
     0
1002
{
1002
}
1002
}
1001
GENIUS_GENODEF_13
1002
{
1000
HIER
1070
     0
1002
}
1002
{
1000
MANEDIT
1070
     0
1002
}
1002
{
1000
NOSEL
1070
     0
1002
}
1002
{
1000
BEHIND
1070
     0
1002
}
1002
{
1000
OTHER
1070
     0
1002
}
1002
{
1000
REACTOR
1002
}
1001
GENIUS_GENOBJ-N-SDF_13
1002
{
1000
OWNER
1000
GEN
1002
}
1001
GENIUS_GENSCREG_15
1000
PF
1040
1.0
1000
DF
1040
1.0
1000
MIN
1011
0.0
1021
-14336.000217437744
1031
0.0
1021
0.0
1031
0.0
1000
MAX
1011
523.0353982300885
1021
-14336.000217437744
1031
0.0
1021
297.0
1031
0.0
1000
FLAGS
1070
     2
  0
ENDSEC
  0
EOF
