ISO-10303-21;
HEADER;
FILE_DESCRIPTION((''),'1');
FILE_NAME('T:/02_3D_Field-HP\X2\FF71FF6FFF8CFF9F5916\X0\2013/02_Step_Field-HP\X2\FF71FF6FFF8CFF9F5916\X0\2013/MGT6-d-70_M2-6.stp','2017-02-08T05:43:24',(''),(''),'Spatial Interop R21 SP3','Kubotek KeyCreator 2011 V10.0.2 (22737)',' ');
FILE_SCHEMA(('automotive_design'));
ENDSEC;
DATA;
#1=MECHANICAL_DESIGN_GEOMETRIC_PRESENTATION_REPRESENTATION(' ',(#10,#11,#12,#13,#14,#15,#16,#17,#18,#19,#20,#21,#22,#23,#24,#25,#26,#27,#28,#29,#30,#31,#32,#33,#34,#35,#36,#37),#6);
#2=PRODUCT_DEFINITION_CONTEXT('',#38,'design');
#3=APPLICATION_PROTOCOL_DEFINITION('INTERNATIONAL STANDARD','automotive_design',1994,#38);
#4=PRODUCT_CATEGORY_RELATIONSHIP('NONE','NONE',#39,#40);
#5=SHAPE_DEFINITION_REPRESENTATION(#41,#42);
#6= (GEOMETRIC_REPRESENTATION_CONTEXT(3)GLOBAL_UNCERTAINTY_ASSIGNED_CONTEXT((#45))GLOBAL_UNIT_ASSIGNED_CONTEXT((#47,#48,#49))REPRESENTATION_CONTEXT('NONE','WORKSPACE'));
#10=STYLED_ITEM('',(#51,#52),#53);
#11=STYLED_ITEM('',(#54),#55);
#12=STYLED_ITEM('',(#56,#57),#58);
#13=STYLED_ITEM('',(#59,#60),#61);
#14=STYLED_ITEM('',(#62,#63),#64);
#15=STYLED_ITEM('',(#65),#66);
#16=STYLED_ITEM('',(#67),#68);
#17=STYLED_ITEM('',(#69,#70),#71);
#18=STYLED_ITEM('',(#72),#73);
#19=STYLED_ITEM('',(#74),#75);
#20=STYLED_ITEM('',(#76,#77),#78);
#21=STYLED_ITEM('',(#79,#80),#81);
#22=STYLED_ITEM('',(#82),#83);
#23=STYLED_ITEM('',(#84,#85),#86);
#24=STYLED_ITEM('',(#87),#88);
#25=STYLED_ITEM('',(#89),#90);
#26=STYLED_ITEM('',(#91),#92);
#27=STYLED_ITEM('',(#93,#94),#95);
#28=STYLED_ITEM('',(#96),#97);
#29=STYLED_ITEM('',(#98),#99);
#30=STYLED_ITEM('',(#100,#101),#102);
#31=STYLED_ITEM('',(#103,#104),#105);
#32=STYLED_ITEM('',(#106),#107);
#33=STYLED_ITEM('',(#108,#109),#110);
#34=STYLED_ITEM('',(#111,#112),#113);
#35=STYLED_ITEM('',(#114,#115),#116);
#36=STYLED_ITEM('',(#117),#118);
#37=STYLED_ITEM('',(#119,#120),#121);
#38=APPLICATION_CONTEXT(' ');
#39=PRODUCT_CATEGORY('part','NONE');
#40=PRODUCT_RELATED_PRODUCT_CATEGORY('detail',' ',(#122));
#41=PRODUCT_DEFINITION_SHAPE('NONE','NONE',#123);
#42=ADVANCED_BREP_SHAPE_REPRESENTATION('240[2]',(#58,#124),#6);
#45=UNCERTAINTY_MEASURE_WITH_UNIT(LENGTH_MEASURE(1.0E-006),#47,'','');
#47= (CONVERSION_BASED_UNIT('MILLIMETRE',#127)LENGTH_UNIT()NAMED_UNIT(#130));
#48= (NAMED_UNIT(#132)PLANE_ANGLE_UNIT()SI_UNIT($,.RADIAN.));
#49= (NAMED_UNIT(#132)SOLID_ANGLE_UNIT()SI_UNIT($,.STERADIAN.));
#51=PRESENTATION_STYLE_ASSIGNMENT((#138));
#52=PRESENTATION_STYLE_ASSIGNMENT((#139));
#53=ADVANCED_FACE('240[2]',(#140,#141),#142,.T.);
#54=PRESENTATION_STYLE_ASSIGNMENT((#143));
#55=EDGE_CURVE('240[2]',#144,#144,#145,.T.);
#56=PRESENTATION_STYLE_ASSIGNMENT((#146));
#57=PRESENTATION_STYLE_ASSIGNMENT((#147));
#58=MANIFOLD_SOLID_BREP('240[2]',#148);
#59=PRESENTATION_STYLE_ASSIGNMENT((#149));
#60=PRESENTATION_STYLE_ASSIGNMENT((#150));
#61=ADVANCED_FACE('240[2]',(#151,#152),#153,.T.);
#62=PRESENTATION_STYLE_ASSIGNMENT((#154));
#63=PRESENTATION_STYLE_ASSIGNMENT((#155));
#64=ADVANCED_FACE('240[2]',(#156,#157),#158,.T.);
#65=PRESENTATION_STYLE_ASSIGNMENT((#159));
#66=EDGE_CURVE('240[2]',#160,#160,#161,.T.);
#67=PRESENTATION_STYLE_ASSIGNMENT((#162));
#68=EDGE_CURVE('240[2]',#163,#163,#164,.T.);
#69=PRESENTATION_STYLE_ASSIGNMENT((#165));
#70=PRESENTATION_STYLE_ASSIGNMENT((#166));
#71=ADVANCED_FACE('240[2]',(#167,#168),#169,.T.);
#72=PRESENTATION_STYLE_ASSIGNMENT((#170));
#73=EDGE_CURVE('240[2]',#171,#171,#172,.T.);
#74=PRESENTATION_STYLE_ASSIGNMENT((#173));
#75=EDGE_CURVE('240[2]',#174,#174,#175,.T.);
#76=PRESENTATION_STYLE_ASSIGNMENT((#176));
#77=PRESENTATION_STYLE_ASSIGNMENT((#177));
#78=ADVANCED_FACE('240[2]',(#178),#179,.T.);
#79=PRESENTATION_STYLE_ASSIGNMENT((#180));
#80=PRESENTATION_STYLE_ASSIGNMENT((#181));
#81=ADVANCED_FACE('240[2]',(#182,#183),#184,.T.);
#82=PRESENTATION_STYLE_ASSIGNMENT((#185));
#83=EDGE_CURVE('240[2]',#186,#186,#187,.T.);
#84=PRESENTATION_STYLE_ASSIGNMENT((#188));
#85=PRESENTATION_STYLE_ASSIGNMENT((#189));
#86=ADVANCED_FACE('240[2]',(#190,#191),#192,.T.);
#87=PRESENTATION_STYLE_ASSIGNMENT((#193));
#88=EDGE_CURVE('240[2]',#194,#194,#195,.T.);
#89=PRESENTATION_STYLE_ASSIGNMENT((#196));
#90=EDGE_CURVE('240[2]',#197,#197,#198,.T.);
#91=PRESENTATION_STYLE_ASSIGNMENT((#199));
#92=EDGE_CURVE('240[2]',#200,#200,#201,.T.);
#93=PRESENTATION_STYLE_ASSIGNMENT((#202));
#94=PRESENTATION_STYLE_ASSIGNMENT((#203));
#95=ADVANCED_FACE('240[2]',(#204),#205,.T.);
#96=PRESENTATION_STYLE_ASSIGNMENT((#206));
#97=EDGE_CURVE('240[2]',#207,#207,#208,.T.);
#98=PRESENTATION_STYLE_ASSIGNMENT((#209));
#99=EDGE_CURVE('240[2]',#210,#210,#211,.T.);
#100=PRESENTATION_STYLE_ASSIGNMENT((#212));
#101=PRESENTATION_STYLE_ASSIGNMENT((#213));
#102=ADVANCED_FACE('240[2]',(#214,#215),#216,.T.);
#103=PRESENTATION_STYLE_ASSIGNMENT((#217));
#104=PRESENTATION_STYLE_ASSIGNMENT((#218));
#105=ADVANCED_FACE('240[2]',(#219,#220),#221,.T.);
#106=PRESENTATION_STYLE_ASSIGNMENT((#222));
#107=EDGE_CURVE('240[2]',#223,#223,#224,.T.);
#108=PRESENTATION_STYLE_ASSIGNMENT((#225));
#109=PRESENTATION_STYLE_ASSIGNMENT((#226));
#110=ADVANCED_FACE('240[2]',(#227,#228),#229,.T.);
#111=PRESENTATION_STYLE_ASSIGNMENT((#230));
#112=PRESENTATION_STYLE_ASSIGNMENT((#231));
#113=ADVANCED_FACE('240[2]',(#232,#233),#234,.T.);
#114=PRESENTATION_STYLE_ASSIGNMENT((#235));
#115=PRESENTATION_STYLE_ASSIGNMENT((#236));
#116=ADVANCED_FACE('240[2]',(#237,#238),#239,.T.);
#117=PRESENTATION_STYLE_ASSIGNMENT((#240));
#118=EDGE_CURVE('240[2]',#241,#241,#242,.T.);
#119=PRESENTATION_STYLE_ASSIGNMENT((#243));
#120=PRESENTATION_STYLE_ASSIGNMENT((#244));
#121=ADVANCED_FACE('240[2]',(#245,#246),#247,.T.);
#122=PRODUCT('240[2]','240[2]','PART-240[2]-DESC',(#248));
#123=PRODUCT_DEFINITION('NONE','NONE',#249,#2);
#124=AXIS2_PLACEMENT_3D('',#250,#251,#252);
#127=LENGTH_MEASURE_WITH_UNIT(LENGTH_MEASURE(1.0),#253);
#130=DIMENSIONAL_EXPONENTS(1.0,0.0,0.0,0.0,0.0,0.0,0.0);
#132=DIMENSIONAL_EXPONENTS(0.0,0.0,0.0,0.0,0.0,0.0,0.0);
#138=SURFACE_STYLE_USAGE(.BOTH.,#254);
#139=CURVE_STYLE('',#255,POSITIVE_LENGTH_MEASURE(1000.0),#256);
#140=FACE_BOUND('',#257,.T.);
#141=FACE_BOUND('',#258,.T.);
#142=CYLINDRICAL_SURFACE('',#259,7.99999999999966);
#143=CURVE_STYLE('',#260,POSITIVE_LENGTH_MEASURE(1000.0),#261);
#144=VERTEX_POINT('',#262);
#145=CIRCLE('',#263,8.00000000000011);
#146=SURFACE_STYLE_USAGE(.BOTH.,#264);
#147=CURVE_STYLE('',#265,POSITIVE_LENGTH_MEASURE(1000.0),#266);
#148=CLOSED_SHELL('',(#110,#116,#86,#64,#61,#102,#113,#81,#121,#53,#78,#105,#95,#71));
#149=SURFACE_STYLE_USAGE(.BOTH.,#267);
#150=CURVE_STYLE('',#268,POSITIVE_LENGTH_MEASURE(1000.0),#269);
#151=FACE_OUTER_BOUND('',#270,.T.);
#152=FACE_BOUND('',#271,.T.);
#153=PLANE('',#272);
#154=SURFACE_STYLE_USAGE(.BOTH.,#273);
#155=CURVE_STYLE('',#274,POSITIVE_LENGTH_MEASURE(1000.0),#275);
#156=FACE_BOUND('',#276,.T.);
#157=FACE_BOUND('',#277,.T.);
#158=CYLINDRICAL_SURFACE('',#278,8.00000000000019);
#159=CURVE_STYLE('',#279,POSITIVE_LENGTH_MEASURE(1000.0),#280);
#160=VERTEX_POINT('',#281);
#161=CIRCLE('',#282,10.5000000000001);
#162=CURVE_STYLE('',#283,POSITIVE_LENGTH_MEASURE(1000.0),#284);
#163=VERTEX_POINT('',#285);
#164=CIRCLE('',#286,7.99999999999965);
#165=SURFACE_STYLE_USAGE(.BOTH.,#287);
#166=CURVE_STYLE('',#288,POSITIVE_LENGTH_MEASURE(1000.0),#289);
#167=FACE_BOUND('',#290,.T.);
#168=FACE_BOUND('',#291,.T.);
#169=CYLINDRICAL_SURFACE('',#292,8.00000000000011);
#170=CURVE_STYLE('',#293,POSITIVE_LENGTH_MEASURE(1000.0),#294);
#171=VERTEX_POINT('',#295);
#172=CIRCLE('',#296,8.1499999999993);
#173=CURVE_STYLE('',#297,POSITIVE_LENGTH_MEASURE(1000.0),#298);
#174=VERTEX_POINT('',#299);
#175=CIRCLE('',#300,8.1499999999993);
#176=SURFACE_STYLE_USAGE(.BOTH.,#301);
#177=CURVE_STYLE('',#302,POSITIVE_LENGTH_MEASURE(1000.0),#303);
#178=FACE_OUTER_BOUND('',#304,.T.);
#179=PLANE('',#305);
#180=SURFACE_STYLE_USAGE(.BOTH.,#306);
#181=CURVE_STYLE('',#307,POSITIVE_LENGTH_MEASURE(1000.0),#308);
#182=FACE_BOUND('',#309,.T.);
#183=FACE_BOUND('',#310,.T.);
#184=CYLINDRICAL_SURFACE('',#311,8.1499999999993);
#185=CURVE_STYLE('',#312,POSITIVE_LENGTH_MEASURE(1000.0),#313);
#186=VERTEX_POINT('',#314);
#187=CIRCLE('',#315,8.00000000000073);
#188=SURFACE_STYLE_USAGE(.BOTH.,#316);
#189=CURVE_STYLE('',#317,POSITIVE_LENGTH_MEASURE(1000.0),#318);
#190=FACE_BOUND('',#319,.T.);
#191=FACE_BOUND('',#320,.T.);
#192=CONICAL_SURFACE('',#321,9.50000000000042,1.30899693899588);
#193=CURVE_STYLE('',#322,POSITIVE_LENGTH_MEASURE(1000.0),#323);
#194=VERTEX_POINT('',#324);
#195=CIRCLE('',#325,11.0000000000001);
#196=CURVE_STYLE('',#326,POSITIVE_LENGTH_MEASURE(1000.0),#327);
#197=VERTEX_POINT('',#328);
#198=CIRCLE('',#329,11.0000000000001);
#199=CURVE_STYLE('',#330,POSITIVE_LENGTH_MEASURE(1000.0),#331);
#200=VERTEX_POINT('',#332);
#201=CIRCLE('',#333,7.99999999999966);
#202=SURFACE_STYLE_USAGE(.BOTH.,#334);
#203=CURVE_STYLE('',#335,POSITIVE_LENGTH_MEASURE(1000.0),#336);
#204=FACE_OUTER_BOUND('',#337,.T.);
#205=PLANE('',#338);
#206=CURVE_STYLE('',#339,POSITIVE_LENGTH_MEASURE(1000.0),#340);
#207=VERTEX_POINT('',#341);
#208=CIRCLE('',#342,6.20000000000312);
#209=CURVE_STYLE('',#343,POSITIVE_LENGTH_MEASURE(1000.0),#344);
#210=VERTEX_POINT('',#345);
#211=CIRCLE('',#346,6.20000000000312);
#212=SURFACE_STYLE_USAGE(.BOTH.,#347);
#213=CURVE_STYLE('',#348,POSITIVE_LENGTH_MEASURE(1000.0),#349);
#214=FACE_BOUND('',#350,.T.);
#215=FACE_BOUND('',#351,.T.);
#216=CYLINDRICAL_SURFACE('',#352,6.20000000000312);
#217=SURFACE_STYLE_USAGE(.BOTH.,#353);
#218=CURVE_STYLE('',#354,POSITIVE_LENGTH_MEASURE(1000.0),#355);
#219=FACE_BOUND('',#356,.T.);
#220=FACE_BOUND('',#357,.T.);
#221=CONICAL_SURFACE('',#358,10.7500000000001,0.349065850398498);
#222=CURVE_STYLE('',#359,POSITIVE_LENGTH_MEASURE(1000.0),#360);
#223=VERTEX_POINT('',#361);
#224=CIRCLE('',#362,7.99999999999966);
#225=SURFACE_STYLE_USAGE(.BOTH.,#363);
#226=CURVE_STYLE('',#364,POSITIVE_LENGTH_MEASURE(1000.0),#365);
#227=FACE_OUTER_BOUND('',#366,.T.);
#228=FACE_BOUND('',#367,.T.);
#229=PLANE('',#368);
#230=SURFACE_STYLE_USAGE(.BOTH.,#369);
#231=CURVE_STYLE('',#370,POSITIVE_LENGTH_MEASURE(1000.0),#371);
#232=FACE_OUTER_BOUND('',#372,.T.);
#233=FACE_BOUND('',#373,.T.);
#234=PLANE('',#374);
#235=SURFACE_STYLE_USAGE(.BOTH.,#375);
#236=CURVE_STYLE('',#376,POSITIVE_LENGTH_MEASURE(1000.0),#377);
#237=FACE_BOUND('',#378,.T.);
#238=FACE_BOUND('',#379,.T.);
#239=CYLINDRICAL_SURFACE('',#380,11.0000000000001);
#240=CURVE_STYLE('',#381,POSITIVE_LENGTH_MEASURE(1000.0),#382);
#241=VERTEX_POINT('',#383);
#242=CIRCLE('',#384,8.00000000000011);
#243=SURFACE_STYLE_USAGE(.BOTH.,#385);
#244=CURVE_STYLE('',#386,POSITIVE_LENGTH_MEASURE(1000.0),#387);
#245=FACE_BOUND('',#388,.T.);
#246=FACE_BOUND('',#389,.T.);
#247=CONICAL_SURFACE('',#390,8.07499999999948,0.124354994546163);
#248=PRODUCT_CONTEXT('',#38,'mechanical');
#249=PRODUCT_DEFINITION_FORMATION_WITH_SPECIFIED_SOURCE(' ','NONE',#122,.NOT_KNOWN.);
#250=CARTESIAN_POINT('',(0.0,0.0,0.0));
#251=DIRECTION('',(0.0,0.0,1.0));
#252=DIRECTION('',(1.0,0.0,0.0));
#253= (NAMED_UNIT(#130)LENGTH_UNIT()SI_UNIT(.MILLI.,.METRE.));
#254=SURFACE_SIDE_STYLE('',(#392));
#255=DRAUGHTING_PRE_DEFINED_CURVE_FONT('continuous');
#256=COLOUR_RGB('',0.0,1.0,1.0);
#257=EDGE_LOOP('',(#393));
#258=EDGE_LOOP('',(#394));
#259=AXIS2_PLACEMENT_3D('',#395,#396,#397);
#260=DRAUGHTING_PRE_DEFINED_CURVE_FONT('continuous');
#261=COLOUR_RGB('',0.0,1.0,1.0);
#262=CARTESIAN_POINT('',(-7.19479994499115E-015,8.0000000000001,117.500000000007));
#263=AXIS2_PLACEMENT_3D('',#398,#399,#400);
#264=SURFACE_SIDE_STYLE('',(#401));
#265=DRAUGHTING_PRE_DEFINED_CURVE_FONT('continuous');
#266=COLOUR_RGB('',0.0,1.0,1.0);
#267=SURFACE_SIDE_STYLE('',(#402));
#268=DRAUGHTING_PRE_DEFINED_CURVE_FONT('continuous');
#269=COLOUR_RGB('',0.0,1.0,1.0);
#270=EDGE_LOOP('',(#403));
#271=EDGE_LOOP('',(#404));
#272=AXIS2_PLACEMENT_3D('',#405,#406,#407);
#273=SURFACE_SIDE_STYLE('',(#408));
#274=DRAUGHTING_PRE_DEFINED_CURVE_FONT('continuous');
#275=COLOUR_RGB('',0.0,1.0,1.0);
#276=EDGE_LOOP('',(#409));
#277=EDGE_LOOP('',(#410));
#278=AXIS2_PLACEMENT_3D('',#411,#412,#413);
#279=DRAUGHTING_PRE_DEFINED_CURVE_FONT('continuous');
#280=COLOUR_RGB('',0.0,1.0,1.0);
#281=CARTESIAN_POINT('',(-4.6842740067387E-015,10.5000000000001,76.5000000000012));
#282=AXIS2_PLACEMENT_3D('',#414,#415,#416);
#283=DRAUGHTING_PRE_DEFINED_CURVE_FONT('continuous');
#284=COLOUR_RGB('',0.0,1.0,1.0);
#285=CARTESIAN_POINT('',(-1.22464679914816E-015,7.99999999999964,20.0000000000133));
#286=AXIS2_PLACEMENT_3D('',#417,#418,#419);
#287=SURFACE_SIDE_STYLE('',(#420));
#288=DRAUGHTING_PRE_DEFINED_CURVE_FONT('continuous');
#289=COLOUR_RGB('',0.0,1.0,1.0);
#290=EDGE_LOOP('',(#421));
#291=EDGE_LOOP('',(#422));
#292=AXIS2_PLACEMENT_3D('',#423,#424,#425);
#293=DRAUGHTING_PRE_DEFINED_CURVE_FONT('continuous');
#294=COLOUR_RGB('',0.0,1.0,1.0);
#295=CARTESIAN_POINT('',(-1.16341445919098E-015,8.14999999999929,19.0000000000162));
#296=AXIS2_PLACEMENT_3D('',#426,#427,#428);
#297=DRAUGHTING_PRE_DEFINED_CURVE_FONT('continuous');
#298=COLOUR_RGB('',0.0,1.0,1.0);
#299=CARTESIAN_POINT('',(-1.04094977927555E-015,8.14999999999929,17.0000000000048));
#300=AXIS2_PLACEMENT_3D('',#429,#430,#431);
#301=SURFACE_SIDE_STYLE('',(#432));
#302=DRAUGHTING_PRE_DEFINED_CURVE_FONT('continuous');
#303=COLOUR_RGB('',0.0,1.0,1.0);
#304=EDGE_LOOP('',(#433));
#305=AXIS2_PLACEMENT_3D('',#434,#435,#436);
#306=SURFACE_SIDE_STYLE('',(#437));
#307=DRAUGHTING_PRE_DEFINED_CURVE_FONT('continuous');
#308=COLOUR_RGB('',0.0,1.0,1.0);
#309=EDGE_LOOP('',(#438));
#310=EDGE_LOOP('',(#439));
#311=AXIS2_PLACEMENT_3D('',#440,#441,#442);
#312=DRAUGHTING_PRE_DEFINED_CURVE_FONT('continuous');
#313=COLOUR_RGB('',0.0,1.0,1.0);
#314=CARTESIAN_POINT('',(-4.23704232888903E-015,8.00000000000072,69.196152422707));
#315=AXIS2_PLACEMENT_3D('',#443,#444,#445);
#316=SURFACE_SIDE_STYLE('',(#446));
#317=DRAUGHTING_PRE_DEFINED_CURVE_FONT('continuous');
#318=COLOUR_RGB('',0.0,1.0,1.0);
#319=EDGE_LOOP('',(#447));
#320=EDGE_LOOP('',(#448));
#321=AXIS2_PLACEMENT_3D('',#449,#450,#451);
#322=DRAUGHTING_PRE_DEFINED_CURVE_FONT('continuous');
#323=COLOUR_RGB('',0.0,1.0,1.0);
#324=CARTESIAN_POINT('',(-4.60015677105198E-015,11.0000000000001,75.1262612902723));
#325=AXIS2_PLACEMENT_3D('',#452,#453,#454);
#326=DRAUGHTING_PRE_DEFINED_CURVE_FONT('continuous');
#327=COLOUR_RGB('',0.0,1.0,1.0);
#328=CARTESIAN_POINT('',(-4.28626379701573E-015,11.0000000000001,69.9999999999998));
#329=AXIS2_PLACEMENT_3D('',#455,#456,#457);
#330=DRAUGHTING_PRE_DEFINED_CURVE_FONT('continuous');
#331=COLOUR_RGB('',0.0,1.0,1.0);
#332=CARTESIAN_POINT('',(-1.99366137737529E-028,7.99999999999966,3.25526544722058E-012));
#333=AXIS2_PLACEMENT_3D('',#458,#459,#460);
#334=SURFACE_SIDE_STYLE('',(#461));
#335=DRAUGHTING_PRE_DEFINED_CURVE_FONT('continuous');
#336=COLOUR_RGB('',0.0,1.0,1.0);
#337=EDGE_LOOP('',(#462));
#338=AXIS2_PLACEMENT_3D('',#463,#464,#465);
#339=DRAUGHTING_PRE_DEFINED_CURVE_FONT('continuous');
#340=COLOUR_RGB('',0.0,1.0,1.0);
#341=CARTESIAN_POINT('',(-1.16341445918731E-015,6.20000000000311,18.9999999999562));
#342=AXIS2_PLACEMENT_3D('',#466,#467,#468);
#343=DRAUGHTING_PRE_DEFINED_CURVE_FONT('continuous');
#344=COLOUR_RGB('',0.0,1.0,1.0);
#345=CARTESIAN_POINT('',(-1.22464679914505E-015,6.20000000000311,19.9999999999623));
#346=AXIS2_PLACEMENT_3D('',#469,#470,#471);
#347=SURFACE_SIDE_STYLE('',(#472));
#348=DRAUGHTING_PRE_DEFINED_CURVE_FONT('continuous');
#349=COLOUR_RGB('',0.0,1.0,1.0);
#350=EDGE_LOOP('',(#473));
#351=EDGE_LOOP('',(#474));
#352=AXIS2_PLACEMENT_3D('',#475,#476,#477);
#353=SURFACE_SIDE_STYLE('',(#478));
#354=DRAUGHTING_PRE_DEFINED_CURVE_FONT('continuous');
#355=COLOUR_RGB('',0.0,1.0,1.0);
#356=EDGE_LOOP('',(#479));
#357=EDGE_LOOP('',(#480));
#358=AXIS2_PLACEMENT_3D('',#481,#482,#483);
#359=DRAUGHTING_PRE_DEFINED_CURVE_FONT('continuous');
#360=COLOUR_RGB('',0.0,1.0,1.0);
#361=CARTESIAN_POINT('',(-9.67470971326525E-016,7.99999999999965,15.8000000000019));
#362=AXIS2_PLACEMENT_3D('',#484,#485,#486);
#363=SURFACE_SIDE_STYLE('',(#487));
#364=DRAUGHTING_PRE_DEFINED_CURVE_FONT('continuous');
#365=COLOUR_RGB('',0.0,1.0,1.0);
#366=EDGE_LOOP('',(#488));
#367=EDGE_LOOP('',(#489));
#368=AXIS2_PLACEMENT_3D('',#490,#491,#492);
#369=SURFACE_SIDE_STYLE('',(#493));
#370=DRAUGHTING_PRE_DEFINED_CURVE_FONT('continuous');
#371=COLOUR_RGB('',0.0,1.0,1.0);
#372=EDGE_LOOP('',(#494));
#373=EDGE_LOOP('',(#495));
#374=AXIS2_PLACEMENT_3D('',#496,#497,#498);
#375=SURFACE_SIDE_STYLE('',(#499));
#376=DRAUGHTING_PRE_DEFINED_CURVE_FONT('continuous');
#377=COLOUR_RGB('',0.0,1.0,1.0);
#378=EDGE_LOOP('',(#500));
#379=EDGE_LOOP('',(#501));
#380=AXIS2_PLACEMENT_3D('',#502,#503,#504);
#381=DRAUGHTING_PRE_DEFINED_CURVE_FONT('continuous');
#382=COLOUR_RGB('',0.0,1.0,1.0);
#383=CARTESIAN_POINT('',(-4.89858719658941E-015,8.0000000000001,76.5000000000012));
#384=AXIS2_PLACEMENT_3D('',#505,#506,#507);
#385=SURFACE_SIDE_STYLE('',(#508));
#386=DRAUGHTING_PRE_DEFINED_CURVE_FONT('continuous');
#387=COLOUR_RGB('',0.0,1.0,1.0);
#388=EDGE_LOOP('',(#509));
#389=EDGE_LOOP('',(#510));
#390=AXIS2_PLACEMENT_3D('',#511,#512,#513);
#392=SURFACE_STYLE_FILL_AREA(#514);
#393=ORIENTED_EDGE('',*,*,#92,.F.);
#394=ORIENTED_EDGE('',*,*,#107,.T.);
#395=CARTESIAN_POINT('',(-4.83735485663362E-016,-9.67470971326725E-016,7.90000000000258));
#396=DIRECTION('',(6.12323399573677E-017,1.22464679914735E-016,-1.0));
#397=DIRECTION('',(-1.23259516440783E-032,1.0,1.22464679914735E-016));
#398=CARTESIAN_POINT('',(-7.19479994499115E-015,-1.43895998899823E-014,117.500000000007));
#399=DIRECTION('',(6.12323399573677E-017,1.22464679914735E-016,-1.0));
#400=DIRECTION('',(-1.23259516440783E-032,1.0,1.22464679914735E-016));
#401=SURFACE_STYLE_FILL_AREA(#515);
#402=SURFACE_STYLE_FILL_AREA(#516);
#403=ORIENTED_EDGE('',*,*,#68,.T.);
#404=ORIENTED_EDGE('',*,*,#99,.F.);
#405=CARTESIAN_POINT('',(-1.2246467991466E-015,7.10000000000138,19.9999999999878));
#406=DIRECTION('',(6.12323399573677E-017,2.83014343760236E-011,-1.0));
#407=DIRECTION('',(-1.0,0.0,-6.12323399573677E-017));
#408=SURFACE_STYLE_FILL_AREA(#517);
#409=ORIENTED_EDGE('',*,*,#68,.F.);
#410=ORIENTED_EDGE('',*,*,#83,.T.);
#411=CARTESIAN_POINT('',(-2.7308445640186E-015,-5.46168912803719E-015,44.5980762113602));
#412=DIRECTION('',(6.12323399573677E-017,1.22464679914735E-016,-1.0));
#413=DIRECTION('',(-1.23259516440783E-032,1.0,1.22464679914735E-016));
#414=CARTESIAN_POINT('',(-4.6842740067387E-015,-9.36854801347739E-015,76.5000000000012));
#415=DIRECTION('',(6.12323399573677E-017,1.22464679914735E-016,-1.0));
#416=DIRECTION('',(-1.23259516440783E-032,1.0,1.22464679914735E-016));
#417=CARTESIAN_POINT('',(-1.22464679914816E-015,-2.44929359829633E-015,20.0000000000133));
#418=DIRECTION('',(6.12323399573677E-017,1.22464679914735E-016,-1.0));
#419=DIRECTION('',(-1.23259516440783E-032,1.0,1.22464679914735E-016));
#420=SURFACE_STYLE_FILL_AREA(#518);
#421=ORIENTED_EDGE('',*,*,#118,.F.);
#422=ORIENTED_EDGE('',*,*,#55,.T.);
#423=CARTESIAN_POINT('',(-6.04669357079028E-015,-1.20933871415806E-014,98.7500000000037));
#424=DIRECTION('',(6.12323399573677E-017,1.22464679914735E-016,-1.0));
#425=DIRECTION('',(-1.23259516440783E-032,1.0,1.22464679914735E-016));
#426=CARTESIAN_POINT('',(-1.16341445919097E-015,-2.32682891838195E-015,19.0000000000162));
#427=DIRECTION('',(6.12323399573677E-017,1.22464679914735E-016,-1.0));
#428=DIRECTION('',(-1.23259516440783E-032,1.0,1.22464679914735E-016));
#429=CARTESIAN_POINT('',(-1.04094977927555E-015,-2.08189955855109E-015,17.0000000000048));
#430=DIRECTION('',(6.12323399573677E-017,1.22464679914735E-016,-1.0));
#431=DIRECTION('',(-1.23259516440783E-032,1.0,1.22464679914735E-016));
#432=SURFACE_STYLE_FILL_AREA(#519);
#433=ORIENTED_EDGE('',*,*,#92,.T.);
#434=CARTESIAN_POINT('',(-1.99316833930953E-028,3.99999999999983,3.25477558850092E-012));
#435=DIRECTION('',(6.12323399573677E-017,1.22464679914735E-016,-1.0));
#436=DIRECTION('',(-1.0,0.0,-6.12323399573677E-017));
#437=SURFACE_STYLE_FILL_AREA(#520);
#438=ORIENTED_EDGE('',*,*,#75,.F.);
#439=ORIENTED_EDGE('',*,*,#73,.T.);
#440=CARTESIAN_POINT('',(-1.10218211923326E-015,-2.20436423846652E-015,18.0000000000105));
#441=DIRECTION('',(6.12323399573677E-017,1.22464679914735E-016,-1.0));
#442=DIRECTION('',(-1.23259516440783E-032,1.0,1.22464679914735E-016));
#443=CARTESIAN_POINT('',(-4.23704232888903E-015,-8.47408465777805E-015,69.196152422707));
#444=DIRECTION('',(6.12323399573677E-017,1.22464679914735E-016,-1.0));
#445=DIRECTION('',(-1.23259516440783E-032,1.0,1.22464679914735E-016));
#446=SURFACE_STYLE_FILL_AREA(#521);
#447=ORIENTED_EDGE('',*,*,#83,.F.);
#448=ORIENTED_EDGE('',*,*,#90,.T.);
#449=CARTESIAN_POINT('',(-4.26165306295238E-015,-8.52330612590475E-015,69.5980762113534));
#450=DIRECTION('',(-6.12323399573677E-017,-1.22464679914735E-016,1.0));
#451=DIRECTION('',(-1.23259516440783E-032,1.0,1.22464679914735E-016));
#452=CARTESIAN_POINT('',(-4.60015677105198E-015,-9.20031354210396E-015,75.1262612902723));
#453=DIRECTION('',(6.12323399573677E-017,1.22464679914735E-016,-1.0));
#454=DIRECTION('',(-1.23259516440783E-032,1.0,1.22464679914735E-016));
#455=CARTESIAN_POINT('',(-4.28626379701573E-015,-8.57252759403145E-015,69.9999999999998));
#456=DIRECTION('',(6.12323399573677E-017,1.22464679914735E-016,-1.0));
#457=DIRECTION('',(-1.23259516440783E-032,1.0,1.22464679914735E-016));
#458=CARTESIAN_POINT('',(-1.99267530124376E-028,-3.98535060248753E-028,3.25428572978126E-012));
#459=DIRECTION('',(6.12323399573677E-017,1.22464679914735E-016,-1.0));
#460=DIRECTION('',(-1.23259516440783E-032,1.0,1.22464679914735E-016));
#461=SURFACE_STYLE_FILL_AREA(#522);
#462=ORIENTED_EDGE('',*,*,#55,.F.);
#463=CARTESIAN_POINT('',(-7.19479994499115E-015,4.00000000000004,117.500000000007));
#464=DIRECTION('',(7.49879891330927E-033,-1.22464679914735E-016,1.0));
#465=DIRECTION('',(1.0,6.12323399573677E-017,0.0));
#466=CARTESIAN_POINT('',(-1.16341445918731E-015,-2.32682891837461E-015,18.9999999999562));
#467=DIRECTION('',(6.12323399573677E-017,1.22464679914735E-016,-1.0));
#468=DIRECTION('',(-1.23259516440783E-032,1.0,1.22464679914735E-016));
#469=CARTESIAN_POINT('',(-1.22464679914505E-015,-2.44929359829009E-015,19.9999999999623));
#470=DIRECTION('',(6.12323399573677E-017,1.22464679914735E-016,-1.0));
#471=DIRECTION('',(-1.23259516440783E-032,1.0,1.22464679914735E-016));
#472=SURFACE_STYLE_FILL_AREA(#523);
#473=ORIENTED_EDGE('',*,*,#97,.F.);
#474=ORIENTED_EDGE('',*,*,#99,.T.);
#475=CARTESIAN_POINT('',(-1.19403062916618E-015,-2.38806125833235E-015,19.4999999999593));
#476=DIRECTION('',(6.12323399573677E-017,1.22464679914735E-016,-1.0));
#477=DIRECTION('',(-1.23259516440783E-032,1.0,1.22464679914735E-016));
#478=SURFACE_STYLE_FILL_AREA(#524);
#479=ORIENTED_EDGE('',*,*,#88,.F.);
#480=ORIENTED_EDGE('',*,*,#66,.T.);
#481=CARTESIAN_POINT('',(-4.64221538889534E-015,-9.28443077779068E-015,75.8131306451367));
#482=DIRECTION('',(6.12323399573677E-017,1.22464679914735E-016,-1.0));
#483=DIRECTION('',(-1.23259516440783E-032,1.0,1.22464679914735E-016));
#484=CARTESIAN_POINT('',(-9.67470971326525E-016,-1.93494194265305E-015,15.8000000000019));
#485=DIRECTION('',(6.12323399573677E-017,1.22464679914735E-016,-1.0));
#486=DIRECTION('',(-1.23259516440783E-032,1.0,1.22464679914735E-016));
#487=SURFACE_STYLE_FILL_AREA(#525);
#488=ORIENTED_EDGE('',*,*,#66,.F.);
#489=ORIENTED_EDGE('',*,*,#118,.T.);
#490=CARTESIAN_POINT('',(-7.87347880381538,1.41715614025827,76.5000000000012));
#491=DIRECTION('',(0.0,0.0,1.0));
#492=DIRECTION('',(-1.0,0.0,0.0));
#493=SURFACE_STYLE_FILL_AREA(#526);
#494=ORIENTED_EDGE('',*,*,#73,.F.);
#495=ORIENTED_EDGE('',*,*,#97,.T.);
#496=CARTESIAN_POINT('',(-1.16341445918914E-015,7.1750000000012,18.9999999999862));
#497=DIRECTION('',(1.88156956524406E-027,-3.07283629296884E-011,1.0));
#498=DIRECTION('',(1.0,6.12323399573677E-017,0.0));
#499=SURFACE_STYLE_FILL_AREA(#527);
#500=ORIENTED_EDGE('',*,*,#90,.F.);
#501=ORIENTED_EDGE('',*,*,#88,.T.);
#502=CARTESIAN_POINT('',(-4.44321028403385E-015,-8.88642056806771E-015,72.5631306451361));
#503=DIRECTION('',(6.12323399573677E-017,1.22464679914735E-016,-1.0));
#504=DIRECTION('',(-1.23259516440783E-032,1.0,1.22464679914735E-016));
#505=CARTESIAN_POINT('',(-4.89858719658941E-015,-9.79717439317882E-015,76.5000000000012));
#506=DIRECTION('',(6.12323399573677E-017,1.22464679914735E-016,-1.0));
#507=DIRECTION('',(-1.23259516440783E-032,1.0,1.22464679914735E-016));
#508=SURFACE_STYLE_FILL_AREA(#528);
#509=ORIENTED_EDGE('',*,*,#107,.F.);
#510=ORIENTED_EDGE('',*,*,#75,.T.);
#511=CARTESIAN_POINT('',(-1.00421037530104E-015,-2.00842075060207E-015,16.4000000000034));
#512=DIRECTION('',(-6.12323399573677E-017,-1.22464679914735E-016,1.0));
#513=DIRECTION('',(-1.23259516440783E-032,1.0,1.22464679914735E-016));
#514=FILL_AREA_STYLE('',(#529));
#515=FILL_AREA_STYLE('',(#530));
#516=FILL_AREA_STYLE('',(#531));
#517=FILL_AREA_STYLE('',(#532));
#518=FILL_AREA_STYLE('',(#533));
#519=FILL_AREA_STYLE('',(#534));
#520=FILL_AREA_STYLE('',(#535));
#521=FILL_AREA_STYLE('',(#536));
#522=FILL_AREA_STYLE('',(#537));
#523=FILL_AREA_STYLE('',(#538));
#524=FILL_AREA_STYLE('',(#539));
#525=FILL_AREA_STYLE('',(#540));
#526=FILL_AREA_STYLE('',(#541));
#527=FILL_AREA_STYLE('',(#542));
#528=FILL_AREA_STYLE('',(#543));
#529=FILL_AREA_STYLE_COLOUR('',#544);
#530=FILL_AREA_STYLE_COLOUR('',#545);
#531=FILL_AREA_STYLE_COLOUR('',#546);
#532=FILL_AREA_STYLE_COLOUR('',#547);
#533=FILL_AREA_STYLE_COLOUR('',#548);
#534=FILL_AREA_STYLE_COLOUR('',#549);
#535=FILL_AREA_STYLE_COLOUR('',#550);
#536=FILL_AREA_STYLE_COLOUR('',#551);
#537=FILL_AREA_STYLE_COLOUR('',#552);
#538=FILL_AREA_STYLE_COLOUR('',#553);
#539=FILL_AREA_STYLE_COLOUR('',#554);
#540=FILL_AREA_STYLE_COLOUR('',#555);
#541=FILL_AREA_STYLE_COLOUR('',#556);
#542=FILL_AREA_STYLE_COLOUR('',#557);
#543=FILL_AREA_STYLE_COLOUR('',#558);
#544=COLOUR_RGB('',0.0,1.0,1.0);
#545=COLOUR_RGB('',0.0,1.0,1.0);
#546=COLOUR_RGB('',0.0,1.0,1.0);
#547=COLOUR_RGB('',0.0,1.0,1.0);
#548=COLOUR_RGB('',0.0,1.0,1.0);
#549=COLOUR_RGB('',0.0,1.0,1.0);
#550=COLOUR_RGB('',0.0,1.0,1.0);
#551=COLOUR_RGB('',0.0,1.0,1.0);
#552=COLOUR_RGB('',0.0,1.0,1.0);
#553=COLOUR_RGB('',0.0,1.0,1.0);
#554=COLOUR_RGB('',0.0,1.0,1.0);
#555=COLOUR_RGB('',0.0,1.0,1.0);
#556=COLOUR_RGB('',0.0,1.0,1.0);
#557=COLOUR_RGB('',0.0,1.0,1.0);
#558=COLOUR_RGB('',0.0,1.0,1.0);
ENDSEC;
END-ISO-10303-21;
