ISO-10303-21;
HEADER;
FILE_DESCRIPTION((''),'1');
FILE_NAME('T:/02_3D_Field-HP\X2\FF71FF6FFF8CFF9F5916\X0\2013/02_Step_Field-HP\X2\FF71FF6FFF8CFF9F5916\X0\2013/MGT6-d-70_031025-060049.stp','2017-02-08T07:44:18',(''),(''),'Spatial Interop R21 SP3','Kubotek KeyCreator 2011 V10.0.2 (22737)',' ');
FILE_SCHEMA(('automotive_design'));
ENDSEC;
DATA;
#1=MECHANICAL_DESIGN_GEOMETRIC_PRESENTATION_REPRESENTATION(' ',(#10,#11,#12,#13,#14,#15,#16,#17,#18,#19,#20,#21,#22,#23,#24,#25,#26,#27,#28,#29,#30,#31,#32,#33,#34,#35,#36,#37),#6);
#2=PRODUCT_DEFINITION_CONTEXT('',#38,'design');
#3=APPLICATION_PROTOCOL_DEFINITION('INTERNATIONAL STANDARD','automotive_design',1994,#38);
#4=PRODUCT_CATEGORY_RELATIONSHIP('NONE','NONE',#39,#40);
#5=SHAPE_DEFINITION_REPRESENTATION(#41,#42);
#6= (GEOMETRIC_REPRESENTATION_CONTEXT(3)GLOBAL_UNCERTAINTY_ASSIGNED_CONTEXT((#45))GLOBAL_UNIT_ASSIGNED_CONTEXT((#47,#48,#49))REPRESENTATION_CONTEXT('NONE','WORKSPACE'));
#10=STYLED_ITEM('',(#51,#52),#53);
#11=STYLED_ITEM('',(#54),#55);
#12=STYLED_ITEM('',(#56,#57),#58);
#13=STYLED_ITEM('',(#59,#60),#61);
#14=STYLED_ITEM('',(#62),#63);
#15=STYLED_ITEM('',(#64,#65),#66);
#16=STYLED_ITEM('',(#67),#68);
#17=STYLED_ITEM('',(#69),#70);
#18=STYLED_ITEM('',(#71),#72);
#19=STYLED_ITEM('',(#73),#74);
#20=STYLED_ITEM('',(#75),#76);
#21=STYLED_ITEM('',(#77,#78),#79);
#22=STYLED_ITEM('',(#80),#81);
#23=STYLED_ITEM('',(#82),#83);
#24=STYLED_ITEM('',(#84,#85),#86);
#25=STYLED_ITEM('',(#87,#88),#89);
#26=STYLED_ITEM('',(#90),#91);
#27=STYLED_ITEM('',(#92),#93);
#28=STYLED_ITEM('',(#94,#95),#96);
#29=STYLED_ITEM('',(#97,#98),#99);
#30=STYLED_ITEM('',(#100,#101),#102);
#31=STYLED_ITEM('',(#103,#104),#105);
#32=STYLED_ITEM('',(#106,#107),#108);
#33=STYLED_ITEM('',(#109,#110),#111);
#34=STYLED_ITEM('',(#112,#113),#114);
#35=STYLED_ITEM('',(#115,#116),#117);
#36=STYLED_ITEM('',(#118),#119);
#37=STYLED_ITEM('',(#120),#121);
#38=APPLICATION_CONTEXT(' ');
#39=PRODUCT_CATEGORY('part','NONE');
#40=PRODUCT_RELATED_PRODUCT_CATEGORY('detail',' ',(#122));
#41=PRODUCT_DEFINITION_SHAPE('NONE','NONE',#123);
#42=ADVANCED_BREP_SHAPE_REPRESENTATION('240[2]',(#79,#124),#6);
#45=UNCERTAINTY_MEASURE_WITH_UNIT(LENGTH_MEASURE(1.0E-006),#47,'','');
#47= (CONVERSION_BASED_UNIT('MILLIMETRE',#127)LENGTH_UNIT()NAMED_UNIT(#130));
#48= (NAMED_UNIT(#132)PLANE_ANGLE_UNIT()SI_UNIT($,.RADIAN.));
#49= (NAMED_UNIT(#132)SOLID_ANGLE_UNIT()SI_UNIT($,.STERADIAN.));
#51=PRESENTATION_STYLE_ASSIGNMENT((#138));
#52=PRESENTATION_STYLE_ASSIGNMENT((#139));
#53=ADVANCED_FACE('240[2]',(#140,#141),#142,.T.);
#54=PRESENTATION_STYLE_ASSIGNMENT((#143));
#55=EDGE_CURVE('240[2]',#144,#144,#145,.T.);
#56=PRESENTATION_STYLE_ASSIGNMENT((#146));
#57=PRESENTATION_STYLE_ASSIGNMENT((#147));
#58=ADVANCED_FACE('240[2]',(#148,#149),#150,.T.);
#59=PRESENTATION_STYLE_ASSIGNMENT((#151));
#60=PRESENTATION_STYLE_ASSIGNMENT((#152));
#61=ADVANCED_FACE('240[2]',(#153,#154),#155,.T.);
#62=PRESENTATION_STYLE_ASSIGNMENT((#156));
#63=EDGE_CURVE('240[2]',#157,#157,#158,.T.);
#64=PRESENTATION_STYLE_ASSIGNMENT((#159));
#65=PRESENTATION_STYLE_ASSIGNMENT((#160));
#66=ADVANCED_FACE('240[2]',(#161),#162,.T.);
#67=PRESENTATION_STYLE_ASSIGNMENT((#163));
#68=EDGE_CURVE('240[2]',#164,#164,#165,.T.);
#69=PRESENTATION_STYLE_ASSIGNMENT((#166));
#70=EDGE_CURVE('240[2]',#167,#167,#168,.T.);
#71=PRESENTATION_STYLE_ASSIGNMENT((#169));
#72=EDGE_CURVE('240[2]',#170,#170,#171,.T.);
#73=PRESENTATION_STYLE_ASSIGNMENT((#172));
#74=EDGE_CURVE('240[2]',#173,#173,#174,.T.);
#75=PRESENTATION_STYLE_ASSIGNMENT((#175));
#76=EDGE_CURVE('240[2]',#176,#176,#177,.T.);
#77=PRESENTATION_STYLE_ASSIGNMENT((#178));
#78=PRESENTATION_STYLE_ASSIGNMENT((#179));
#79=MANIFOLD_SOLID_BREP('240[2]',#180);
#80=PRESENTATION_STYLE_ASSIGNMENT((#181));
#81=EDGE_CURVE('240[2]',#182,#182,#183,.T.);
#82=PRESENTATION_STYLE_ASSIGNMENT((#184));
#83=EDGE_CURVE('240[2]',#185,#185,#186,.T.);
#84=PRESENTATION_STYLE_ASSIGNMENT((#187));
#85=PRESENTATION_STYLE_ASSIGNMENT((#188));
#86=ADVANCED_FACE('240[2]',(#189,#190),#191,.T.);
#87=PRESENTATION_STYLE_ASSIGNMENT((#192));
#88=PRESENTATION_STYLE_ASSIGNMENT((#193));
#89=ADVANCED_FACE('240[2]',(#194,#195),#196,.T.);
#90=PRESENTATION_STYLE_ASSIGNMENT((#197));
#91=EDGE_CURVE('240[2]',#198,#198,#199,.T.);
#92=PRESENTATION_STYLE_ASSIGNMENT((#200));
#93=EDGE_CURVE('240[2]',#201,#201,#202,.T.);
#94=PRESENTATION_STYLE_ASSIGNMENT((#203));
#95=PRESENTATION_STYLE_ASSIGNMENT((#204));
#96=ADVANCED_FACE('240[2]',(#205,#206),#207,.T.);
#97=PRESENTATION_STYLE_ASSIGNMENT((#208));
#98=PRESENTATION_STYLE_ASSIGNMENT((#209));
#99=ADVANCED_FACE('240[2]',(#210,#211),#212,.T.);
#100=PRESENTATION_STYLE_ASSIGNMENT((#213));
#101=PRESENTATION_STYLE_ASSIGNMENT((#214));
#102=ADVANCED_FACE('240[2]',(#215,#216),#217,.T.);
#103=PRESENTATION_STYLE_ASSIGNMENT((#218));
#104=PRESENTATION_STYLE_ASSIGNMENT((#219));
#105=ADVANCED_FACE('240[2]',(#220,#221),#222,.T.);
#106=PRESENTATION_STYLE_ASSIGNMENT((#223));
#107=PRESENTATION_STYLE_ASSIGNMENT((#224));
#108=ADVANCED_FACE('240[2]',(#225,#226),#227,.T.);
#109=PRESENTATION_STYLE_ASSIGNMENT((#228));
#110=PRESENTATION_STYLE_ASSIGNMENT((#229));
#111=ADVANCED_FACE('240[2]',(#230,#231),#232,.T.);
#112=PRESENTATION_STYLE_ASSIGNMENT((#233));
#113=PRESENTATION_STYLE_ASSIGNMENT((#234));
#114=ADVANCED_FACE('240[2]',(#235,#236),#237,.T.);
#115=PRESENTATION_STYLE_ASSIGNMENT((#238));
#116=PRESENTATION_STYLE_ASSIGNMENT((#239));
#117=ADVANCED_FACE('240[2]',(#240),#241,.T.);
#118=PRESENTATION_STYLE_ASSIGNMENT((#242));
#119=EDGE_CURVE('240[2]',#243,#243,#244,.T.);
#120=PRESENTATION_STYLE_ASSIGNMENT((#245));
#121=EDGE_CURVE('240[2]',#246,#246,#247,.T.);
#122=PRODUCT('240[2]','240[2]','PART-240[2]-DESC',(#248));
#123=PRODUCT_DEFINITION('NONE','NONE',#249,#2);
#124=AXIS2_PLACEMENT_3D('',#250,#251,#252);
#127=LENGTH_MEASURE_WITH_UNIT(LENGTH_MEASURE(1.0),#253);
#130=DIMENSIONAL_EXPONENTS(1.0,0.0,0.0,0.0,0.0,0.0,0.0);
#132=DIMENSIONAL_EXPONENTS(0.0,0.0,0.0,0.0,0.0,0.0,0.0);
#138=SURFACE_STYLE_USAGE(.BOTH.,#254);
#139=CURVE_STYLE('',#255,POSITIVE_LENGTH_MEASURE(1000.0),#256);
#140=FACE_BOUND('',#257,.T.);
#141=FACE_BOUND('',#258,.T.);
#142=CYLINDRICAL_SURFACE('',#259,11.0000000000001);
#143=CURVE_STYLE('',#260,POSITIVE_LENGTH_MEASURE(1000.0),#261);
#144=VERTEX_POINT('',#262);
#145=CIRCLE('',#263,8.00000000000011);
#146=SURFACE_STYLE_USAGE(.BOTH.,#264);
#147=CURVE_STYLE('',#265,POSITIVE_LENGTH_MEASURE(1000.0),#266);
#148=FACE_BOUND('',#267,.T.);
#149=FACE_BOUND('',#268,.T.);
#150=CYLINDRICAL_SURFACE('',#269,7.99999999999966);
#151=SURFACE_STYLE_USAGE(.BOTH.,#270);
#152=CURVE_STYLE('',#271,POSITIVE_LENGTH_MEASURE(1000.0),#272);
#153=FACE_BOUND('',#273,.T.);
#154=FACE_BOUND('',#274,.T.);
#155=CYLINDRICAL_SURFACE('',#275,6.20000000000312);
#156=CURVE_STYLE('',#276,POSITIVE_LENGTH_MEASURE(1000.0),#277);
#157=VERTEX_POINT('',#278);
#158=CIRCLE('',#279,7.99999999999966);
#159=SURFACE_STYLE_USAGE(.BOTH.,#280);
#160=CURVE_STYLE('',#281,POSITIVE_LENGTH_MEASURE(1000.0),#282);
#161=FACE_OUTER_BOUND('',#283,.T.);
#162=PLANE('',#284);
#163=CURVE_STYLE('',#285,POSITIVE_LENGTH_MEASURE(1000.0),#286);
#164=VERTEX_POINT('',#287);
#165=CIRCLE('',#288,7.99999999999965);
#166=CURVE_STYLE('',#289,POSITIVE_LENGTH_MEASURE(1000.0),#290);
#167=VERTEX_POINT('',#291);
#168=CIRCLE('',#292,8.00000000000011);
#169=CURVE_STYLE('',#293,POSITIVE_LENGTH_MEASURE(1000.0),#294);
#170=VERTEX_POINT('',#295);
#171=CIRCLE('',#296,8.1499999999993);
#172=CURVE_STYLE('',#297,POSITIVE_LENGTH_MEASURE(1000.0),#298);
#173=VERTEX_POINT('',#299);
#174=CIRCLE('',#300,11.0000000000001);
#175=CURVE_STYLE('',#301,POSITIVE_LENGTH_MEASURE(1000.0),#302);
#176=VERTEX_POINT('',#303);
#177=CIRCLE('',#304,6.20000000000312);
#178=SURFACE_STYLE_USAGE(.BOTH.,#305);
#179=CURVE_STYLE('',#306,POSITIVE_LENGTH_MEASURE(1000.0),#307);
#180=CLOSED_SHELL('',(#89,#53,#108,#96,#86,#61,#99,#102,#105,#58,#117,#111,#66,#114));
#181=CURVE_STYLE('',#308,POSITIVE_LENGTH_MEASURE(1000.0),#309);
#182=VERTEX_POINT('',#310);
#183=CIRCLE('',#311,8.00000000000073);
#184=CURVE_STYLE('',#312,POSITIVE_LENGTH_MEASURE(1000.0),#313);
#185=VERTEX_POINT('',#314);
#186=CIRCLE('',#315,7.99999999999966);
#187=SURFACE_STYLE_USAGE(.BOTH.,#316);
#188=CURVE_STYLE('',#317,POSITIVE_LENGTH_MEASURE(1000.0),#318);
#189=FACE_OUTER_BOUND('',#319,.T.);
#190=FACE_BOUND('',#320,.T.);
#191=PLANE('',#321);
#192=SURFACE_STYLE_USAGE(.BOTH.,#322);
#193=CURVE_STYLE('',#323,POSITIVE_LENGTH_MEASURE(1000.0),#324);
#194=FACE_OUTER_BOUND('',#325,.T.);
#195=FACE_BOUND('',#326,.T.);
#196=PLANE('',#327);
#197=CURVE_STYLE('',#328,POSITIVE_LENGTH_MEASURE(1000.0),#329);
#198=VERTEX_POINT('',#330);
#199=CIRCLE('',#331,6.20000000000312);
#200=CURVE_STYLE('',#332,POSITIVE_LENGTH_MEASURE(1000.0),#333);
#201=VERTEX_POINT('',#334);
#202=CIRCLE('',#335,8.1499999999993);
#203=SURFACE_STYLE_USAGE(.BOTH.,#336);
#204=CURVE_STYLE('',#337,POSITIVE_LENGTH_MEASURE(1000.0),#338);
#205=FACE_BOUND('',#339,.T.);
#206=FACE_BOUND('',#340,.T.);
#207=CYLINDRICAL_SURFACE('',#341,8.00000000000019);
#208=SURFACE_STYLE_USAGE(.BOTH.,#342);
#209=CURVE_STYLE('',#343,POSITIVE_LENGTH_MEASURE(1000.0),#344);
#210=FACE_OUTER_BOUND('',#345,.T.);
#211=FACE_BOUND('',#346,.T.);
#212=PLANE('',#347);
#213=SURFACE_STYLE_USAGE(.BOTH.,#348);
#214=CURVE_STYLE('',#349,POSITIVE_LENGTH_MEASURE(1000.0),#350);
#215=FACE_BOUND('',#351,.T.);
#216=FACE_BOUND('',#352,.T.);
#217=CYLINDRICAL_SURFACE('',#353,8.1499999999993);
#218=SURFACE_STYLE_USAGE(.BOTH.,#354);
#219=CURVE_STYLE('',#355,POSITIVE_LENGTH_MEASURE(1000.0),#356);
#220=FACE_BOUND('',#357,.T.);
#221=FACE_BOUND('',#358,.T.);
#222=CONICAL_SURFACE('',#359,8.07499999999948,0.124354994546163);
#223=SURFACE_STYLE_USAGE(.BOTH.,#360);
#224=CURVE_STYLE('',#361,POSITIVE_LENGTH_MEASURE(1000.0),#362);
#225=FACE_BOUND('',#363,.T.);
#226=FACE_BOUND('',#364,.T.);
#227=CONICAL_SURFACE('',#365,9.50000000000042,1.30899693899588);
#228=SURFACE_STYLE_USAGE(.BOTH.,#366);
#229=CURVE_STYLE('',#367,POSITIVE_LENGTH_MEASURE(1000.0),#368);
#230=FACE_BOUND('',#369,.T.);
#231=FACE_BOUND('',#370,.T.);
#232=CONICAL_SURFACE('',#371,10.7500000000001,0.349065850398498);
#233=SURFACE_STYLE_USAGE(.BOTH.,#372);
#234=CURVE_STYLE('',#373,POSITIVE_LENGTH_MEASURE(1000.0),#374);
#235=FACE_BOUND('',#375,.T.);
#236=FACE_BOUND('',#376,.T.);
#237=CYLINDRICAL_SURFACE('',#377,8.00000000000011);
#238=SURFACE_STYLE_USAGE(.BOTH.,#378);
#239=CURVE_STYLE('',#379,POSITIVE_LENGTH_MEASURE(1000.0),#380);
#240=FACE_OUTER_BOUND('',#381,.T.);
#241=PLANE('',#382);
#242=CURVE_STYLE('',#383,POSITIVE_LENGTH_MEASURE(1000.0),#384);
#243=VERTEX_POINT('',#385);
#244=CIRCLE('',#386,11.0000000000001);
#245=CURVE_STYLE('',#387,POSITIVE_LENGTH_MEASURE(1000.0),#388);
#246=VERTEX_POINT('',#389);
#247=CIRCLE('',#390,10.5000000000001);
#248=PRODUCT_CONTEXT('',#38,'mechanical');
#249=PRODUCT_DEFINITION_FORMATION_WITH_SPECIFIED_SOURCE(' ','NONE',#122,.NOT_KNOWN.);
#250=CARTESIAN_POINT('',(0.0,0.0,0.0));
#251=DIRECTION('',(0.0,0.0,1.0));
#252=DIRECTION('',(1.0,0.0,0.0));
#253= (NAMED_UNIT(#130)LENGTH_UNIT()SI_UNIT(.MILLI.,.METRE.));
#254=SURFACE_SIDE_STYLE('',(#392));
#255=DRAUGHTING_PRE_DEFINED_CURVE_FONT('continuous');
#256=COLOUR_RGB('',0.0,1.0,1.0);
#257=EDGE_LOOP('',(#393));
#258=EDGE_LOOP('',(#394));
#259=AXIS2_PLACEMENT_3D('',#395,#396,#397);
#260=DRAUGHTING_PRE_DEFINED_CURVE_FONT('continuous');
#261=COLOUR_RGB('',0.0,1.0,1.0);
#262=CARTESIAN_POINT('',(-7.19479994499115E-015,8.0000000000001,117.500000000007));
#263=AXIS2_PLACEMENT_3D('',#398,#399,#400);
#264=SURFACE_SIDE_STYLE('',(#401));
#265=DRAUGHTING_PRE_DEFINED_CURVE_FONT('continuous');
#266=COLOUR_RGB('',0.0,1.0,1.0);
#267=EDGE_LOOP('',(#402));
#268=EDGE_LOOP('',(#403));
#269=AXIS2_PLACEMENT_3D('',#404,#405,#406);
#270=SURFACE_SIDE_STYLE('',(#407));
#271=DRAUGHTING_PRE_DEFINED_CURVE_FONT('continuous');
#272=COLOUR_RGB('',0.0,1.0,1.0);
#273=EDGE_LOOP('',(#408));
#274=EDGE_LOOP('',(#409));
#275=AXIS2_PLACEMENT_3D('',#410,#411,#412);
#276=DRAUGHTING_PRE_DEFINED_CURVE_FONT('continuous');
#277=COLOUR_RGB('',0.0,1.0,1.0);
#278=CARTESIAN_POINT('',(-9.67470971326525E-016,7.99999999999965,15.8000000000019));
#279=AXIS2_PLACEMENT_3D('',#413,#414,#415);
#280=SURFACE_SIDE_STYLE('',(#416));
#281=DRAUGHTING_PRE_DEFINED_CURVE_FONT('continuous');
#282=COLOUR_RGB('',0.0,1.0,1.0);
#283=EDGE_LOOP('',(#417));
#284=AXIS2_PLACEMENT_3D('',#418,#419,#420);
#285=DRAUGHTING_PRE_DEFINED_CURVE_FONT('continuous');
#286=COLOUR_RGB('',0.0,1.0,1.0);
#287=CARTESIAN_POINT('',(-1.22464679914816E-015,7.99999999999964,20.0000000000133));
#288=AXIS2_PLACEMENT_3D('',#421,#422,#423);
#289=DRAUGHTING_PRE_DEFINED_CURVE_FONT('continuous');
#290=COLOUR_RGB('',0.0,1.0,1.0);
#291=CARTESIAN_POINT('',(-4.89858719658941E-015,8.0000000000001,76.5000000000012));
#292=AXIS2_PLACEMENT_3D('',#424,#425,#426);
#293=DRAUGHTING_PRE_DEFINED_CURVE_FONT('continuous');
#294=COLOUR_RGB('',0.0,1.0,1.0);
#295=CARTESIAN_POINT('',(-1.04094977927555E-015,8.14999999999929,17.0000000000048));
#296=AXIS2_PLACEMENT_3D('',#427,#428,#429);
#297=DRAUGHTING_PRE_DEFINED_CURVE_FONT('continuous');
#298=COLOUR_RGB('',0.0,1.0,1.0);
#299=CARTESIAN_POINT('',(-4.28626379701573E-015,11.0000000000001,69.9999999999998));
#300=AXIS2_PLACEMENT_3D('',#430,#431,#432);
#301=DRAUGHTING_PRE_DEFINED_CURVE_FONT('continuous');
#302=COLOUR_RGB('',0.0,1.0,1.0);
#303=CARTESIAN_POINT('',(-1.22464679914505E-015,6.20000000000311,19.9999999999623));
#304=AXIS2_PLACEMENT_3D('',#433,#434,#435);
#305=SURFACE_SIDE_STYLE('',(#436));
#306=DRAUGHTING_PRE_DEFINED_CURVE_FONT('continuous');
#307=COLOUR_RGB('',0.0,1.0,1.0);
#308=DRAUGHTING_PRE_DEFINED_CURVE_FONT('continuous');
#309=COLOUR_RGB('',0.0,1.0,1.0);
#310=CARTESIAN_POINT('',(-4.23704232888903E-015,8.00000000000072,69.196152422707));
#311=AXIS2_PLACEMENT_3D('',#437,#438,#439);
#312=DRAUGHTING_PRE_DEFINED_CURVE_FONT('continuous');
#313=COLOUR_RGB('',0.0,1.0,1.0);
#314=CARTESIAN_POINT('',(-1.99366137737529E-028,7.99999999999966,3.25526544722058E-012));
#315=AXIS2_PLACEMENT_3D('',#440,#441,#442);
#316=SURFACE_SIDE_STYLE('',(#443));
#317=DRAUGHTING_PRE_DEFINED_CURVE_FONT('continuous');
#318=COLOUR_RGB('',0.0,1.0,1.0);
#319=EDGE_LOOP('',(#444));
#320=EDGE_LOOP('',(#445));
#321=AXIS2_PLACEMENT_3D('',#446,#447,#448);
#322=SURFACE_SIDE_STYLE('',(#449));
#323=DRAUGHTING_PRE_DEFINED_CURVE_FONT('continuous');
#324=COLOUR_RGB('',0.0,1.0,1.0);
#325=EDGE_LOOP('',(#450));
#326=EDGE_LOOP('',(#451));
#327=AXIS2_PLACEMENT_3D('',#452,#453,#454);
#328=DRAUGHTING_PRE_DEFINED_CURVE_FONT('continuous');
#329=COLOUR_RGB('',0.0,1.0,1.0);
#330=CARTESIAN_POINT('',(-1.16341445918731E-015,6.20000000000311,18.9999999999562));
#331=AXIS2_PLACEMENT_3D('',#455,#456,#457);
#332=DRAUGHTING_PRE_DEFINED_CURVE_FONT('continuous');
#333=COLOUR_RGB('',0.0,1.0,1.0);
#334=CARTESIAN_POINT('',(-1.16341445919098E-015,8.14999999999929,19.0000000000162));
#335=AXIS2_PLACEMENT_3D('',#458,#459,#460);
#336=SURFACE_SIDE_STYLE('',(#461));
#337=DRAUGHTING_PRE_DEFINED_CURVE_FONT('continuous');
#338=COLOUR_RGB('',0.0,1.0,1.0);
#339=EDGE_LOOP('',(#462));
#340=EDGE_LOOP('',(#463));
#341=AXIS2_PLACEMENT_3D('',#464,#465,#466);
#342=SURFACE_SIDE_STYLE('',(#467));
#343=DRAUGHTING_PRE_DEFINED_CURVE_FONT('continuous');
#344=COLOUR_RGB('',0.0,1.0,1.0);
#345=EDGE_LOOP('',(#468));
#346=EDGE_LOOP('',(#469));
#347=AXIS2_PLACEMENT_3D('',#470,#471,#472);
#348=SURFACE_SIDE_STYLE('',(#473));
#349=DRAUGHTING_PRE_DEFINED_CURVE_FONT('continuous');
#350=COLOUR_RGB('',0.0,1.0,1.0);
#351=EDGE_LOOP('',(#474));
#352=EDGE_LOOP('',(#475));
#353=AXIS2_PLACEMENT_3D('',#476,#477,#478);
#354=SURFACE_SIDE_STYLE('',(#479));
#355=DRAUGHTING_PRE_DEFINED_CURVE_FONT('continuous');
#356=COLOUR_RGB('',0.0,1.0,1.0);
#357=EDGE_LOOP('',(#480));
#358=EDGE_LOOP('',(#481));
#359=AXIS2_PLACEMENT_3D('',#482,#483,#484);
#360=SURFACE_SIDE_STYLE('',(#485));
#361=DRAUGHTING_PRE_DEFINED_CURVE_FONT('continuous');
#362=COLOUR_RGB('',0.0,1.0,1.0);
#363=EDGE_LOOP('',(#486));
#364=EDGE_LOOP('',(#487));
#365=AXIS2_PLACEMENT_3D('',#488,#489,#490);
#366=SURFACE_SIDE_STYLE('',(#491));
#367=DRAUGHTING_PRE_DEFINED_CURVE_FONT('continuous');
#368=COLOUR_RGB('',0.0,1.0,1.0);
#369=EDGE_LOOP('',(#492));
#370=EDGE_LOOP('',(#493));
#371=AXIS2_PLACEMENT_3D('',#494,#495,#496);
#372=SURFACE_SIDE_STYLE('',(#497));
#373=DRAUGHTING_PRE_DEFINED_CURVE_FONT('continuous');
#374=COLOUR_RGB('',0.0,1.0,1.0);
#375=EDGE_LOOP('',(#498));
#376=EDGE_LOOP('',(#499));
#377=AXIS2_PLACEMENT_3D('',#500,#501,#502);
#378=SURFACE_SIDE_STYLE('',(#503));
#379=DRAUGHTING_PRE_DEFINED_CURVE_FONT('continuous');
#380=COLOUR_RGB('',0.0,1.0,1.0);
#381=EDGE_LOOP('',(#504));
#382=AXIS2_PLACEMENT_3D('',#505,#506,#507);
#383=DRAUGHTING_PRE_DEFINED_CURVE_FONT('continuous');
#384=COLOUR_RGB('',0.0,1.0,1.0);
#385=CARTESIAN_POINT('',(-4.60015677105198E-015,11.0000000000001,75.1262612902723));
#386=AXIS2_PLACEMENT_3D('',#508,#509,#510);
#387=DRAUGHTING_PRE_DEFINED_CURVE_FONT('continuous');
#388=COLOUR_RGB('',0.0,1.0,1.0);
#389=CARTESIAN_POINT('',(-4.6842740067387E-015,10.5000000000001,76.5000000000012));
#390=AXIS2_PLACEMENT_3D('',#511,#512,#513);
#392=SURFACE_STYLE_FILL_AREA(#514);
#393=ORIENTED_EDGE('',*,*,#74,.F.);
#394=ORIENTED_EDGE('',*,*,#119,.T.);
#395=CARTESIAN_POINT('',(-4.44321028403385E-015,-8.88642056806771E-015,72.5631306451361));
#396=DIRECTION('',(-6.12323399573677E-017,-1.22464679914735E-016,1.0));
#397=DIRECTION('',(-1.23259516440783E-032,1.0,1.22464679914735E-016));
#398=CARTESIAN_POINT('',(-7.19479994499115E-015,-1.43895998899823E-014,117.500000000007));
#399=DIRECTION('',(6.12323399573677E-017,1.22464679914735E-016,-1.0));
#400=DIRECTION('',(-1.23259516440783E-032,1.0,1.22464679914735E-016));
#401=SURFACE_STYLE_FILL_AREA(#515);
#402=ORIENTED_EDGE('',*,*,#83,.F.);
#403=ORIENTED_EDGE('',*,*,#63,.T.);
#404=CARTESIAN_POINT('',(-4.83735485663362E-016,-9.67470971326725E-016,7.90000000000258));
#405=DIRECTION('',(-6.12323399573677E-017,-1.22464679914735E-016,1.0));
#406=DIRECTION('',(-1.23259516440783E-032,1.0,1.22464679914735E-016));
#407=SURFACE_STYLE_FILL_AREA(#516);
#408=ORIENTED_EDGE('',*,*,#91,.F.);
#409=ORIENTED_EDGE('',*,*,#76,.T.);
#410=CARTESIAN_POINT('',(-1.19403062916618E-015,-2.38806125833235E-015,19.4999999999593));
#411=DIRECTION('',(-6.12323399573677E-017,-1.22464679914735E-016,1.0));
#412=DIRECTION('',(-1.23259516440783E-032,1.0,1.22464679914735E-016));
#413=CARTESIAN_POINT('',(-9.67470971326525E-016,-1.93494194265305E-015,15.8000000000019));
#414=DIRECTION('',(6.12323399573677E-017,1.22464679914735E-016,-1.0));
#415=DIRECTION('',(-1.23259516440783E-032,1.0,1.22464679914735E-016));
#416=SURFACE_STYLE_FILL_AREA(#517);
#417=ORIENTED_EDGE('',*,*,#55,.F.);
#418=CARTESIAN_POINT('',(-7.19479994499115E-015,4.00000000000004,117.500000000007));
#419=DIRECTION('',(-9.18338008663382E-049,-1.22464679914735E-016,1.0));
#420=DIRECTION('',(1.0,-7.49879891330927E-033,0.0));
#421=CARTESIAN_POINT('',(-1.22464679914816E-015,-2.44929359829633E-015,20.0000000000133));
#422=DIRECTION('',(6.12323399573677E-017,1.22464679914735E-016,-1.0));
#423=DIRECTION('',(-1.23259516440783E-032,1.0,1.22464679914735E-016));
#424=CARTESIAN_POINT('',(-4.89858719658941E-015,-9.79717439317882E-015,76.5000000000012));
#425=DIRECTION('',(6.12323399573677E-017,1.22464679914735E-016,-1.0));
#426=DIRECTION('',(-1.23259516440783E-032,1.0,1.22464679914735E-016));
#427=CARTESIAN_POINT('',(-1.04094977927555E-015,-2.08189955855109E-015,17.0000000000048));
#428=DIRECTION('',(6.12323399573677E-017,1.22464679914735E-016,-1.0));
#429=DIRECTION('',(-1.23259516440783E-032,1.0,1.22464679914735E-016));
#430=CARTESIAN_POINT('',(-4.28626379701573E-015,-8.57252759403145E-015,69.9999999999998));
#431=DIRECTION('',(6.12323399573677E-017,1.22464679914735E-016,-1.0));
#432=DIRECTION('',(-1.23259516440783E-032,1.0,1.22464679914735E-016));
#433=CARTESIAN_POINT('',(-1.22464679914505E-015,-2.44929359829009E-015,19.9999999999623));
#434=DIRECTION('',(6.12323399573677E-017,1.22464679914735E-016,-1.0));
#435=DIRECTION('',(-1.23259516440783E-032,1.0,1.22464679914735E-016));
#436=SURFACE_STYLE_FILL_AREA(#518);
#437=CARTESIAN_POINT('',(-4.23704232888903E-015,-8.47408465777805E-015,69.196152422707));
#438=DIRECTION('',(6.12323399573677E-017,1.22464679914735E-016,-1.0));
#439=DIRECTION('',(-1.23259516440783E-032,1.0,1.22464679914735E-016));
#440=CARTESIAN_POINT('',(-1.99267530124376E-028,-3.98535060248753E-028,3.25428572978126E-012));
#441=DIRECTION('',(6.12323399573677E-017,1.22464679914735E-016,-1.0));
#442=DIRECTION('',(-1.23259516440783E-032,1.0,1.22464679914735E-016));
#443=SURFACE_STYLE_FILL_AREA(#519);
#444=ORIENTED_EDGE('',*,*,#68,.T.);
#445=ORIENTED_EDGE('',*,*,#76,.F.);
#446=CARTESIAN_POINT('',(-1.2246467991466E-015,7.10000000000138,19.9999999999878));
#447=DIRECTION('',(6.12323399573677E-017,2.83014343760236E-011,-1.0));
#448=DIRECTION('',(-1.0,0.0,-6.12323399573677E-017));
#449=SURFACE_STYLE_FILL_AREA(#520);
#450=ORIENTED_EDGE('',*,*,#121,.F.);
#451=ORIENTED_EDGE('',*,*,#70,.T.);
#452=CARTESIAN_POINT('',(-7.87347880381538,1.41715614025827,76.5000000000012));
#453=DIRECTION('',(0.0,0.0,1.0));
#454=DIRECTION('',(1.0,-0.0,0.0));
#455=CARTESIAN_POINT('',(-1.16341445918731E-015,-2.32682891837461E-015,18.9999999999562));
#456=DIRECTION('',(6.12323399573677E-017,1.22464679914735E-016,-1.0));
#457=DIRECTION('',(-1.23259516440783E-032,1.0,1.22464679914735E-016));
#458=CARTESIAN_POINT('',(-1.16341445919097E-015,-2.32682891838195E-015,19.0000000000162));
#459=DIRECTION('',(6.12323399573677E-017,1.22464679914735E-016,-1.0));
#460=DIRECTION('',(-1.23259516440783E-032,1.0,1.22464679914735E-016));
#461=SURFACE_STYLE_FILL_AREA(#521);
#462=ORIENTED_EDGE('',*,*,#68,.F.);
#463=ORIENTED_EDGE('',*,*,#81,.T.);
#464=CARTESIAN_POINT('',(-2.7308445640186E-015,-5.46168912803719E-015,44.5980762113602));
#465=DIRECTION('',(-6.12323399573677E-017,-1.22464679914735E-016,1.0));
#466=DIRECTION('',(-1.23259516440783E-032,1.0,1.22464679914735E-016));
#467=SURFACE_STYLE_FILL_AREA(#522);
#468=ORIENTED_EDGE('',*,*,#93,.F.);
#469=ORIENTED_EDGE('',*,*,#91,.T.);
#470=CARTESIAN_POINT('',(-1.16341445918914E-015,7.1750000000012,18.9999999999862));
#471=DIRECTION('',(-5.78175524782755E-038,-3.07283629296884E-011,1.0));
#472=DIRECTION('',(1.0,-1.88156956524406E-027,0.0));
#473=SURFACE_STYLE_FILL_AREA(#523);
#474=ORIENTED_EDGE('',*,*,#72,.F.);
#475=ORIENTED_EDGE('',*,*,#93,.T.);
#476=CARTESIAN_POINT('',(-1.10218211923326E-015,-2.20436423846652E-015,18.0000000000105));
#477=DIRECTION('',(-6.12323399573677E-017,-1.22464679914735E-016,1.0));
#478=DIRECTION('',(-1.23259516440783E-032,1.0,1.22464679914735E-016));
#479=SURFACE_STYLE_FILL_AREA(#524);
#480=ORIENTED_EDGE('',*,*,#63,.F.);
#481=ORIENTED_EDGE('',*,*,#72,.T.);
#482=CARTESIAN_POINT('',(-1.00421037530104E-015,-2.00842075060207E-015,16.4000000000034));
#483=DIRECTION('',(-6.12323399573677E-017,-1.22464679914735E-016,1.0));
#484=DIRECTION('',(-1.23259516440783E-032,1.0,1.22464679914735E-016));
#485=SURFACE_STYLE_FILL_AREA(#525);
#486=ORIENTED_EDGE('',*,*,#81,.F.);
#487=ORIENTED_EDGE('',*,*,#74,.T.);
#488=CARTESIAN_POINT('',(-4.26165306295238E-015,-8.52330612590475E-015,69.5980762113534));
#489=DIRECTION('',(-6.12323399573677E-017,-1.22464679914735E-016,1.0));
#490=DIRECTION('',(-1.23259516440783E-032,1.0,1.22464679914735E-016));
#491=SURFACE_STYLE_FILL_AREA(#526);
#492=ORIENTED_EDGE('',*,*,#119,.F.);
#493=ORIENTED_EDGE('',*,*,#121,.T.);
#494=CARTESIAN_POINT('',(-4.64221538889534E-015,-9.28443077779068E-015,75.8131306451367));
#495=DIRECTION('',(6.12323399573677E-017,1.22464679914735E-016,-1.0));
#496=DIRECTION('',(-1.23259516440783E-032,1.0,1.22464679914735E-016));
#497=SURFACE_STYLE_FILL_AREA(#527);
#498=ORIENTED_EDGE('',*,*,#70,.F.);
#499=ORIENTED_EDGE('',*,*,#55,.T.);
#500=CARTESIAN_POINT('',(-6.04669357079028E-015,-1.20933871415806E-014,98.7500000000037));
#501=DIRECTION('',(-6.12323399573677E-017,-1.22464679914735E-016,1.0));
#502=DIRECTION('',(-1.23259516440783E-032,1.0,1.22464679914735E-016));
#503=SURFACE_STYLE_FILL_AREA(#528);
#504=ORIENTED_EDGE('',*,*,#83,.T.);
#505=CARTESIAN_POINT('',(-1.99316833930953E-028,3.99999999999983,3.25477558850092E-012));
#506=DIRECTION('',(6.12323399573677E-017,1.22464679914735E-016,-1.0));
#507=DIRECTION('',(-1.0,0.0,-6.12323399573677E-017));
#508=CARTESIAN_POINT('',(-4.60015677105198E-015,-9.20031354210396E-015,75.1262612902723));
#509=DIRECTION('',(6.12323399573677E-017,1.22464679914735E-016,-1.0));
#510=DIRECTION('',(-1.23259516440783E-032,1.0,1.22464679914735E-016));
#511=CARTESIAN_POINT('',(-4.6842740067387E-015,-9.36854801347739E-015,76.5000000000012));
#512=DIRECTION('',(6.12323399573677E-017,1.22464679914735E-016,-1.0));
#513=DIRECTION('',(-1.23259516440783E-032,1.0,1.22464679914735E-016));
#514=FILL_AREA_STYLE('',(#529));
#515=FILL_AREA_STYLE('',(#530));
#516=FILL_AREA_STYLE('',(#531));
#517=FILL_AREA_STYLE('',(#532));
#518=FILL_AREA_STYLE('',(#533));
#519=FILL_AREA_STYLE('',(#534));
#520=FILL_AREA_STYLE('',(#535));
#521=FILL_AREA_STYLE('',(#536));
#522=FILL_AREA_STYLE('',(#537));
#523=FILL_AREA_STYLE('',(#538));
#524=FILL_AREA_STYLE('',(#539));
#525=FILL_AREA_STYLE('',(#540));
#526=FILL_AREA_STYLE('',(#541));
#527=FILL_AREA_STYLE('',(#542));
#528=FILL_AREA_STYLE('',(#543));
#529=FILL_AREA_STYLE_COLOUR('',#544);
#530=FILL_AREA_STYLE_COLOUR('',#545);
#531=FILL_AREA_STYLE_COLOUR('',#546);
#532=FILL_AREA_STYLE_COLOUR('',#547);
#533=FILL_AREA_STYLE_COLOUR('',#548);
#534=FILL_AREA_STYLE_COLOUR('',#549);
#535=FILL_AREA_STYLE_COLOUR('',#550);
#536=FILL_AREA_STYLE_COLOUR('',#551);
#537=FILL_AREA_STYLE_COLOUR('',#552);
#538=FILL_AREA_STYLE_COLOUR('',#553);
#539=FILL_AREA_STYLE_COLOUR('',#554);
#540=FILL_AREA_STYLE_COLOUR('',#555);
#541=FILL_AREA_STYLE_COLOUR('',#556);
#542=FILL_AREA_STYLE_COLOUR('',#557);
#543=FILL_AREA_STYLE_COLOUR('',#558);
#544=COLOUR_RGB('',0.0,1.0,1.0);
#545=COLOUR_RGB('',0.0,1.0,1.0);
#546=COLOUR_RGB('',0.0,1.0,1.0);
#547=COLOUR_RGB('',0.0,1.0,1.0);
#548=COLOUR_RGB('',0.0,1.0,1.0);
#549=COLOUR_RGB('',0.0,1.0,1.0);
#550=COLOUR_RGB('',0.0,1.0,1.0);
#551=COLOUR_RGB('',0.0,1.0,1.0);
#552=COLOUR_RGB('',0.0,1.0,1.0);
#553=COLOUR_RGB('',0.0,1.0,1.0);
#554=COLOUR_RGB('',0.0,1.0,1.0);
#555=COLOUR_RGB('',0.0,1.0,1.0);
#556=COLOUR_RGB('',0.0,1.0,1.0);
#557=COLOUR_RGB('',0.0,1.0,1.0);
#558=COLOUR_RGB('',0.0,1.0,1.0);
ENDSEC;
END-ISO-10303-21;
