ISO-10303-21;
HEADER;
FILE_DESCRIPTION((''),'1');
FILE_NAME('T:/02_3D_Field-HP\X2\FF71FF6FFF8CFF9F5916\X0\2013/02_Step_Field-HP\X2\FF71FF6FFF8CFF9F5916\X0\2013/MGT6-d-30_M2-6.stp','2017-02-08T05:42:05',(''),(''),'Spatial Interop R21 SP3','Kubotek KeyCreator 2011 V10.0.2 (22737)',' ');
FILE_SCHEMA(('automotive_design'));
ENDSEC;
DATA;
#1=MECHANICAL_DESIGN_GEOMETRIC_PRESENTATION_REPRESENTATION(' ',(#10,#11,#12,#13,#14,#15,#16,#17,#18,#19,#20,#21,#22,#23,#24,#25,#26,#27,#28,#29,#30,#31,#32,#33,#34,#35,#36,#37),#6);
#2=PRODUCT_DEFINITION_CONTEXT('',#38,'design');
#3=APPLICATION_PROTOCOL_DEFINITION('INTERNATIONAL STANDARD','automotive_design',1994,#38);
#4=PRODUCT_CATEGORY_RELATIONSHIP('NONE','NONE',#39,#40);
#5=SHAPE_DEFINITION_REPRESENTATION(#41,#42);
#6= (GEOMETRIC_REPRESENTATION_CONTEXT(3)GLOBAL_UNCERTAINTY_ASSIGNED_CONTEXT((#45))GLOBAL_UNIT_ASSIGNED_CONTEXT((#47,#48,#49))REPRESENTATION_CONTEXT('NONE','WORKSPACE'));
#10=STYLED_ITEM('',(#51),#52);
#11=STYLED_ITEM('',(#53),#54);
#12=STYLED_ITEM('',(#55,#56),#57);
#13=STYLED_ITEM('',(#58,#59),#60);
#14=STYLED_ITEM('',(#61),#62);
#15=STYLED_ITEM('',(#63,#64),#65);
#16=STYLED_ITEM('',(#66,#67),#68);
#17=STYLED_ITEM('',(#69),#70);
#18=STYLED_ITEM('',(#71,#72),#73);
#19=STYLED_ITEM('',(#74,#75),#76);
#20=STYLED_ITEM('',(#77),#78);
#21=STYLED_ITEM('',(#79),#80);
#22=STYLED_ITEM('',(#81,#82),#83);
#23=STYLED_ITEM('',(#84),#85);
#24=STYLED_ITEM('',(#86),#87);
#25=STYLED_ITEM('',(#88,#89),#90);
#26=STYLED_ITEM('',(#91,#92),#93);
#27=STYLED_ITEM('',(#94),#95);
#28=STYLED_ITEM('',(#96,#97),#98);
#29=STYLED_ITEM('',(#99),#100);
#30=STYLED_ITEM('',(#101,#102),#103);
#31=STYLED_ITEM('',(#104),#105);
#32=STYLED_ITEM('',(#106,#107),#108);
#33=STYLED_ITEM('',(#109,#110),#111);
#34=STYLED_ITEM('',(#112,#113),#114);
#35=STYLED_ITEM('',(#115),#116);
#36=STYLED_ITEM('',(#117,#118),#119);
#37=STYLED_ITEM('',(#120),#121);
#38=APPLICATION_CONTEXT(' ');
#39=PRODUCT_CATEGORY('part','NONE');
#40=PRODUCT_RELATED_PRODUCT_CATEGORY('detail',' ',(#122));
#41=PRODUCT_DEFINITION_SHAPE('NONE','NONE',#123);
#42=ADVANCED_BREP_SHAPE_REPRESENTATION('240[2]',(#108,#124),#6);
#45=UNCERTAINTY_MEASURE_WITH_UNIT(LENGTH_MEASURE(1.0E-006),#47,'','');
#47= (CONVERSION_BASED_UNIT('MILLIMETRE',#127)LENGTH_UNIT()NAMED_UNIT(#130));
#48= (NAMED_UNIT(#132)PLANE_ANGLE_UNIT()SI_UNIT($,.RADIAN.));
#49= (NAMED_UNIT(#132)SOLID_ANGLE_UNIT()SI_UNIT($,.STERADIAN.));
#51=PRESENTATION_STYLE_ASSIGNMENT((#138));
#52=EDGE_CURVE('240[2]',#139,#139,#140,.T.);
#53=PRESENTATION_STYLE_ASSIGNMENT((#141));
#54=EDGE_CURVE('240[2]',#142,#142,#143,.T.);
#55=PRESENTATION_STYLE_ASSIGNMENT((#144));
#56=PRESENTATION_STYLE_ASSIGNMENT((#145));
#57=ADVANCED_FACE('240[2]',(#146,#147),#148,.T.);
#58=PRESENTATION_STYLE_ASSIGNMENT((#149));
#59=PRESENTATION_STYLE_ASSIGNMENT((#150));
#60=ADVANCED_FACE('240[2]',(#151,#152),#153,.T.);
#61=PRESENTATION_STYLE_ASSIGNMENT((#154));
#62=EDGE_CURVE('240[2]',#155,#155,#156,.T.);
#63=PRESENTATION_STYLE_ASSIGNMENT((#157));
#64=PRESENTATION_STYLE_ASSIGNMENT((#158));
#65=ADVANCED_FACE('240[2]',(#159,#160),#161,.T.);
#66=PRESENTATION_STYLE_ASSIGNMENT((#162));
#67=PRESENTATION_STYLE_ASSIGNMENT((#163));
#68=ADVANCED_FACE('240[2]',(#164,#165),#166,.T.);
#69=PRESENTATION_STYLE_ASSIGNMENT((#167));
#70=EDGE_CURVE('240[2]',#168,#168,#169,.T.);
#71=PRESENTATION_STYLE_ASSIGNMENT((#170));
#72=PRESENTATION_STYLE_ASSIGNMENT((#171));
#73=ADVANCED_FACE('240[2]',(#172,#173),#174,.T.);
#74=PRESENTATION_STYLE_ASSIGNMENT((#175));
#75=PRESENTATION_STYLE_ASSIGNMENT((#176));
#76=ADVANCED_FACE('240[2]',(#177),#178,.T.);
#77=PRESENTATION_STYLE_ASSIGNMENT((#179));
#78=EDGE_CURVE('240[2]',#180,#180,#181,.T.);
#79=PRESENTATION_STYLE_ASSIGNMENT((#182));
#80=EDGE_CURVE('240[2]',#183,#183,#184,.T.);
#81=PRESENTATION_STYLE_ASSIGNMENT((#185));
#82=PRESENTATION_STYLE_ASSIGNMENT((#186));
#83=ADVANCED_FACE('240[2]',(#187,#188),#189,.T.);
#84=PRESENTATION_STYLE_ASSIGNMENT((#190));
#85=EDGE_CURVE('240[2]',#191,#191,#192,.T.);
#86=PRESENTATION_STYLE_ASSIGNMENT((#193));
#87=EDGE_CURVE('240[2]',#194,#194,#195,.T.);
#88=PRESENTATION_STYLE_ASSIGNMENT((#196));
#89=PRESENTATION_STYLE_ASSIGNMENT((#197));
#90=ADVANCED_FACE('240[2]',(#198,#199),#200,.T.);
#91=PRESENTATION_STYLE_ASSIGNMENT((#201));
#92=PRESENTATION_STYLE_ASSIGNMENT((#202));
#93=ADVANCED_FACE('240[2]',(#203,#204),#205,.T.);
#94=PRESENTATION_STYLE_ASSIGNMENT((#206));
#95=EDGE_CURVE('240[2]',#207,#207,#208,.T.);
#96=PRESENTATION_STYLE_ASSIGNMENT((#209));
#97=PRESENTATION_STYLE_ASSIGNMENT((#210));
#98=ADVANCED_FACE('240[2]',(#211,#212),#213,.T.);
#99=PRESENTATION_STYLE_ASSIGNMENT((#214));
#100=EDGE_CURVE('240[2]',#215,#215,#216,.T.);
#101=PRESENTATION_STYLE_ASSIGNMENT((#217));
#102=PRESENTATION_STYLE_ASSIGNMENT((#218));
#103=ADVANCED_FACE('240[2]',(#219,#220),#221,.T.);
#104=PRESENTATION_STYLE_ASSIGNMENT((#222));
#105=EDGE_CURVE('240[2]',#223,#223,#224,.T.);
#106=PRESENTATION_STYLE_ASSIGNMENT((#225));
#107=PRESENTATION_STYLE_ASSIGNMENT((#226));
#108=MANIFOLD_SOLID_BREP('240[2]',#227);
#109=PRESENTATION_STYLE_ASSIGNMENT((#228));
#110=PRESENTATION_STYLE_ASSIGNMENT((#229));
#111=ADVANCED_FACE('240[2]',(#230,#231),#232,.T.);
#112=PRESENTATION_STYLE_ASSIGNMENT((#233));
#113=PRESENTATION_STYLE_ASSIGNMENT((#234));
#114=ADVANCED_FACE('240[2]',(#235,#236),#237,.T.);
#115=PRESENTATION_STYLE_ASSIGNMENT((#238));
#116=EDGE_CURVE('240[2]',#239,#239,#240,.T.);
#117=PRESENTATION_STYLE_ASSIGNMENT((#241));
#118=PRESENTATION_STYLE_ASSIGNMENT((#242));
#119=ADVANCED_FACE('240[2]',(#243),#244,.T.);
#120=PRESENTATION_STYLE_ASSIGNMENT((#245));
#121=EDGE_CURVE('240[2]',#246,#246,#247,.T.);
#122=PRODUCT('240[2]','240[2]','PART-240[2]-DESC',(#248));
#123=PRODUCT_DEFINITION('NONE','NONE',#249,#2);
#124=AXIS2_PLACEMENT_3D('',#250,#251,#252);
#127=LENGTH_MEASURE_WITH_UNIT(LENGTH_MEASURE(1.0),#253);
#130=DIMENSIONAL_EXPONENTS(1.0,0.0,0.0,0.0,0.0,0.0,0.0);
#132=DIMENSIONAL_EXPONENTS(0.0,0.0,0.0,0.0,0.0,0.0,0.0);
#138=CURVE_STYLE('',#254,POSITIVE_LENGTH_MEASURE(1000.0),#255);
#139=VERTEX_POINT('',#256);
#140=CIRCLE('',#257,7.99999999999993);
#141=CURVE_STYLE('',#258,POSITIVE_LENGTH_MEASURE(1000.0),#259);
#142=VERTEX_POINT('',#260);
#143=CIRCLE('',#261,8.0);
#144=SURFACE_STYLE_USAGE(.BOTH.,#262);
#145=CURVE_STYLE('',#263,POSITIVE_LENGTH_MEASURE(1000.0),#264);
#146=FACE_BOUND('',#265,.T.);
#147=FACE_BOUND('',#266,.T.);
#148=CYLINDRICAL_SURFACE('',#267,8.00000000000066);
#149=SURFACE_STYLE_USAGE(.BOTH.,#268);
#150=CURVE_STYLE('',#269,POSITIVE_LENGTH_MEASURE(1000.0),#270);
#151=FACE_BOUND('',#271,.T.);
#152=FACE_BOUND('',#272,.T.);
#153=CYLINDRICAL_SURFACE('',#273,11.0000000000004);
#154=CURVE_STYLE('',#274,POSITIVE_LENGTH_MEASURE(1000.0),#275);
#155=VERTEX_POINT('',#276);
#156=CIRCLE('',#277,8.0);
#157=SURFACE_STYLE_USAGE(.BOTH.,#278);
#158=CURVE_STYLE('',#279,POSITIVE_LENGTH_MEASURE(1000.0),#280);
#159=FACE_BOUND('',#281,.T.);
#160=FACE_BOUND('',#282,.T.);
#161=CYLINDRICAL_SURFACE('',#283,8.14999999999963);
#162=SURFACE_STYLE_USAGE(.BOTH.,#284);
#163=CURVE_STYLE('',#285,POSITIVE_LENGTH_MEASURE(1000.0),#286);
#164=FACE_BOUND('',#287,.T.);
#165=FACE_BOUND('',#288,.T.);
#166=CYLINDRICAL_SURFACE('',#289,8.0);
#167=CURVE_STYLE('',#290,POSITIVE_LENGTH_MEASURE(1000.0),#291);
#168=VERTEX_POINT('',#292);
#169=CIRCLE('',#293,8.0);
#170=SURFACE_STYLE_USAGE(.BOTH.,#294);
#171=CURVE_STYLE('',#295,POSITIVE_LENGTH_MEASURE(1000.0),#296);
#172=FACE_BOUND('',#297,.T.);
#173=FACE_BOUND('',#298,.T.);
#174=CONICAL_SURFACE('',#299,10.7500000000004,0.349065850398529);
#175=SURFACE_STYLE_USAGE(.BOTH.,#300);
#176=CURVE_STYLE('',#301,POSITIVE_LENGTH_MEASURE(1000.0),#302);
#177=FACE_OUTER_BOUND('',#303,.T.);
#178=PLANE('',#304);
#179=CURVE_STYLE('',#305,POSITIVE_LENGTH_MEASURE(1000.0),#306);
#180=VERTEX_POINT('',#307);
#181=CIRCLE('',#308,10.5000000000004);
#182=CURVE_STYLE('',#309,POSITIVE_LENGTH_MEASURE(1000.0),#310);
#183=VERTEX_POINT('',#311);
#184=CIRCLE('',#312,8.14999999999963);
#185=SURFACE_STYLE_USAGE(.BOTH.,#313);
#186=CURVE_STYLE('',#314,POSITIVE_LENGTH_MEASURE(1000.0),#315);
#187=FACE_OUTER_BOUND('',#316,.T.);
#188=FACE_BOUND('',#317,.T.);
#189=PLANE('',#318);
#190=CURVE_STYLE('',#319,POSITIVE_LENGTH_MEASURE(1000.0),#320);
#191=VERTEX_POINT('',#321);
#192=CIRCLE('',#322,6.20000000000346);
#193=CURVE_STYLE('',#323,POSITIVE_LENGTH_MEASURE(1000.0),#324);
#194=VERTEX_POINT('',#325);
#195=CIRCLE('',#326,11.0000000000004);
#196=SURFACE_STYLE_USAGE(.BOTH.,#327);
#197=CURVE_STYLE('',#328,POSITIVE_LENGTH_MEASURE(1000.0),#329);
#198=FACE_OUTER_BOUND('',#330,.T.);
#199=FACE_BOUND('',#331,.T.);
#200=PLANE('',#332);
#201=SURFACE_STYLE_USAGE(.BOTH.,#333);
#202=CURVE_STYLE('',#334,POSITIVE_LENGTH_MEASURE(1000.0),#335);
#203=FACE_OUTER_BOUND('',#336,.T.);
#204=FACE_BOUND('',#337,.T.);
#205=PLANE('',#338);
#206=CURVE_STYLE('',#339,POSITIVE_LENGTH_MEASURE(1000.0),#340);
#207=VERTEX_POINT('',#341);
#208=CIRCLE('',#342,8.00000000000139);
#209=SURFACE_STYLE_USAGE(.BOTH.,#343);
#210=CURVE_STYLE('',#344,POSITIVE_LENGTH_MEASURE(1000.0),#345);
#211=FACE_BOUND('',#346,.T.);
#212=FACE_BOUND('',#347,.T.);
#213=CYLINDRICAL_SURFACE('',#348,8.0);
#214=CURVE_STYLE('',#349,POSITIVE_LENGTH_MEASURE(1000.0),#350);
#215=VERTEX_POINT('',#351);
#216=CIRCLE('',#352,8.0);
#217=SURFACE_STYLE_USAGE(.BOTH.,#353);
#218=CURVE_STYLE('',#354,POSITIVE_LENGTH_MEASURE(1000.0),#355);
#219=FACE_BOUND('',#356,.T.);
#220=FACE_BOUND('',#357,.T.);
#221=CYLINDRICAL_SURFACE('',#358,6.20000000000346);
#222=CURVE_STYLE('',#359,POSITIVE_LENGTH_MEASURE(1000.0),#360);
#223=VERTEX_POINT('',#361);
#224=CIRCLE('',#362,11.0000000000004);
#225=SURFACE_STYLE_USAGE(.BOTH.,#363);
#226=CURVE_STYLE('',#364,POSITIVE_LENGTH_MEASURE(1000.0),#365);
#227=CLOSED_SHELL('',(#93,#60,#114,#57,#90,#103,#83,#65,#111,#98,#119,#73,#76,#68));
#228=SURFACE_STYLE_USAGE(.BOTH.,#366);
#229=CURVE_STYLE('',#367,POSITIVE_LENGTH_MEASURE(1000.0),#368);
#230=FACE_BOUND('',#369,.T.);
#231=FACE_BOUND('',#370,.T.);
#232=CONICAL_SURFACE('',#371,8.07499999999982,0.124354994546354);
#233=SURFACE_STYLE_USAGE(.BOTH.,#372);
#234=CURVE_STYLE('',#373,POSITIVE_LENGTH_MEASURE(1000.0),#374);
#235=FACE_BOUND('',#375,.T.);
#236=FACE_BOUND('',#376,.T.);
#237=CONICAL_SURFACE('',#377,9.50000000000091,1.30899693899587);
#238=CURVE_STYLE('',#378,POSITIVE_LENGTH_MEASURE(1000.0),#379);
#239=VERTEX_POINT('',#380);
#240=CIRCLE('',#381,8.14999999999963);
#241=SURFACE_STYLE_USAGE(.BOTH.,#382);
#242=CURVE_STYLE('',#383,POSITIVE_LENGTH_MEASURE(1000.0),#384);
#243=FACE_OUTER_BOUND('',#385,.T.);
#244=PLANE('',#386);
#245=CURVE_STYLE('',#387,POSITIVE_LENGTH_MEASURE(1000.0),#388);
#246=VERTEX_POINT('',#389);
#247=CIRCLE('',#390,6.20000000000346);
#248=PRODUCT_CONTEXT('',#38,'mechanical');
#249=PRODUCT_DEFINITION_FORMATION_WITH_SPECIFIED_SOURCE(' ','NONE',#122,.NOT_KNOWN.);
#250=CARTESIAN_POINT('',(0.0,0.0,0.0));
#251=DIRECTION('',(0.0,0.0,1.0));
#252=DIRECTION('',(1.0,0.0,0.0));
#253= (NAMED_UNIT(#130)LENGTH_UNIT()SI_UNIT(.MILLI.,.METRE.));
#254=DRAUGHTING_PRE_DEFINED_CURVE_FONT('continuous');
#255=COLOUR_RGB('',0.0,1.0,1.0);
#256=CARTESIAN_POINT('',(-1.2246467991481E-015,7.99999999999993,20.0000000000122));
#257=AXIS2_PLACEMENT_3D('',#392,#393,#394);
#258=DRAUGHTING_PRE_DEFINED_CURVE_FONT('continuous');
#259=COLOUR_RGB('',0.0,1.0,1.0);
#260=CARTESIAN_POINT('',(-4.74550634669638E-015,7.99999999999999,77.5000000000064));
#261=AXIS2_PLACEMENT_3D('',#395,#396,#397);
#262=SURFACE_SIDE_STYLE('',(#398));
#263=DRAUGHTING_PRE_DEFINED_CURVE_FONT('continuous');
#264=COLOUR_RGB('',0.0,1.0,1.0);
#265=EDGE_LOOP('',(#399));
#266=EDGE_LOOP('',(#400));
#267=AXIS2_PLACEMENT_3D('',#401,#402,#403);
#268=SURFACE_SIDE_STYLE('',(#404));
#269=DRAUGHTING_PRE_DEFINED_CURVE_FONT('continuous');
#270=COLOUR_RGB('',0.0,1.0,1.0);
#271=EDGE_LOOP('',(#405));
#272=EDGE_LOOP('',(#406));
#273=AXIS2_PLACEMENT_3D('',#407,#408,#409);
#274=DRAUGHTING_PRE_DEFINED_CURVE_FONT('continuous');
#275=COLOUR_RGB('',0.0,1.0,1.0);
#276=CARTESIAN_POINT('',(-9.67470971326462E-016,8.0,15.8000000000009));
#277=AXIS2_PLACEMENT_3D('',#410,#411,#412);
#278=SURFACE_SIDE_STYLE('',(#413));
#279=DRAUGHTING_PRE_DEFINED_CURVE_FONT('continuous');
#280=COLOUR_RGB('',0.0,1.0,1.0);
#281=EDGE_LOOP('',(#414));
#282=EDGE_LOOP('',(#415));
#283=AXIS2_PLACEMENT_3D('',#416,#417,#418);
#284=SURFACE_SIDE_STYLE('',(#419));
#285=DRAUGHTING_PRE_DEFINED_CURVE_FONT('continuous');
#286=COLOUR_RGB('',0.0,1.0,1.0);
#287=EDGE_LOOP('',(#420));
#288=EDGE_LOOP('',(#421));
#289=AXIS2_PLACEMENT_3D('',#422,#423,#424);
#290=DRAUGHTING_PRE_DEFINED_CURVE_FONT('continuous');
#291=COLOUR_RGB('',0.0,1.0,1.0);
#292=CARTESIAN_POINT('',(-2.44929359829465E-015,7.99999999999999,36.5));
#293=AXIS2_PLACEMENT_3D('',#425,#426,#427);
#294=SURFACE_SIDE_STYLE('',(#428));
#295=DRAUGHTING_PRE_DEFINED_CURVE_FONT('continuous');
#296=COLOUR_RGB('',0.0,1.0,1.0);
#297=EDGE_LOOP('',(#429));
#298=EDGE_LOOP('',(#430));
#299=AXIS2_PLACEMENT_3D('',#431,#432,#433);
#300=SURFACE_SIDE_STYLE('',(#434));
#301=DRAUGHTING_PRE_DEFINED_CURVE_FONT('continuous');
#302=COLOUR_RGB('',0.0,1.0,1.0);
#303=EDGE_LOOP('',(#435));
#304=AXIS2_PLACEMENT_3D('',#436,#437,#438);
#305=DRAUGHTING_PRE_DEFINED_CURVE_FONT('continuous');
#306=COLOUR_RGB('',0.0,1.0,1.0);
#307=CARTESIAN_POINT('',(-2.23498040844392E-015,10.5000000000004,36.5));
#308=AXIS2_PLACEMENT_3D('',#439,#440,#441);
#309=DRAUGHTING_PRE_DEFINED_CURVE_FONT('continuous');
#310=COLOUR_RGB('',0.0,1.0,1.0);
#311=CARTESIAN_POINT('',(-1.04094977927537E-015,8.14999999999963,17.0000000000019));
#312=AXIS2_PLACEMENT_3D('',#442,#443,#444);
#313=SURFACE_SIDE_STYLE('',(#445));
#314=DRAUGHTING_PRE_DEFINED_CURVE_FONT('continuous');
#315=COLOUR_RGB('',0.0,1.0,1.0);
#316=EDGE_LOOP('',(#446));
#317=EDGE_LOOP('',(#447));
#318=AXIS2_PLACEMENT_3D('',#448,#449,#450);
#319=DRAUGHTING_PRE_DEFINED_CURVE_FONT('continuous');
#320=COLOUR_RGB('',0.0,1.0,1.0);
#321=CARTESIAN_POINT('',(-1.22464679914501E-015,6.20000000000345,19.9999999999617));
#322=AXIS2_PLACEMENT_3D('',#451,#452,#453);
#323=DRAUGHTING_PRE_DEFINED_CURVE_FONT('continuous');
#324=COLOUR_RGB('',0.0,1.0,1.0);
#325=CARTESIAN_POINT('',(-2.15086317275722E-015,11.0000000000004,35.1262612902713));
#326=AXIS2_PLACEMENT_3D('',#454,#455,#456);
#327=SURFACE_SIDE_STYLE('',(#457));
#328=DRAUGHTING_PRE_DEFINED_CURVE_FONT('continuous');
#329=COLOUR_RGB('',0.0,1.0,1.0);
#330=EDGE_LOOP('',(#458));
#331=EDGE_LOOP('',(#459));
#332=AXIS2_PLACEMENT_3D('',#460,#461,#462);
#333=SURFACE_SIDE_STYLE('',(#463));
#334=DRAUGHTING_PRE_DEFINED_CURVE_FONT('continuous');
#335=COLOUR_RGB('',0.0,1.0,1.0);
#336=EDGE_LOOP('',(#464));
#337=EDGE_LOOP('',(#465));
#338=AXIS2_PLACEMENT_3D('',#466,#467,#468);
#339=DRAUGHTING_PRE_DEFINED_CURVE_FONT('continuous');
#340=COLOUR_RGB('',0.0,1.0,1.0);
#341=CARTESIAN_POINT('',(-1.78774873059427E-015,8.00000000000138,29.1961524227062));
#342=AXIS2_PLACEMENT_3D('',#469,#470,#471);
#343=SURFACE_SIDE_STYLE('',(#472));
#344=DRAUGHTING_PRE_DEFINED_CURVE_FONT('continuous');
#345=COLOUR_RGB('',0.0,1.0,1.0);
#346=EDGE_LOOP('',(#473));
#347=EDGE_LOOP('',(#474));
#348=AXIS2_PLACEMENT_3D('',#475,#476,#477);
#349=DRAUGHTING_PRE_DEFINED_CURVE_FONT('continuous');
#350=COLOUR_RGB('',0.0,1.0,1.0);
#351=CARTESIAN_POINT('',(-1.35191551070836E-028,8.0,2.20721491197443E-012));
#352=AXIS2_PLACEMENT_3D('',#478,#479,#480);
#353=SURFACE_SIDE_STYLE('',(#481));
#354=DRAUGHTING_PRE_DEFINED_CURVE_FONT('continuous');
#355=COLOUR_RGB('',0.0,1.0,1.0);
#356=EDGE_LOOP('',(#482));
#357=EDGE_LOOP('',(#483));
#358=AXIS2_PLACEMENT_3D('',#484,#485,#486);
#359=DRAUGHTING_PRE_DEFINED_CURVE_FONT('continuous');
#360=COLOUR_RGB('',0.0,1.0,1.0);
#361=CARTESIAN_POINT('',(-1.83697019872096E-015,11.0000000000004,29.9999999999989));
#362=AXIS2_PLACEMENT_3D('',#487,#488,#489);
#363=SURFACE_SIDE_STYLE('',(#490));
#364=DRAUGHTING_PRE_DEFINED_CURVE_FONT('continuous');
#365=COLOUR_RGB('',0.0,1.0,1.0);
#366=SURFACE_SIDE_STYLE('',(#491));
#367=DRAUGHTING_PRE_DEFINED_CURVE_FONT('continuous');
#368=COLOUR_RGB('',0.0,1.0,1.0);
#369=EDGE_LOOP('',(#492));
#370=EDGE_LOOP('',(#493));
#371=AXIS2_PLACEMENT_3D('',#494,#495,#496);
#372=SURFACE_SIDE_STYLE('',(#497));
#373=DRAUGHTING_PRE_DEFINED_CURVE_FONT('continuous');
#374=COLOUR_RGB('',0.0,1.0,1.0);
#375=EDGE_LOOP('',(#498));
#376=EDGE_LOOP('',(#499));
#377=AXIS2_PLACEMENT_3D('',#500,#501,#502);
#378=DRAUGHTING_PRE_DEFINED_CURVE_FONT('continuous');
#379=COLOUR_RGB('',0.0,1.0,1.0);
#380=CARTESIAN_POINT('',(-1.16341445919093E-015,8.14999999999963,19.0000000000154));
#381=AXIS2_PLACEMENT_3D('',#503,#504,#505);
#382=SURFACE_SIDE_STYLE('',(#506));
#383=DRAUGHTING_PRE_DEFINED_CURVE_FONT('continuous');
#384=COLOUR_RGB('',0.0,1.0,1.0);
#385=EDGE_LOOP('',(#507));
#386=AXIS2_PLACEMENT_3D('',#508,#509,#510);
#387=DRAUGHTING_PRE_DEFINED_CURVE_FONT('continuous');
#388=COLOUR_RGB('',0.0,1.0,1.0);
#389=CARTESIAN_POINT('',(-1.16341445918726E-015,6.20000000000345,18.9999999999554));
#390=AXIS2_PLACEMENT_3D('',#511,#512,#513);
#392=CARTESIAN_POINT('',(-1.2246467991481E-015,-2.4492935982962E-015,20.0000000000122));
#393=DIRECTION('',(6.12323399573677E-017,1.22464679914735E-016,-1.0));
#394=DIRECTION('',(-1.23259516440783E-032,1.0,1.22464679914735E-016));
#395=CARTESIAN_POINT('',(-4.74550634669638E-015,-9.49101269339276E-015,77.5000000000064));
#396=DIRECTION('',(6.12323399573677E-017,1.22464679914735E-016,-1.0));
#397=DIRECTION('',(-1.23259516440783E-032,1.0,1.22464679914735E-016));
#398=SURFACE_STYLE_FILL_AREA(#514);
#399=ORIENTED_EDGE('',*,*,#52,.F.);
#400=ORIENTED_EDGE('',*,*,#95,.T.);
#401=CARTESIAN_POINT('',(-1.50619776487119E-015,-3.01239552974237E-015,24.5980762113592));
#402=DIRECTION('',(6.12323399573677E-017,1.22464679914735E-016,-1.0));
#403=DIRECTION('',(-1.23259516440783E-032,1.0,1.22464679914735E-016));
#404=SURFACE_STYLE_FILL_AREA(#515);
#405=ORIENTED_EDGE('',*,*,#105,.F.);
#406=ORIENTED_EDGE('',*,*,#87,.T.);
#407=CARTESIAN_POINT('',(-1.99391668573909E-015,-3.98783337147818E-015,32.5631306451351));
#408=DIRECTION('',(6.12323399573677E-017,1.22464679914735E-016,-1.0));
#409=DIRECTION('',(-1.23259516440783E-032,1.0,1.22464679914735E-016));
#410=CARTESIAN_POINT('',(-9.67470971326462E-016,-1.93494194265292E-015,15.8000000000009));
#411=DIRECTION('',(6.12323399573677E-017,1.22464679914735E-016,-1.0));
#412=DIRECTION('',(-1.23259516440783E-032,1.0,1.22464679914735E-016));
#413=SURFACE_STYLE_FILL_AREA(#516);
#414=ORIENTED_EDGE('',*,*,#80,.F.);
#415=ORIENTED_EDGE('',*,*,#116,.T.);
#416=CARTESIAN_POINT('',(-1.10218211923315E-015,-2.20436423846629E-015,18.0000000000086));
#417=DIRECTION('',(6.12323399573676E-017,1.22464679914735E-016,-1.0));
#418=DIRECTION('',(-1.23259516440783E-032,1.0,1.22464679914735E-016));
#419=SURFACE_STYLE_FILL_AREA(#517);
#420=ORIENTED_EDGE('',*,*,#70,.F.);
#421=ORIENTED_EDGE('',*,*,#54,.T.);
#422=CARTESIAN_POINT('',(-3.59739997249551E-015,-7.19479994499103E-015,58.7500000000027));
#423=DIRECTION('',(6.12323399573677E-017,1.22464679914735E-016,-1.0));
#424=DIRECTION('',(-1.23259516440783E-032,1.0,1.22464679914735E-016));
#425=CARTESIAN_POINT('',(-2.44929359829465E-015,-4.89858719658929E-015,36.5));
#426=DIRECTION('',(6.12323399573677E-017,1.22464679914735E-016,-1.0));
#427=DIRECTION('',(-1.23259516440783E-032,1.0,1.22464679914735E-016));
#428=SURFACE_STYLE_FILL_AREA(#518);
#429=ORIENTED_EDGE('',*,*,#87,.F.);
#430=ORIENTED_EDGE('',*,*,#78,.T.);
#431=CARTESIAN_POINT('',(-2.19292179060057E-015,-4.38584358120113E-015,35.8131306451356));
#432=DIRECTION('',(6.12323399573677E-017,1.22464679914735E-016,-1.0));
#433=DIRECTION('',(-1.23259516440783E-032,1.0,1.22464679914735E-016));
#434=SURFACE_STYLE_FILL_AREA(#519);
#435=ORIENTED_EDGE('',*,*,#54,.F.);
#436=CARTESIAN_POINT('',(-4.74550634669638E-015,3.99999999999999,77.5000000000064));
#437=DIRECTION('',(7.49879891330927E-033,-1.22464679914735E-016,1.0));
#438=DIRECTION('',(1.0,6.12323399573677E-017,0.0));
#439=CARTESIAN_POINT('',(-2.23498040844392E-015,-4.46996081688784E-015,36.5));
#440=DIRECTION('',(6.12323399573677E-017,1.22464679914735E-016,-1.0));
#441=DIRECTION('',(-1.23259516440783E-032,1.0,1.22464679914735E-016));
#442=CARTESIAN_POINT('',(-1.04094977927537E-015,-2.08189955855074E-015,17.0000000000019));
#443=DIRECTION('',(6.12323399573676E-017,1.22464679914735E-016,-1.0));
#444=DIRECTION('',(-1.23259516440783E-032,1.0,1.22464679914735E-016));
#445=SURFACE_STYLE_FILL_AREA(#520);
#446=ORIENTED_EDGE('',*,*,#116,.F.);
#447=ORIENTED_EDGE('',*,*,#121,.T.);
#448=CARTESIAN_POINT('',(-1.16341445918909E-015,7.17500000000154,18.9999999999854));
#449=DIRECTION('',(1.88156956524406E-027,-3.07283629296885E-011,1.0));
#450=DIRECTION('',(1.0,6.12323399573677E-017,0.0));
#451=CARTESIAN_POINT('',(-1.22464679914501E-015,-2.44929359829002E-015,19.9999999999617));
#452=DIRECTION('',(6.12323399573677E-017,1.22464679914735E-016,-1.0));
#453=DIRECTION('',(-1.23259516440783E-032,1.0,1.22464679914735E-016));
#454=CARTESIAN_POINT('',(-2.15086317275722E-015,-4.30172634551443E-015,35.1262612902713));
#455=DIRECTION('',(6.12323399573677E-017,1.22464679914735E-016,-1.0));
#456=DIRECTION('',(-1.23259516440783E-032,1.0,1.22464679914735E-016));
#457=SURFACE_STYLE_FILL_AREA(#521);
#458=ORIENTED_EDGE('',*,*,#52,.T.);
#459=ORIENTED_EDGE('',*,*,#85,.F.);
#460=CARTESIAN_POINT('',(-1.22464679914656E-015,7.10000000000169,19.999999999987));
#461=DIRECTION('',(6.12323399573677E-017,2.8038928309757E-011,-1.0));
#462=DIRECTION('',(-1.0,0.0,-6.12323399573677E-017));
#463=SURFACE_STYLE_FILL_AREA(#522);
#464=ORIENTED_EDGE('',*,*,#78,.F.);
#465=ORIENTED_EDGE('',*,*,#70,.T.);
#466=CARTESIAN_POINT('',(-7.87347880381527,1.41715614025826,36.5));
#467=DIRECTION('',(0.0,0.0,1.0));
#468=DIRECTION('',(-1.0,0.0,0.0));
#469=CARTESIAN_POINT('',(-1.78774873059427E-015,-3.57549746118854E-015,29.1961524227062));
#470=DIRECTION('',(6.12323399573676E-017,1.22464679914735E-016,-1.0));
#471=DIRECTION('',(-1.23259516440783E-032,1.0,1.22464679914735E-016));
#472=SURFACE_STYLE_FILL_AREA(#523);
#473=ORIENTED_EDGE('',*,*,#100,.F.);
#474=ORIENTED_EDGE('',*,*,#62,.T.);
#475=CARTESIAN_POINT('',(-4.83735485663298E-016,-9.67470971326597E-016,7.90000000000153));
#476=DIRECTION('',(6.12323399573677E-017,1.22464679914735E-016,-1.0));
#477=DIRECTION('',(-1.23259516440783E-032,1.0,1.22464679914735E-016));
#478=CARTESIAN_POINT('',(-1.35310484429435E-028,-2.70620968858869E-028,2.20978790821391E-012));
#479=DIRECTION('',(6.12323399573677E-017,1.22464679914735E-016,-1.0));
#480=DIRECTION('',(-1.23259516440783E-032,1.0,1.22464679914735E-016));
#481=SURFACE_STYLE_FILL_AREA(#524);
#482=ORIENTED_EDGE('',*,*,#121,.F.);
#483=ORIENTED_EDGE('',*,*,#85,.T.);
#484=CARTESIAN_POINT('',(-1.19403062916613E-015,-2.38806125833227E-015,19.4999999999586));
#485=DIRECTION('',(6.12323399573677E-017,1.22464679914735E-016,-1.0));
#486=DIRECTION('',(-1.23259516440783E-032,1.0,1.22464679914735E-016));
#487=CARTESIAN_POINT('',(-1.83697019872096E-015,-3.67394039744193E-015,29.9999999999989));
#488=DIRECTION('',(6.12323399573677E-017,1.22464679914735E-016,-1.0));
#489=DIRECTION('',(-1.23259516440783E-032,1.0,1.22464679914735E-016));
#490=SURFACE_STYLE_FILL_AREA(#525);
#491=SURFACE_STYLE_FILL_AREA(#526);
#492=ORIENTED_EDGE('',*,*,#62,.F.);
#493=ORIENTED_EDGE('',*,*,#80,.T.);
#494=CARTESIAN_POINT('',(-1.00421037530092E-015,-2.00842075060183E-015,16.4000000000014));
#495=DIRECTION('',(-6.12323399573677E-017,-1.22464679914735E-016,1.0));
#496=DIRECTION('',(-1.23259516440783E-032,1.0,1.22464679914735E-016));
#497=SURFACE_STYLE_FILL_AREA(#527);
#498=ORIENTED_EDGE('',*,*,#95,.F.);
#499=ORIENTED_EDGE('',*,*,#105,.T.);
#500=CARTESIAN_POINT('',(-1.81235946465762E-015,-3.62471892931523E-015,29.5980762113526));
#501=DIRECTION('',(-6.12323399573676E-017,-1.22464679914735E-016,1.0));
#502=DIRECTION('',(-1.23259516440783E-032,1.0,1.22464679914735E-016));
#503=CARTESIAN_POINT('',(-1.16341445919093E-015,-2.32682891838185E-015,19.0000000000154));
#504=DIRECTION('',(6.12323399573676E-017,1.22464679914735E-016,-1.0));
#505=DIRECTION('',(-1.23259516440783E-032,1.0,1.22464679914735E-016));
#506=SURFACE_STYLE_FILL_AREA(#528);
#507=ORIENTED_EDGE('',*,*,#100,.T.);
#508=CARTESIAN_POINT('',(-1.35251017750135E-028,4.0,2.20850141009417E-012));
#509=DIRECTION('',(6.12323399573677E-017,-3.21624529935327E-016,-1.0));
#510=DIRECTION('',(0.0,-1.0,3.21624529935327E-016));
#511=CARTESIAN_POINT('',(-1.16341445918726E-015,-2.32682891837451E-015,18.9999999999554));
#512=DIRECTION('',(6.12323399573677E-017,1.22464679914735E-016,-1.0));
#513=DIRECTION('',(-1.23259516440783E-032,1.0,1.22464679914735E-016));
#514=FILL_AREA_STYLE('',(#529));
#515=FILL_AREA_STYLE('',(#530));
#516=FILL_AREA_STYLE('',(#531));
#517=FILL_AREA_STYLE('',(#532));
#518=FILL_AREA_STYLE('',(#533));
#519=FILL_AREA_STYLE('',(#534));
#520=FILL_AREA_STYLE('',(#535));
#521=FILL_AREA_STYLE('',(#536));
#522=FILL_AREA_STYLE('',(#537));
#523=FILL_AREA_STYLE('',(#538));
#524=FILL_AREA_STYLE('',(#539));
#525=FILL_AREA_STYLE('',(#540));
#526=FILL_AREA_STYLE('',(#541));
#527=FILL_AREA_STYLE('',(#542));
#528=FILL_AREA_STYLE('',(#543));
#529=FILL_AREA_STYLE_COLOUR('',#544);
#530=FILL_AREA_STYLE_COLOUR('',#545);
#531=FILL_AREA_STYLE_COLOUR('',#546);
#532=FILL_AREA_STYLE_COLOUR('',#547);
#533=FILL_AREA_STYLE_COLOUR('',#548);
#534=FILL_AREA_STYLE_COLOUR('',#549);
#535=FILL_AREA_STYLE_COLOUR('',#550);
#536=FILL_AREA_STYLE_COLOUR('',#551);
#537=FILL_AREA_STYLE_COLOUR('',#552);
#538=FILL_AREA_STYLE_COLOUR('',#553);
#539=FILL_AREA_STYLE_COLOUR('',#554);
#540=FILL_AREA_STYLE_COLOUR('',#555);
#541=FILL_AREA_STYLE_COLOUR('',#556);
#542=FILL_AREA_STYLE_COLOUR('',#557);
#543=FILL_AREA_STYLE_COLOUR('',#558);
#544=COLOUR_RGB('',0.0,1.0,1.0);
#545=COLOUR_RGB('',0.0,1.0,1.0);
#546=COLOUR_RGB('',0.0,1.0,1.0);
#547=COLOUR_RGB('',0.0,1.0,1.0);
#548=COLOUR_RGB('',0.0,1.0,1.0);
#549=COLOUR_RGB('',0.0,1.0,1.0);
#550=COLOUR_RGB('',0.0,1.0,1.0);
#551=COLOUR_RGB('',0.0,1.0,1.0);
#552=COLOUR_RGB('',0.0,1.0,1.0);
#553=COLOUR_RGB('',0.0,1.0,1.0);
#554=COLOUR_RGB('',0.0,1.0,1.0);
#555=COLOUR_RGB('',0.0,1.0,1.0);
#556=COLOUR_RGB('',0.0,1.0,1.0);
#557=COLOUR_RGB('',0.0,1.0,1.0);
#558=COLOUR_RGB('',0.0,1.0,1.0);
ENDSEC;
END-ISO-10303-21;
