ISO-10303-21;
HEADER;
FILE_DESCRIPTION((''),'1');
FILE_NAME('T:/02_3D_Field-HP\X2\FF71FF6FFF8CFF9F5916\X0\2013/02_Step_Field-HP\X2\FF71FF6FFF8CFF9F5916\X0\2013/MGT6-d-30_031025-060049.stp','2017-02-08T07:43:22',(''),(''),'Spatial Interop R21 SP3','Kubotek KeyCreator 2011 V10.0.2 (22737)',' ');
FILE_SCHEMA(('automotive_design'));
ENDSEC;
DATA;
#1=MECHANICAL_DESIGN_GEOMETRIC_PRESENTATION_REPRESENTATION(' ',(#10,#11,#12,#13,#14,#15,#16,#17,#18,#19,#20,#21,#22,#23,#24,#25,#26,#27,#28,#29,#30,#31,#32,#33,#34,#35,#36,#37),#6);
#2=PRODUCT_DEFINITION_CONTEXT('',#38,'design');
#3=APPLICATION_PROTOCOL_DEFINITION('INTERNATIONAL STANDARD','automotive_design',1994,#38);
#4=PRODUCT_CATEGORY_RELATIONSHIP('NONE','NONE',#39,#40);
#5=SHAPE_DEFINITION_REPRESENTATION(#41,#42);
#6= (GEOMETRIC_REPRESENTATION_CONTEXT(3)GLOBAL_UNCERTAINTY_ASSIGNED_CONTEXT((#45))GLOBAL_UNIT_ASSIGNED_CONTEXT((#47,#48,#49))REPRESENTATION_CONTEXT('NONE','WORKSPACE'));
#10=STYLED_ITEM('',(#51),#52);
#11=STYLED_ITEM('',(#53,#54),#55);
#12=STYLED_ITEM('',(#56,#57),#58);
#13=STYLED_ITEM('',(#59,#60),#61);
#14=STYLED_ITEM('',(#62,#63),#64);
#15=STYLED_ITEM('',(#65,#66),#67);
#16=STYLED_ITEM('',(#68,#69),#70);
#17=STYLED_ITEM('',(#71,#72),#73);
#18=STYLED_ITEM('',(#74,#75),#76);
#19=STYLED_ITEM('',(#77),#78);
#20=STYLED_ITEM('',(#79,#80),#81);
#21=STYLED_ITEM('',(#82),#83);
#22=STYLED_ITEM('',(#84),#85);
#23=STYLED_ITEM('',(#86,#87),#88);
#24=STYLED_ITEM('',(#89,#90),#91);
#25=STYLED_ITEM('',(#92,#93),#94);
#26=STYLED_ITEM('',(#95,#96),#97);
#27=STYLED_ITEM('',(#98),#99);
#28=STYLED_ITEM('',(#100),#101);
#29=STYLED_ITEM('',(#102),#103);
#30=STYLED_ITEM('',(#104,#105),#106);
#31=STYLED_ITEM('',(#107,#108),#109);
#32=STYLED_ITEM('',(#110),#111);
#33=STYLED_ITEM('',(#112),#113);
#34=STYLED_ITEM('',(#114),#115);
#35=STYLED_ITEM('',(#116),#117);
#36=STYLED_ITEM('',(#118),#119);
#37=STYLED_ITEM('',(#120),#121);
#38=APPLICATION_CONTEXT(' ');
#39=PRODUCT_CATEGORY('part','NONE');
#40=PRODUCT_RELATED_PRODUCT_CATEGORY('detail',' ',(#122));
#41=PRODUCT_DEFINITION_SHAPE('NONE','NONE',#123);
#42=ADVANCED_BREP_SHAPE_REPRESENTATION('240[2]',(#106,#124),#6);
#45=UNCERTAINTY_MEASURE_WITH_UNIT(LENGTH_MEASURE(1.0E-006),#47,'','');
#47= (CONVERSION_BASED_UNIT('MILLIMETRE',#127)LENGTH_UNIT()NAMED_UNIT(#130));
#48= (NAMED_UNIT(#132)PLANE_ANGLE_UNIT()SI_UNIT($,.RADIAN.));
#49= (NAMED_UNIT(#132)SOLID_ANGLE_UNIT()SI_UNIT($,.STERADIAN.));
#51=PRESENTATION_STYLE_ASSIGNMENT((#138));
#52=EDGE_CURVE('240[2]',#139,#139,#140,.T.);
#53=PRESENTATION_STYLE_ASSIGNMENT((#141));
#54=PRESENTATION_STYLE_ASSIGNMENT((#142));
#55=ADVANCED_FACE('240[2]',(#143,#144),#145,.T.);
#56=PRESENTATION_STYLE_ASSIGNMENT((#146));
#57=PRESENTATION_STYLE_ASSIGNMENT((#147));
#58=ADVANCED_FACE('240[2]',(#148,#149),#150,.T.);
#59=PRESENTATION_STYLE_ASSIGNMENT((#151));
#60=PRESENTATION_STYLE_ASSIGNMENT((#152));
#61=ADVANCED_FACE('240[2]',(#153,#154),#155,.T.);
#62=PRESENTATION_STYLE_ASSIGNMENT((#156));
#63=PRESENTATION_STYLE_ASSIGNMENT((#157));
#64=ADVANCED_FACE('240[2]',(#158,#159),#160,.T.);
#65=PRESENTATION_STYLE_ASSIGNMENT((#161));
#66=PRESENTATION_STYLE_ASSIGNMENT((#162));
#67=ADVANCED_FACE('240[2]',(#163,#164),#165,.T.);
#68=PRESENTATION_STYLE_ASSIGNMENT((#166));
#69=PRESENTATION_STYLE_ASSIGNMENT((#167));
#70=ADVANCED_FACE('240[2]',(#168,#169),#170,.T.);
#71=PRESENTATION_STYLE_ASSIGNMENT((#171));
#72=PRESENTATION_STYLE_ASSIGNMENT((#172));
#73=ADVANCED_FACE('240[2]',(#173,#174),#175,.T.);
#74=PRESENTATION_STYLE_ASSIGNMENT((#176));
#75=PRESENTATION_STYLE_ASSIGNMENT((#177));
#76=ADVANCED_FACE('240[2]',(#178,#179),#180,.T.);
#77=PRESENTATION_STYLE_ASSIGNMENT((#181));
#78=EDGE_CURVE('240[2]',#182,#182,#183,.T.);
#79=PRESENTATION_STYLE_ASSIGNMENT((#184));
#80=PRESENTATION_STYLE_ASSIGNMENT((#185));
#81=ADVANCED_FACE('240[2]',(#186),#187,.T.);
#82=PRESENTATION_STYLE_ASSIGNMENT((#188));
#83=EDGE_CURVE('240[2]',#189,#189,#190,.T.);
#84=PRESENTATION_STYLE_ASSIGNMENT((#191));
#85=EDGE_CURVE('240[2]',#192,#192,#193,.T.);
#86=PRESENTATION_STYLE_ASSIGNMENT((#194));
#87=PRESENTATION_STYLE_ASSIGNMENT((#195));
#88=ADVANCED_FACE('240[2]',(#196,#197),#198,.T.);
#89=PRESENTATION_STYLE_ASSIGNMENT((#199));
#90=PRESENTATION_STYLE_ASSIGNMENT((#200));
#91=ADVANCED_FACE('240[2]',(#201,#202),#203,.T.);
#92=PRESENTATION_STYLE_ASSIGNMENT((#204));
#93=PRESENTATION_STYLE_ASSIGNMENT((#205));
#94=ADVANCED_FACE('240[2]',(#206,#207),#208,.T.);
#95=PRESENTATION_STYLE_ASSIGNMENT((#209));
#96=PRESENTATION_STYLE_ASSIGNMENT((#210));
#97=ADVANCED_FACE('240[2]',(#211),#212,.T.);
#98=PRESENTATION_STYLE_ASSIGNMENT((#213));
#99=EDGE_CURVE('240[2]',#214,#214,#215,.T.);
#100=PRESENTATION_STYLE_ASSIGNMENT((#216));
#101=EDGE_CURVE('240[2]',#217,#217,#218,.T.);
#102=PRESENTATION_STYLE_ASSIGNMENT((#219));
#103=EDGE_CURVE('240[2]',#220,#220,#221,.T.);
#104=PRESENTATION_STYLE_ASSIGNMENT((#222));
#105=PRESENTATION_STYLE_ASSIGNMENT((#223));
#106=MANIFOLD_SOLID_BREP('240[2]',#224);
#107=PRESENTATION_STYLE_ASSIGNMENT((#225));
#108=PRESENTATION_STYLE_ASSIGNMENT((#226));
#109=ADVANCED_FACE('240[2]',(#227,#228),#229,.T.);
#110=PRESENTATION_STYLE_ASSIGNMENT((#230));
#111=EDGE_CURVE('240[2]',#231,#231,#232,.T.);
#112=PRESENTATION_STYLE_ASSIGNMENT((#233));
#113=EDGE_CURVE('240[2]',#234,#234,#235,.T.);
#114=PRESENTATION_STYLE_ASSIGNMENT((#236));
#115=EDGE_CURVE('240[2]',#237,#237,#238,.T.);
#116=PRESENTATION_STYLE_ASSIGNMENT((#239));
#117=EDGE_CURVE('240[2]',#240,#240,#241,.T.);
#118=PRESENTATION_STYLE_ASSIGNMENT((#242));
#119=EDGE_CURVE('240[2]',#243,#243,#244,.T.);
#120=PRESENTATION_STYLE_ASSIGNMENT((#245));
#121=EDGE_CURVE('240[2]',#246,#246,#247,.T.);
#122=PRODUCT('240[2]','240[2]','PART-240[2]-DESC',(#248));
#123=PRODUCT_DEFINITION('NONE','NONE',#249,#2);
#124=AXIS2_PLACEMENT_3D('',#250,#251,#252);
#127=LENGTH_MEASURE_WITH_UNIT(LENGTH_MEASURE(1.0),#253);
#130=DIMENSIONAL_EXPONENTS(1.0,0.0,0.0,0.0,0.0,0.0,0.0);
#132=DIMENSIONAL_EXPONENTS(0.0,0.0,0.0,0.0,0.0,0.0,0.0);
#138=CURVE_STYLE('',#254,POSITIVE_LENGTH_MEASURE(1000.0),#255);
#139=VERTEX_POINT('',#256);
#140=CIRCLE('',#257,8.0);
#141=SURFACE_STYLE_USAGE(.BOTH.,#258);
#142=CURVE_STYLE('',#259,POSITIVE_LENGTH_MEASURE(1000.0),#260);
#143=FACE_BOUND('',#261,.T.);
#144=FACE_BOUND('',#262,.T.);
#145=CYLINDRICAL_SURFACE('',#263,8.0);
#146=SURFACE_STYLE_USAGE(.BOTH.,#264);
#147=CURVE_STYLE('',#265,POSITIVE_LENGTH_MEASURE(1000.0),#266);
#148=FACE_BOUND('',#267,.T.);
#149=FACE_BOUND('',#268,.T.);
#150=CYLINDRICAL_SURFACE('',#269,8.14999999999963);
#151=SURFACE_STYLE_USAGE(.BOTH.,#270);
#152=CURVE_STYLE('',#271,POSITIVE_LENGTH_MEASURE(1000.0),#272);
#153=FACE_BOUND('',#273,.T.);
#154=FACE_BOUND('',#274,.T.);
#155=CYLINDRICAL_SURFACE('',#275,11.0000000000004);
#156=SURFACE_STYLE_USAGE(.BOTH.,#276);
#157=CURVE_STYLE('',#277,POSITIVE_LENGTH_MEASURE(1000.0),#278);
#158=FACE_OUTER_BOUND('',#279,.T.);
#159=FACE_BOUND('',#280,.T.);
#160=PLANE('',#281);
#161=SURFACE_STYLE_USAGE(.BOTH.,#282);
#162=CURVE_STYLE('',#283,POSITIVE_LENGTH_MEASURE(1000.0),#284);
#163=FACE_OUTER_BOUND('',#285,.T.);
#164=FACE_BOUND('',#286,.T.);
#165=PLANE('',#287);
#166=SURFACE_STYLE_USAGE(.BOTH.,#288);
#167=CURVE_STYLE('',#289,POSITIVE_LENGTH_MEASURE(1000.0),#290);
#168=FACE_OUTER_BOUND('',#291,.T.);
#169=FACE_BOUND('',#292,.T.);
#170=PLANE('',#293);
#171=SURFACE_STYLE_USAGE(.BOTH.,#294);
#172=CURVE_STYLE('',#295,POSITIVE_LENGTH_MEASURE(1000.0),#296);
#173=FACE_BOUND('',#297,.T.);
#174=FACE_BOUND('',#298,.T.);
#175=CONICAL_SURFACE('',#299,9.50000000000091,1.30899693899587);
#176=SURFACE_STYLE_USAGE(.BOTH.,#300);
#177=CURVE_STYLE('',#301,POSITIVE_LENGTH_MEASURE(1000.0),#302);
#178=FACE_BOUND('',#303,.T.);
#179=FACE_BOUND('',#304,.T.);
#180=CYLINDRICAL_SURFACE('',#305,8.0);
#181=CURVE_STYLE('',#306,POSITIVE_LENGTH_MEASURE(1000.0),#307);
#182=VERTEX_POINT('',#308);
#183=CIRCLE('',#309,8.0);
#184=SURFACE_STYLE_USAGE(.BOTH.,#310);
#185=CURVE_STYLE('',#311,POSITIVE_LENGTH_MEASURE(1000.0),#312);
#186=FACE_OUTER_BOUND('',#313,.T.);
#187=PLANE('',#314);
#188=CURVE_STYLE('',#315,POSITIVE_LENGTH_MEASURE(1000.0),#316);
#189=VERTEX_POINT('',#317);
#190=CIRCLE('',#318,6.20000000000346);
#191=CURVE_STYLE('',#319,POSITIVE_LENGTH_MEASURE(1000.0),#320);
#192=VERTEX_POINT('',#321);
#193=CIRCLE('',#322,10.5000000000004);
#194=SURFACE_STYLE_USAGE(.BOTH.,#323);
#195=CURVE_STYLE('',#324,POSITIVE_LENGTH_MEASURE(1000.0),#325);
#196=FACE_BOUND('',#326,.T.);
#197=FACE_BOUND('',#327,.T.);
#198=CONICAL_SURFACE('',#328,8.07499999999982,0.124354994546354);
#199=SURFACE_STYLE_USAGE(.BOTH.,#329);
#200=CURVE_STYLE('',#330,POSITIVE_LENGTH_MEASURE(1000.0),#331);
#201=FACE_BOUND('',#332,.T.);
#202=FACE_BOUND('',#333,.T.);
#203=CONICAL_SURFACE('',#334,10.7500000000004,0.349065850398529);
#204=SURFACE_STYLE_USAGE(.BOTH.,#335);
#205=CURVE_STYLE('',#336,POSITIVE_LENGTH_MEASURE(1000.0),#337);
#206=FACE_BOUND('',#338,.T.);
#207=FACE_BOUND('',#339,.T.);
#208=CYLINDRICAL_SURFACE('',#340,8.00000000000066);
#209=SURFACE_STYLE_USAGE(.BOTH.,#341);
#210=CURVE_STYLE('',#342,POSITIVE_LENGTH_MEASURE(1000.0),#343);
#211=FACE_OUTER_BOUND('',#344,.T.);
#212=PLANE('',#345);
#213=CURVE_STYLE('',#346,POSITIVE_LENGTH_MEASURE(1000.0),#347);
#214=VERTEX_POINT('',#348);
#215=CIRCLE('',#349,11.0000000000004);
#216=CURVE_STYLE('',#350,POSITIVE_LENGTH_MEASURE(1000.0),#351);
#217=VERTEX_POINT('',#352);
#218=CIRCLE('',#353,8.14999999999963);
#219=CURVE_STYLE('',#354,POSITIVE_LENGTH_MEASURE(1000.0),#355);
#220=VERTEX_POINT('',#356);
#221=CIRCLE('',#357,8.0);
#222=SURFACE_STYLE_USAGE(.BOTH.,#358);
#223=CURVE_STYLE('',#359,POSITIVE_LENGTH_MEASURE(1000.0),#360);
#224=CLOSED_SHELL('',(#64,#61,#73,#94,#67,#109,#70,#58,#88,#76,#81,#91,#97,#55));
#225=SURFACE_STYLE_USAGE(.BOTH.,#361);
#226=CURVE_STYLE('',#362,POSITIVE_LENGTH_MEASURE(1000.0),#363);
#227=FACE_BOUND('',#364,.T.);
#228=FACE_BOUND('',#365,.T.);
#229=CYLINDRICAL_SURFACE('',#366,6.20000000000346);
#230=CURVE_STYLE('',#367,POSITIVE_LENGTH_MEASURE(1000.0),#368);
#231=VERTEX_POINT('',#369);
#232=CIRCLE('',#370,7.99999999999993);
#233=CURVE_STYLE('',#371,POSITIVE_LENGTH_MEASURE(1000.0),#372);
#234=VERTEX_POINT('',#373);
#235=CIRCLE('',#374,8.14999999999963);
#236=CURVE_STYLE('',#375,POSITIVE_LENGTH_MEASURE(1000.0),#376);
#237=VERTEX_POINT('',#377);
#238=CIRCLE('',#378,8.0);
#239=CURVE_STYLE('',#379,POSITIVE_LENGTH_MEASURE(1000.0),#380);
#240=VERTEX_POINT('',#381);
#241=CIRCLE('',#382,8.00000000000139);
#242=CURVE_STYLE('',#383,POSITIVE_LENGTH_MEASURE(1000.0),#384);
#243=VERTEX_POINT('',#385);
#244=CIRCLE('',#386,11.0000000000004);
#245=CURVE_STYLE('',#387,POSITIVE_LENGTH_MEASURE(1000.0),#388);
#246=VERTEX_POINT('',#389);
#247=CIRCLE('',#390,6.20000000000346);
#248=PRODUCT_CONTEXT('',#38,'mechanical');
#249=PRODUCT_DEFINITION_FORMATION_WITH_SPECIFIED_SOURCE(' ','NONE',#122,.NOT_KNOWN.);
#250=CARTESIAN_POINT('',(0.0,0.0,0.0));
#251=DIRECTION('',(0.0,0.0,1.0));
#252=DIRECTION('',(1.0,0.0,0.0));
#253= (NAMED_UNIT(#130)LENGTH_UNIT()SI_UNIT(.MILLI.,.METRE.));
#254=DRAUGHTING_PRE_DEFINED_CURVE_FONT('continuous');
#255=COLOUR_RGB('',0.0,1.0,1.0);
#256=CARTESIAN_POINT('',(-9.67470971326462E-016,8.0,15.8000000000009));
#257=AXIS2_PLACEMENT_3D('',#392,#393,#394);
#258=SURFACE_SIDE_STYLE('',(#395));
#259=DRAUGHTING_PRE_DEFINED_CURVE_FONT('continuous');
#260=COLOUR_RGB('',0.0,1.0,1.0);
#261=EDGE_LOOP('',(#396));
#262=EDGE_LOOP('',(#397));
#263=AXIS2_PLACEMENT_3D('',#398,#399,#400);
#264=SURFACE_SIDE_STYLE('',(#401));
#265=DRAUGHTING_PRE_DEFINED_CURVE_FONT('continuous');
#266=COLOUR_RGB('',0.0,1.0,1.0);
#267=EDGE_LOOP('',(#402));
#268=EDGE_LOOP('',(#403));
#269=AXIS2_PLACEMENT_3D('',#404,#405,#406);
#270=SURFACE_SIDE_STYLE('',(#407));
#271=DRAUGHTING_PRE_DEFINED_CURVE_FONT('continuous');
#272=COLOUR_RGB('',0.0,1.0,1.0);
#273=EDGE_LOOP('',(#408));
#274=EDGE_LOOP('',(#409));
#275=AXIS2_PLACEMENT_3D('',#410,#411,#412);
#276=SURFACE_SIDE_STYLE('',(#413));
#277=DRAUGHTING_PRE_DEFINED_CURVE_FONT('continuous');
#278=COLOUR_RGB('',0.0,1.0,1.0);
#279=EDGE_LOOP('',(#414));
#280=EDGE_LOOP('',(#415));
#281=AXIS2_PLACEMENT_3D('',#416,#417,#418);
#282=SURFACE_SIDE_STYLE('',(#419));
#283=DRAUGHTING_PRE_DEFINED_CURVE_FONT('continuous');
#284=COLOUR_RGB('',0.0,1.0,1.0);
#285=EDGE_LOOP('',(#420));
#286=EDGE_LOOP('',(#421));
#287=AXIS2_PLACEMENT_3D('',#422,#423,#424);
#288=SURFACE_SIDE_STYLE('',(#425));
#289=DRAUGHTING_PRE_DEFINED_CURVE_FONT('continuous');
#290=COLOUR_RGB('',0.0,1.0,1.0);
#291=EDGE_LOOP('',(#426));
#292=EDGE_LOOP('',(#427));
#293=AXIS2_PLACEMENT_3D('',#428,#429,#430);
#294=SURFACE_SIDE_STYLE('',(#431));
#295=DRAUGHTING_PRE_DEFINED_CURVE_FONT('continuous');
#296=COLOUR_RGB('',0.0,1.0,1.0);
#297=EDGE_LOOP('',(#432));
#298=EDGE_LOOP('',(#433));
#299=AXIS2_PLACEMENT_3D('',#434,#435,#436);
#300=SURFACE_SIDE_STYLE('',(#437));
#301=DRAUGHTING_PRE_DEFINED_CURVE_FONT('continuous');
#302=COLOUR_RGB('',0.0,1.0,1.0);
#303=EDGE_LOOP('',(#438));
#304=EDGE_LOOP('',(#439));
#305=AXIS2_PLACEMENT_3D('',#440,#441,#442);
#306=DRAUGHTING_PRE_DEFINED_CURVE_FONT('continuous');
#307=COLOUR_RGB('',0.0,1.0,1.0);
#308=CARTESIAN_POINT('',(-2.44929359829465E-015,7.99999999999999,36.5));
#309=AXIS2_PLACEMENT_3D('',#443,#444,#445);
#310=SURFACE_SIDE_STYLE('',(#446));
#311=DRAUGHTING_PRE_DEFINED_CURVE_FONT('continuous');
#312=COLOUR_RGB('',0.0,1.0,1.0);
#313=EDGE_LOOP('',(#447));
#314=AXIS2_PLACEMENT_3D('',#448,#449,#450);
#315=DRAUGHTING_PRE_DEFINED_CURVE_FONT('continuous');
#316=COLOUR_RGB('',0.0,1.0,1.0);
#317=CARTESIAN_POINT('',(-1.22464679914501E-015,6.20000000000345,19.9999999999617));
#318=AXIS2_PLACEMENT_3D('',#451,#452,#453);
#319=DRAUGHTING_PRE_DEFINED_CURVE_FONT('continuous');
#320=COLOUR_RGB('',0.0,1.0,1.0);
#321=CARTESIAN_POINT('',(-2.23498040844392E-015,10.5000000000004,36.5));
#322=AXIS2_PLACEMENT_3D('',#454,#455,#456);
#323=SURFACE_SIDE_STYLE('',(#457));
#324=DRAUGHTING_PRE_DEFINED_CURVE_FONT('continuous');
#325=COLOUR_RGB('',0.0,1.0,1.0);
#326=EDGE_LOOP('',(#458));
#327=EDGE_LOOP('',(#459));
#328=AXIS2_PLACEMENT_3D('',#460,#461,#462);
#329=SURFACE_SIDE_STYLE('',(#463));
#330=DRAUGHTING_PRE_DEFINED_CURVE_FONT('continuous');
#331=COLOUR_RGB('',0.0,1.0,1.0);
#332=EDGE_LOOP('',(#464));
#333=EDGE_LOOP('',(#465));
#334=AXIS2_PLACEMENT_3D('',#466,#467,#468);
#335=SURFACE_SIDE_STYLE('',(#469));
#336=DRAUGHTING_PRE_DEFINED_CURVE_FONT('continuous');
#337=COLOUR_RGB('',0.0,1.0,1.0);
#338=EDGE_LOOP('',(#470));
#339=EDGE_LOOP('',(#471));
#340=AXIS2_PLACEMENT_3D('',#472,#473,#474);
#341=SURFACE_SIDE_STYLE('',(#475));
#342=DRAUGHTING_PRE_DEFINED_CURVE_FONT('continuous');
#343=COLOUR_RGB('',0.0,1.0,1.0);
#344=EDGE_LOOP('',(#476));
#345=AXIS2_PLACEMENT_3D('',#477,#478,#479);
#346=DRAUGHTING_PRE_DEFINED_CURVE_FONT('continuous');
#347=COLOUR_RGB('',0.0,1.0,1.0);
#348=CARTESIAN_POINT('',(-2.15086317275722E-015,11.0000000000004,35.1262612902713));
#349=AXIS2_PLACEMENT_3D('',#480,#481,#482);
#350=DRAUGHTING_PRE_DEFINED_CURVE_FONT('continuous');
#351=COLOUR_RGB('',0.0,1.0,1.0);
#352=CARTESIAN_POINT('',(-1.04094977927537E-015,8.14999999999963,17.0000000000019));
#353=AXIS2_PLACEMENT_3D('',#483,#484,#485);
#354=DRAUGHTING_PRE_DEFINED_CURVE_FONT('continuous');
#355=COLOUR_RGB('',0.0,1.0,1.0);
#356=CARTESIAN_POINT('',(-4.74550634669638E-015,7.99999999999999,77.5000000000064));
#357=AXIS2_PLACEMENT_3D('',#486,#487,#488);
#358=SURFACE_SIDE_STYLE('',(#489));
#359=DRAUGHTING_PRE_DEFINED_CURVE_FONT('continuous');
#360=COLOUR_RGB('',0.0,1.0,1.0);
#361=SURFACE_SIDE_STYLE('',(#490));
#362=DRAUGHTING_PRE_DEFINED_CURVE_FONT('continuous');
#363=COLOUR_RGB('',0.0,1.0,1.0);
#364=EDGE_LOOP('',(#491));
#365=EDGE_LOOP('',(#492));
#366=AXIS2_PLACEMENT_3D('',#493,#494,#495);
#367=DRAUGHTING_PRE_DEFINED_CURVE_FONT('continuous');
#368=COLOUR_RGB('',0.0,1.0,1.0);
#369=CARTESIAN_POINT('',(-1.2246467991481E-015,7.99999999999993,20.0000000000122));
#370=AXIS2_PLACEMENT_3D('',#496,#497,#498);
#371=DRAUGHTING_PRE_DEFINED_CURVE_FONT('continuous');
#372=COLOUR_RGB('',0.0,1.0,1.0);
#373=CARTESIAN_POINT('',(-1.16341445919093E-015,8.14999999999963,19.0000000000154));
#374=AXIS2_PLACEMENT_3D('',#499,#500,#501);
#375=DRAUGHTING_PRE_DEFINED_CURVE_FONT('continuous');
#376=COLOUR_RGB('',0.0,1.0,1.0);
#377=CARTESIAN_POINT('',(-1.35191551070836E-028,8.0,2.20721491197443E-012));
#378=AXIS2_PLACEMENT_3D('',#502,#503,#504);
#379=DRAUGHTING_PRE_DEFINED_CURVE_FONT('continuous');
#380=COLOUR_RGB('',0.0,1.0,1.0);
#381=CARTESIAN_POINT('',(-1.78774873059427E-015,8.00000000000138,29.1961524227062));
#382=AXIS2_PLACEMENT_3D('',#505,#506,#507);
#383=DRAUGHTING_PRE_DEFINED_CURVE_FONT('continuous');
#384=COLOUR_RGB('',0.0,1.0,1.0);
#385=CARTESIAN_POINT('',(-1.83697019872096E-015,11.0000000000004,29.9999999999989));
#386=AXIS2_PLACEMENT_3D('',#508,#509,#510);
#387=DRAUGHTING_PRE_DEFINED_CURVE_FONT('continuous');
#388=COLOUR_RGB('',0.0,1.0,1.0);
#389=CARTESIAN_POINT('',(-1.16341445918726E-015,6.20000000000345,18.9999999999554));
#390=AXIS2_PLACEMENT_3D('',#511,#512,#513);
#392=CARTESIAN_POINT('',(-9.67470971326462E-016,-1.93494194265292E-015,15.8000000000009));
#393=DIRECTION('',(6.12323399573677E-017,1.22464679914735E-016,-1.0));
#394=DIRECTION('',(-1.23259516440783E-032,1.0,1.22464679914735E-016));
#395=SURFACE_STYLE_FILL_AREA(#514);
#396=ORIENTED_EDGE('',*,*,#78,.F.);
#397=ORIENTED_EDGE('',*,*,#103,.T.);
#398=CARTESIAN_POINT('',(-3.59739997249551E-015,-7.19479994499103E-015,58.7500000000027));
#399=DIRECTION('',(-6.12323399573677E-017,-1.22464679914735E-016,1.0));
#400=DIRECTION('',(-1.23259516440783E-032,1.0,1.22464679914735E-016));
#401=SURFACE_STYLE_FILL_AREA(#515);
#402=ORIENTED_EDGE('',*,*,#101,.F.);
#403=ORIENTED_EDGE('',*,*,#113,.T.);
#404=CARTESIAN_POINT('',(-1.10218211923315E-015,-2.20436423846629E-015,18.0000000000086));
#405=DIRECTION('',(-6.12323399573676E-017,-1.22464679914735E-016,1.0));
#406=DIRECTION('',(-1.23259516440783E-032,1.0,1.22464679914735E-016));
#407=SURFACE_STYLE_FILL_AREA(#516);
#408=ORIENTED_EDGE('',*,*,#119,.F.);
#409=ORIENTED_EDGE('',*,*,#99,.T.);
#410=CARTESIAN_POINT('',(-1.99391668573909E-015,-3.98783337147818E-015,32.5631306451351));
#411=DIRECTION('',(-6.12323399573677E-017,-1.22464679914735E-016,1.0));
#412=DIRECTION('',(-1.23259516440783E-032,1.0,1.22464679914735E-016));
#413=SURFACE_STYLE_FILL_AREA(#517);
#414=ORIENTED_EDGE('',*,*,#85,.F.);
#415=ORIENTED_EDGE('',*,*,#78,.T.);
#416=CARTESIAN_POINT('',(-7.87347880381527,1.41715614025826,36.5));
#417=DIRECTION('',(0.0,0.0,1.0));
#418=DIRECTION('',(1.0,-0.0,0.0));
#419=SURFACE_STYLE_FILL_AREA(#518);
#420=ORIENTED_EDGE('',*,*,#111,.T.);
#421=ORIENTED_EDGE('',*,*,#83,.F.);
#422=CARTESIAN_POINT('',(-1.22464679914656E-015,7.10000000000169,19.999999999987));
#423=DIRECTION('',(6.12323399573677E-017,2.8038928309757E-011,-1.0));
#424=DIRECTION('',(-1.0,0.0,-6.12323399573677E-017));
#425=SURFACE_STYLE_FILL_AREA(#519);
#426=ORIENTED_EDGE('',*,*,#113,.F.);
#427=ORIENTED_EDGE('',*,*,#121,.T.);
#428=CARTESIAN_POINT('',(-1.16341445918909E-015,7.17500000000154,18.9999999999854));
#429=DIRECTION('',(-5.78175524782757E-038,-3.07283629296885E-011,1.0));
#430=DIRECTION('',(1.0,-1.88156956524406E-027,0.0));
#431=SURFACE_STYLE_FILL_AREA(#520);
#432=ORIENTED_EDGE('',*,*,#117,.F.);
#433=ORIENTED_EDGE('',*,*,#119,.T.);
#434=CARTESIAN_POINT('',(-1.81235946465762E-015,-3.62471892931523E-015,29.5980762113526));
#435=DIRECTION('',(-6.12323399573676E-017,-1.22464679914735E-016,1.0));
#436=DIRECTION('',(-1.23259516440783E-032,1.0,1.22464679914735E-016));
#437=SURFACE_STYLE_FILL_AREA(#521);
#438=ORIENTED_EDGE('',*,*,#115,.F.);
#439=ORIENTED_EDGE('',*,*,#52,.T.);
#440=CARTESIAN_POINT('',(-4.83735485663298E-016,-9.67470971326597E-016,7.90000000000153));
#441=DIRECTION('',(-6.12323399573677E-017,-1.22464679914735E-016,1.0));
#442=DIRECTION('',(-1.23259516440783E-032,1.0,1.22464679914735E-016));
#443=CARTESIAN_POINT('',(-2.44929359829465E-015,-4.89858719658929E-015,36.5));
#444=DIRECTION('',(6.12323399573677E-017,1.22464679914735E-016,-1.0));
#445=DIRECTION('',(-1.23259516440783E-032,1.0,1.22464679914735E-016));
#446=SURFACE_STYLE_FILL_AREA(#522);
#447=ORIENTED_EDGE('',*,*,#115,.T.);
#448=CARTESIAN_POINT('',(-1.35251017750135E-028,4.0,2.20850141009417E-012));
#449=DIRECTION('',(6.12323399573677E-017,-3.21624529935327E-016,-1.0));
#450=DIRECTION('',(0.0,-1.0,3.21624529935327E-016));
#451=CARTESIAN_POINT('',(-1.22464679914501E-015,-2.44929359829002E-015,19.9999999999617));
#452=DIRECTION('',(6.12323399573677E-017,1.22464679914735E-016,-1.0));
#453=DIRECTION('',(-1.23259516440783E-032,1.0,1.22464679914735E-016));
#454=CARTESIAN_POINT('',(-2.23498040844392E-015,-4.46996081688784E-015,36.5));
#455=DIRECTION('',(6.12323399573677E-017,1.22464679914735E-016,-1.0));
#456=DIRECTION('',(-1.23259516440783E-032,1.0,1.22464679914735E-016));
#457=SURFACE_STYLE_FILL_AREA(#523);
#458=ORIENTED_EDGE('',*,*,#52,.F.);
#459=ORIENTED_EDGE('',*,*,#101,.T.);
#460=CARTESIAN_POINT('',(-1.00421037530092E-015,-2.00842075060183E-015,16.4000000000014));
#461=DIRECTION('',(-6.12323399573677E-017,-1.22464679914735E-016,1.0));
#462=DIRECTION('',(-1.23259516440783E-032,1.0,1.22464679914735E-016));
#463=SURFACE_STYLE_FILL_AREA(#524);
#464=ORIENTED_EDGE('',*,*,#99,.F.);
#465=ORIENTED_EDGE('',*,*,#85,.T.);
#466=CARTESIAN_POINT('',(-2.19292179060057E-015,-4.38584358120113E-015,35.8131306451356));
#467=DIRECTION('',(6.12323399573677E-017,1.22464679914735E-016,-1.0));
#468=DIRECTION('',(-1.23259516440783E-032,1.0,1.22464679914735E-016));
#469=SURFACE_STYLE_FILL_AREA(#525);
#470=ORIENTED_EDGE('',*,*,#111,.F.);
#471=ORIENTED_EDGE('',*,*,#117,.T.);
#472=CARTESIAN_POINT('',(-1.50619776487119E-015,-3.01239552974237E-015,24.5980762113592));
#473=DIRECTION('',(-6.12323399573677E-017,-1.22464679914735E-016,1.0));
#474=DIRECTION('',(-1.23259516440783E-032,1.0,1.22464679914735E-016));
#475=SURFACE_STYLE_FILL_AREA(#526);
#476=ORIENTED_EDGE('',*,*,#103,.F.);
#477=CARTESIAN_POINT('',(-4.74550634669638E-015,3.99999999999999,77.5000000000064));
#478=DIRECTION('',(-9.18338008663382E-049,-1.22464679914735E-016,1.0));
#479=DIRECTION('',(1.0,-7.49879891330927E-033,0.0));
#480=CARTESIAN_POINT('',(-2.15086317275722E-015,-4.30172634551443E-015,35.1262612902713));
#481=DIRECTION('',(6.12323399573677E-017,1.22464679914735E-016,-1.0));
#482=DIRECTION('',(-1.23259516440783E-032,1.0,1.22464679914735E-016));
#483=CARTESIAN_POINT('',(-1.04094977927537E-015,-2.08189955855074E-015,17.0000000000019));
#484=DIRECTION('',(6.12323399573676E-017,1.22464679914735E-016,-1.0));
#485=DIRECTION('',(-1.23259516440783E-032,1.0,1.22464679914735E-016));
#486=CARTESIAN_POINT('',(-4.74550634669638E-015,-9.49101269339276E-015,77.5000000000064));
#487=DIRECTION('',(6.12323399573677E-017,1.22464679914735E-016,-1.0));
#488=DIRECTION('',(-1.23259516440783E-032,1.0,1.22464679914735E-016));
#489=SURFACE_STYLE_FILL_AREA(#527);
#490=SURFACE_STYLE_FILL_AREA(#528);
#491=ORIENTED_EDGE('',*,*,#121,.F.);
#492=ORIENTED_EDGE('',*,*,#83,.T.);
#493=CARTESIAN_POINT('',(-1.19403062916613E-015,-2.38806125833227E-015,19.4999999999586));
#494=DIRECTION('',(-6.12323399573677E-017,-1.22464679914735E-016,1.0));
#495=DIRECTION('',(-1.23259516440783E-032,1.0,1.22464679914735E-016));
#496=CARTESIAN_POINT('',(-1.2246467991481E-015,-2.4492935982962E-015,20.0000000000122));
#497=DIRECTION('',(6.12323399573677E-017,1.22464679914735E-016,-1.0));
#498=DIRECTION('',(-1.23259516440783E-032,1.0,1.22464679914735E-016));
#499=CARTESIAN_POINT('',(-1.16341445919093E-015,-2.32682891838185E-015,19.0000000000154));
#500=DIRECTION('',(6.12323399573676E-017,1.22464679914735E-016,-1.0));
#501=DIRECTION('',(-1.23259516440783E-032,1.0,1.22464679914735E-016));
#502=CARTESIAN_POINT('',(-1.35310484429435E-028,-2.70620968858869E-028,2.20978790821391E-012));
#503=DIRECTION('',(6.12323399573677E-017,1.22464679914735E-016,-1.0));
#504=DIRECTION('',(-1.23259516440783E-032,1.0,1.22464679914735E-016));
#505=CARTESIAN_POINT('',(-1.78774873059427E-015,-3.57549746118854E-015,29.1961524227062));
#506=DIRECTION('',(6.12323399573676E-017,1.22464679914735E-016,-1.0));
#507=DIRECTION('',(-1.23259516440783E-032,1.0,1.22464679914735E-016));
#508=CARTESIAN_POINT('',(-1.83697019872096E-015,-3.67394039744193E-015,29.9999999999989));
#509=DIRECTION('',(6.12323399573677E-017,1.22464679914735E-016,-1.0));
#510=DIRECTION('',(-1.23259516440783E-032,1.0,1.22464679914735E-016));
#511=CARTESIAN_POINT('',(-1.16341445918726E-015,-2.32682891837451E-015,18.9999999999554));
#512=DIRECTION('',(6.12323399573677E-017,1.22464679914735E-016,-1.0));
#513=DIRECTION('',(-1.23259516440783E-032,1.0,1.22464679914735E-016));
#514=FILL_AREA_STYLE('',(#529));
#515=FILL_AREA_STYLE('',(#530));
#516=FILL_AREA_STYLE('',(#531));
#517=FILL_AREA_STYLE('',(#532));
#518=FILL_AREA_STYLE('',(#533));
#519=FILL_AREA_STYLE('',(#534));
#520=FILL_AREA_STYLE('',(#535));
#521=FILL_AREA_STYLE('',(#536));
#522=FILL_AREA_STYLE('',(#537));
#523=FILL_AREA_STYLE('',(#538));
#524=FILL_AREA_STYLE('',(#539));
#525=FILL_AREA_STYLE('',(#540));
#526=FILL_AREA_STYLE('',(#541));
#527=FILL_AREA_STYLE('',(#542));
#528=FILL_AREA_STYLE('',(#543));
#529=FILL_AREA_STYLE_COLOUR('',#544);
#530=FILL_AREA_STYLE_COLOUR('',#545);
#531=FILL_AREA_STYLE_COLOUR('',#546);
#532=FILL_AREA_STYLE_COLOUR('',#547);
#533=FILL_AREA_STYLE_COLOUR('',#548);
#534=FILL_AREA_STYLE_COLOUR('',#549);
#535=FILL_AREA_STYLE_COLOUR('',#550);
#536=FILL_AREA_STYLE_COLOUR('',#551);
#537=FILL_AREA_STYLE_COLOUR('',#552);
#538=FILL_AREA_STYLE_COLOUR('',#553);
#539=FILL_AREA_STYLE_COLOUR('',#554);
#540=FILL_AREA_STYLE_COLOUR('',#555);
#541=FILL_AREA_STYLE_COLOUR('',#556);
#542=FILL_AREA_STYLE_COLOUR('',#557);
#543=FILL_AREA_STYLE_COLOUR('',#558);
#544=COLOUR_RGB('',0.0,1.0,1.0);
#545=COLOUR_RGB('',0.0,1.0,1.0);
#546=COLOUR_RGB('',0.0,1.0,1.0);
#547=COLOUR_RGB('',0.0,1.0,1.0);
#548=COLOUR_RGB('',0.0,1.0,1.0);
#549=COLOUR_RGB('',0.0,1.0,1.0);
#550=COLOUR_RGB('',0.0,1.0,1.0);
#551=COLOUR_RGB('',0.0,1.0,1.0);
#552=COLOUR_RGB('',0.0,1.0,1.0);
#553=COLOUR_RGB('',0.0,1.0,1.0);
#554=COLOUR_RGB('',0.0,1.0,1.0);
#555=COLOUR_RGB('',0.0,1.0,1.0);
#556=COLOUR_RGB('',0.0,1.0,1.0);
#557=COLOUR_RGB('',0.0,1.0,1.0);
#558=COLOUR_RGB('',0.0,1.0,1.0);
ENDSEC;
END-ISO-10303-21;
