ISO-10303-21;
HEADER;
FILE_DESCRIPTION((''),'1');
FILE_NAME('T:/02_3D_Field-HP\X2\FF71FF6FFF8CFF9F5916\X0\2013/02_Step_Field-HP\X2\FF71FF6FFF8CFF9F5916\X0\2013/MGT6-d-200_M2-6.stp','2017-02-08T06:00:20',(''),(''),'Spatial Interop R21 SP3','Kubotek KeyCreator 2011 V10.0.2 (22737)',' ');
FILE_SCHEMA(('automotive_design'));
ENDSEC;
DATA;
#1=MECHANICAL_DESIGN_GEOMETRIC_PRESENTATION_REPRESENTATION(' ',(#10,#11,#12,#13,#14,#15,#16,#17,#18,#19,#20,#21,#22,#23,#24,#25,#26,#27,#28,#29,#30,#31,#32,#33,#34,#35,#36,#37),#6);
#2=PRODUCT_DEFINITION_CONTEXT('',#38,'design');
#3=APPLICATION_PROTOCOL_DEFINITION('INTERNATIONAL STANDARD','automotive_design',1994,#38);
#4=PRODUCT_CATEGORY_RELATIONSHIP('NONE','NONE',#39,#40);
#5=SHAPE_DEFINITION_REPRESENTATION(#41,#42);
#6= (GEOMETRIC_REPRESENTATION_CONTEXT(3)GLOBAL_UNCERTAINTY_ASSIGNED_CONTEXT((#45))GLOBAL_UNIT_ASSIGNED_CONTEXT((#47,#48,#49))REPRESENTATION_CONTEXT('NONE','WORKSPACE'));
#10=STYLED_ITEM('',(#51,#52),#53);
#11=STYLED_ITEM('',(#54),#55);
#12=STYLED_ITEM('',(#56),#57);
#13=STYLED_ITEM('',(#58,#59),#60);
#14=STYLED_ITEM('',(#61,#62),#63);
#15=STYLED_ITEM('',(#64),#65);
#16=STYLED_ITEM('',(#66),#67);
#17=STYLED_ITEM('',(#68,#69),#70);
#18=STYLED_ITEM('',(#71),#72);
#19=STYLED_ITEM('',(#73,#74),#75);
#20=STYLED_ITEM('',(#76,#77),#78);
#21=STYLED_ITEM('',(#79),#80);
#22=STYLED_ITEM('',(#81),#82);
#23=STYLED_ITEM('',(#83,#84),#85);
#24=STYLED_ITEM('',(#86,#87),#88);
#25=STYLED_ITEM('',(#89,#90),#91);
#26=STYLED_ITEM('',(#92,#93),#94);
#27=STYLED_ITEM('',(#95,#96),#97);
#28=STYLED_ITEM('',(#98,#99),#100);
#29=STYLED_ITEM('',(#101,#102),#103);
#30=STYLED_ITEM('',(#104),#105);
#31=STYLED_ITEM('',(#106),#107);
#32=STYLED_ITEM('',(#108,#109),#110);
#33=STYLED_ITEM('',(#111),#112);
#34=STYLED_ITEM('',(#113,#114),#115);
#35=STYLED_ITEM('',(#116),#117);
#36=STYLED_ITEM('',(#118),#119);
#37=STYLED_ITEM('',(#120),#121);
#38=APPLICATION_CONTEXT(' ');
#39=PRODUCT_CATEGORY('part','NONE');
#40=PRODUCT_RELATED_PRODUCT_CATEGORY('detail',' ',(#122));
#41=PRODUCT_DEFINITION_SHAPE('NONE','NONE',#123);
#42=ADVANCED_BREP_SHAPE_REPRESENTATION('240[2]',(#70,#124),#6);
#45=UNCERTAINTY_MEASURE_WITH_UNIT(LENGTH_MEASURE(1.0E-006),#47,'','');
#47= (CONVERSION_BASED_UNIT('MILLIMETRE',#127)LENGTH_UNIT()NAMED_UNIT(#130));
#48= (NAMED_UNIT(#132)PLANE_ANGLE_UNIT()SI_UNIT($,.RADIAN.));
#49= (NAMED_UNIT(#132)SOLID_ANGLE_UNIT()SI_UNIT($,.STERADIAN.));
#51=PRESENTATION_STYLE_ASSIGNMENT((#138));
#52=PRESENTATION_STYLE_ASSIGNMENT((#139));
#53=ADVANCED_FACE('240[2]',(#140,#141),#142,.T.);
#54=PRESENTATION_STYLE_ASSIGNMENT((#143));
#55=EDGE_CURVE('240[2]',#144,#144,#145,.T.);
#56=PRESENTATION_STYLE_ASSIGNMENT((#146));
#57=EDGE_CURVE('240[2]',#147,#147,#148,.T.);
#58=PRESENTATION_STYLE_ASSIGNMENT((#149));
#59=PRESENTATION_STYLE_ASSIGNMENT((#150));
#60=ADVANCED_FACE('240[2]',(#151,#152),#153,.T.);
#61=PRESENTATION_STYLE_ASSIGNMENT((#154));
#62=PRESENTATION_STYLE_ASSIGNMENT((#155));
#63=ADVANCED_FACE('240[2]',(#156),#157,.T.);
#64=PRESENTATION_STYLE_ASSIGNMENT((#158));
#65=EDGE_CURVE('240[2]',#159,#159,#160,.T.);
#66=PRESENTATION_STYLE_ASSIGNMENT((#161));
#67=EDGE_CURVE('240[2]',#162,#162,#163,.T.);
#68=PRESENTATION_STYLE_ASSIGNMENT((#164));
#69=PRESENTATION_STYLE_ASSIGNMENT((#165));
#70=MANIFOLD_SOLID_BREP('240[2]',#166);
#71=PRESENTATION_STYLE_ASSIGNMENT((#167));
#72=EDGE_CURVE('240[2]',#168,#168,#169,.T.);
#73=PRESENTATION_STYLE_ASSIGNMENT((#170));
#74=PRESENTATION_STYLE_ASSIGNMENT((#171));
#75=ADVANCED_FACE('240[2]',(#172),#173,.T.);
#76=PRESENTATION_STYLE_ASSIGNMENT((#174));
#77=PRESENTATION_STYLE_ASSIGNMENT((#175));
#78=ADVANCED_FACE('240[2]',(#176,#177),#178,.T.);
#79=PRESENTATION_STYLE_ASSIGNMENT((#179));
#80=EDGE_CURVE('240[2]',#180,#180,#181,.T.);
#81=PRESENTATION_STYLE_ASSIGNMENT((#182));
#82=EDGE_CURVE('240[2]',#183,#183,#184,.T.);
#83=PRESENTATION_STYLE_ASSIGNMENT((#185));
#84=PRESENTATION_STYLE_ASSIGNMENT((#186));
#85=ADVANCED_FACE('240[2]',(#187,#188),#189,.T.);
#86=PRESENTATION_STYLE_ASSIGNMENT((#190));
#87=PRESENTATION_STYLE_ASSIGNMENT((#191));
#88=ADVANCED_FACE('240[2]',(#192,#193),#194,.T.);
#89=PRESENTATION_STYLE_ASSIGNMENT((#195));
#90=PRESENTATION_STYLE_ASSIGNMENT((#196));
#91=ADVANCED_FACE('240[2]',(#197,#198),#199,.T.);
#92=PRESENTATION_STYLE_ASSIGNMENT((#200));
#93=PRESENTATION_STYLE_ASSIGNMENT((#201));
#94=ADVANCED_FACE('240[2]',(#202,#203),#204,.T.);
#95=PRESENTATION_STYLE_ASSIGNMENT((#205));
#96=PRESENTATION_STYLE_ASSIGNMENT((#206));
#97=ADVANCED_FACE('240[2]',(#207,#208),#209,.T.);
#98=PRESENTATION_STYLE_ASSIGNMENT((#210));
#99=PRESENTATION_STYLE_ASSIGNMENT((#211));
#100=ADVANCED_FACE('240[2]',(#212,#213),#214,.T.);
#101=PRESENTATION_STYLE_ASSIGNMENT((#215));
#102=PRESENTATION_STYLE_ASSIGNMENT((#216));
#103=ADVANCED_FACE('240[2]',(#217,#218),#219,.T.);
#104=PRESENTATION_STYLE_ASSIGNMENT((#220));
#105=EDGE_CURVE('240[2]',#221,#221,#222,.T.);
#106=PRESENTATION_STYLE_ASSIGNMENT((#223));
#107=EDGE_CURVE('240[2]',#224,#224,#225,.T.);
#108=PRESENTATION_STYLE_ASSIGNMENT((#226));
#109=PRESENTATION_STYLE_ASSIGNMENT((#227));
#110=ADVANCED_FACE('240[2]',(#228,#229),#230,.T.);
#111=PRESENTATION_STYLE_ASSIGNMENT((#231));
#112=EDGE_CURVE('240[2]',#232,#232,#233,.T.);
#113=PRESENTATION_STYLE_ASSIGNMENT((#234));
#114=PRESENTATION_STYLE_ASSIGNMENT((#235));
#115=ADVANCED_FACE('240[2]',(#236,#237),#238,.T.);
#116=PRESENTATION_STYLE_ASSIGNMENT((#239));
#117=EDGE_CURVE('240[2]',#240,#240,#241,.T.);
#118=PRESENTATION_STYLE_ASSIGNMENT((#242));
#119=EDGE_CURVE('240[2]',#243,#243,#244,.T.);
#120=PRESENTATION_STYLE_ASSIGNMENT((#245));
#121=EDGE_CURVE('240[2]',#246,#246,#247,.T.);
#122=PRODUCT('240[2]','240[2]','PART-240[2]-DESC',(#248));
#123=PRODUCT_DEFINITION('NONE','NONE',#249,#2);
#124=AXIS2_PLACEMENT_3D('',#250,#251,#252);
#127=LENGTH_MEASURE_WITH_UNIT(LENGTH_MEASURE(1.0),#253);
#130=DIMENSIONAL_EXPONENTS(1.0,0.0,0.0,0.0,0.0,0.0,0.0);
#132=DIMENSIONAL_EXPONENTS(0.0,0.0,0.0,0.0,0.0,0.0,0.0);
#138=SURFACE_STYLE_USAGE(.BOTH.,#254);
#139=CURVE_STYLE('',#255,POSITIVE_LENGTH_MEASURE(1000.0),#256);
#140=FACE_BOUND('',#257,.T.);
#141=FACE_BOUND('',#258,.T.);
#142=CYLINDRICAL_SURFACE('',#259,8.0);
#143=CURVE_STYLE('',#260,POSITIVE_LENGTH_MEASURE(1000.0),#261);
#144=VERTEX_POINT('',#262);
#145=CIRCLE('',#263,11.0);
#146=CURVE_STYLE('',#264,POSITIVE_LENGTH_MEASURE(1000.0),#265);
#147=VERTEX_POINT('',#266);
#148=CIRCLE('',#267,8.0);
#149=SURFACE_STYLE_USAGE(.BOTH.,#268);
#150=CURVE_STYLE('',#269,POSITIVE_LENGTH_MEASURE(1000.0),#270);
#151=FACE_BOUND('',#271,.T.);
#152=FACE_BOUND('',#272,.T.);
#153=CONICAL_SURFACE('',#273,10.75,0.349065845655958);
#154=SURFACE_STYLE_USAGE(.BOTH.,#274);
#155=CURVE_STYLE('',#275,POSITIVE_LENGTH_MEASURE(1000.0),#276);
#156=FACE_OUTER_BOUND('',#277,.T.);
#157=PLANE('',#278);
#158=CURVE_STYLE('',#279,POSITIVE_LENGTH_MEASURE(1000.0),#280);
#159=VERTEX_POINT('',#281);
#160=CIRCLE('',#282,8.0);
#161=CURVE_STYLE('',#283,POSITIVE_LENGTH_MEASURE(1000.0),#284);
#162=VERTEX_POINT('',#285);
#163=CIRCLE('',#286,6.2);
#164=SURFACE_STYLE_USAGE(.BOTH.,#287);
#165=CURVE_STYLE('',#288,POSITIVE_LENGTH_MEASURE(1000.0),#289);
#166=CLOSED_SHELL('',(#94,#75,#53,#60,#88,#97,#91,#115,#78,#110,#103,#85,#100,#63));
#167=CURVE_STYLE('',#290,POSITIVE_LENGTH_MEASURE(1000.0),#291);
#168=VERTEX_POINT('',#292);
#169=CIRCLE('',#293,11.0);
#170=SURFACE_STYLE_USAGE(.BOTH.,#294);
#171=CURVE_STYLE('',#295,POSITIVE_LENGTH_MEASURE(1000.0),#296);
#172=FACE_OUTER_BOUND('',#297,.T.);
#173=PLANE('',#298);
#174=SURFACE_STYLE_USAGE(.BOTH.,#299);
#175=CURVE_STYLE('',#300,POSITIVE_LENGTH_MEASURE(1000.0),#301);
#176=FACE_BOUND('',#302,.T.);
#177=FACE_BOUND('',#303,.T.);
#178=CYLINDRICAL_SURFACE('',#304,6.2);
#179=CURVE_STYLE('',#305,POSITIVE_LENGTH_MEASURE(1000.0),#306);
#180=VERTEX_POINT('',#307);
#181=CIRCLE('',#308,8.0);
#182=CURVE_STYLE('',#309,POSITIVE_LENGTH_MEASURE(1000.0),#310);
#183=VERTEX_POINT('',#311);
#184=CIRCLE('',#312,8.0);
#185=SURFACE_STYLE_USAGE(.BOTH.,#313);
#186=CURVE_STYLE('',#314,POSITIVE_LENGTH_MEASURE(1000.0),#315);
#187=FACE_BOUND('',#316,.T.);
#188=FACE_BOUND('',#317,.T.);
#189=CONICAL_SURFACE('',#318,8.075,0.785398163397431);
#190=SURFACE_STYLE_USAGE(.BOTH.,#319);
#191=CURVE_STYLE('',#320,POSITIVE_LENGTH_MEASURE(1000.0),#321);
#192=FACE_BOUND('',#322,.T.);
#193=FACE_BOUND('',#323,.T.);
#194=CYLINDRICAL_SURFACE('',#324,11.0);
#195=SURFACE_STYLE_USAGE(.BOTH.,#325);
#196=CURVE_STYLE('',#326,POSITIVE_LENGTH_MEASURE(1000.0),#327);
#197=FACE_BOUND('',#328,.T.);
#198=FACE_BOUND('',#329,.T.);
#199=CYLINDRICAL_SURFACE('',#330,8.0);
#200=SURFACE_STYLE_USAGE(.BOTH.,#331);
#201=CURVE_STYLE('',#332,POSITIVE_LENGTH_MEASURE(1000.0),#333);
#202=FACE_OUTER_BOUND('',#334,.T.);
#203=FACE_BOUND('',#335,.T.);
#204=PLANE('',#336);
#205=SURFACE_STYLE_USAGE(.BOTH.,#337);
#206=CURVE_STYLE('',#338,POSITIVE_LENGTH_MEASURE(1000.0),#339);
#207=FACE_BOUND('',#340,.T.);
#208=FACE_BOUND('',#341,.T.);
#209=CONICAL_SURFACE('',#342,9.5,1.30899693937581);
#210=SURFACE_STYLE_USAGE(.BOTH.,#343);
#211=CURVE_STYLE('',#344,POSITIVE_LENGTH_MEASURE(1000.0),#345);
#212=FACE_BOUND('',#346,.T.);
#213=FACE_BOUND('',#347,.T.);
#214=CYLINDRICAL_SURFACE('',#348,8.0);
#215=SURFACE_STYLE_USAGE(.BOTH.,#349);
#216=CURVE_STYLE('',#350,POSITIVE_LENGTH_MEASURE(1000.0),#351);
#217=FACE_BOUND('',#352,.T.);
#218=FACE_BOUND('',#353,.T.);
#219=CYLINDRICAL_SURFACE('',#354,8.15);
#220=CURVE_STYLE('',#355,POSITIVE_LENGTH_MEASURE(1000.0),#356);
#221=VERTEX_POINT('',#357);
#222=CIRCLE('',#358,8.0);
#223=CURVE_STYLE('',#359,POSITIVE_LENGTH_MEASURE(1000.0),#360);
#224=VERTEX_POINT('',#361);
#225=CIRCLE('',#362,8.15);
#226=SURFACE_STYLE_USAGE(.BOTH.,#363);
#227=CURVE_STYLE('',#364,POSITIVE_LENGTH_MEASURE(1000.0),#365);
#228=FACE_OUTER_BOUND('',#366,.T.);
#229=FACE_BOUND('',#367,.T.);
#230=PLANE('',#368);
#231=CURVE_STYLE('',#369,POSITIVE_LENGTH_MEASURE(1000.0),#370);
#232=VERTEX_POINT('',#371);
#233=CIRCLE('',#372,8.0);
#234=SURFACE_STYLE_USAGE(.BOTH.,#373);
#235=CURVE_STYLE('',#374,POSITIVE_LENGTH_MEASURE(1000.0),#375);
#236=FACE_OUTER_BOUND('',#376,.T.);
#237=FACE_BOUND('',#377,.T.);
#238=PLANE('',#378);
#239=CURVE_STYLE('',#379,POSITIVE_LENGTH_MEASURE(1000.0),#380);
#240=VERTEX_POINT('',#381);
#241=CIRCLE('',#382,10.5);
#242=CURVE_STYLE('',#383,POSITIVE_LENGTH_MEASURE(1000.0),#384);
#243=VERTEX_POINT('',#385);
#244=CIRCLE('',#386,8.15);
#245=CURVE_STYLE('',#387,POSITIVE_LENGTH_MEASURE(1000.0),#388);
#246=VERTEX_POINT('',#389);
#247=CIRCLE('',#390,6.2);
#248=PRODUCT_CONTEXT('',#38,'mechanical');
#249=PRODUCT_DEFINITION_FORMATION_WITH_SPECIFIED_SOURCE(' ','NONE',#122,.NOT_KNOWN.);
#250=CARTESIAN_POINT('',(0.0,0.0,0.0));
#251=DIRECTION('',(0.0,0.0,1.0));
#252=DIRECTION('',(1.0,0.0,0.0));
#253= (NAMED_UNIT(#130)LENGTH_UNIT()SI_UNIT(.MILLI.,.METRE.));
#254=SURFACE_SIDE_STYLE('',(#392));
#255=DRAUGHTING_PRE_DEFINED_CURVE_FONT('continuous');
#256=COLOUR_RGB('',0.0,1.0,1.0);
#257=EDGE_LOOP('',(#393));
#258=EDGE_LOOP('',(#394));
#259=AXIS2_PLACEMENT_3D('',#395,#396,#397);
#260=DRAUGHTING_PRE_DEFINED_CURVE_FONT('continuous');
#261=COLOUR_RGB('',0.0,1.0,1.0);
#262=CARTESIAN_POINT('',(-1.22464679912712E-014,11.0,199.999999996696));
#263=AXIS2_PLACEMENT_3D('',#398,#399,#400);
#264=DRAUGHTING_PRE_DEFINED_CURVE_FONT('continuous');
#265=COLOUR_RGB('',0.0,1.0,1.0);
#266=CARTESIAN_POINT('',(0.0,8.0,0.0));
#267=AXIS2_PLACEMENT_3D('',#401,#402,#403);
#268=SURFACE_SIDE_STYLE('',(#404));
#269=DRAUGHTING_PRE_DEFINED_CURVE_FONT('continuous');
#270=COLOUR_RGB('',0.0,1.0,1.0);
#271=EDGE_LOOP('',(#405));
#272=EDGE_LOOP('',(#406));
#273=AXIS2_PLACEMENT_3D('',#407,#408,#409);
#274=SURFACE_SIDE_STYLE('',(#410));
#275=DRAUGHTING_PRE_DEFINED_CURVE_FONT('continuous');
#276=COLOUR_RGB('',0.0,1.0,1.0);
#277=EDGE_LOOP('',(#411));
#278=AXIS2_PLACEMENT_3D('',#412,#413,#414);
#279=DRAUGHTING_PRE_DEFINED_CURVE_FONT('continuous');
#280=COLOUR_RGB('',0.0,1.0,1.0);
#281=CARTESIAN_POINT('',(-1.28587913910472E-014,7.99999999999997,206.50000001));
#282=AXIS2_PLACEMENT_3D('',#415,#416,#417);
#283=DRAUGHTING_PRE_DEFINED_CURVE_FONT('continuous');
#284=COLOUR_RGB('',0.0,1.0,1.0);
#285=CARTESIAN_POINT('',(-1.22464679914735E-015,6.2,20.0));
#286=AXIS2_PLACEMENT_3D('',#418,#419,#420);
#287=SURFACE_SIDE_STYLE('',(#421));
#288=DRAUGHTING_PRE_DEFINED_CURVE_FONT('continuous');
#289=COLOUR_RGB('',0.0,1.0,1.0);
#290=DRAUGHTING_PRE_DEFINED_CURVE_FONT('continuous');
#291=COLOUR_RGB('',0.0,1.0,1.0);
#292=CARTESIAN_POINT('',(-1.25603609648808E-014,11.0,205.12626128));
#293=AXIS2_PLACEMENT_3D('',#422,#423,#424);
#294=SURFACE_SIDE_STYLE('',(#425));
#295=DRAUGHTING_PRE_DEFINED_CURVE_FONT('continuous');
#296=COLOUR_RGB('',0.0,1.0,1.0);
#297=EDGE_LOOP('',(#426));
#298=AXIS2_PLACEMENT_3D('',#427,#428,#429);
#299=SURFACE_SIDE_STYLE('',(#430));
#300=DRAUGHTING_PRE_DEFINED_CURVE_FONT('continuous');
#301=COLOUR_RGB('',0.0,1.0,1.0);
#302=EDGE_LOOP('',(#431));
#303=EDGE_LOOP('',(#432));
#304=AXIS2_PLACEMENT_3D('',#433,#434,#435);
#305=DRAUGHTING_PRE_DEFINED_CURVE_FONT('continuous');
#306=COLOUR_RGB('',0.0,1.0,1.0);
#307=CARTESIAN_POINT('',(-1.03176492828165E-015,8.0,16.85));
#308=AXIS2_PLACEMENT_3D('',#436,#437,#438);
#309=DRAUGHTING_PRE_DEFINED_CURVE_FONT('continuous');
#310=COLOUR_RGB('',0.0,1.0,1.0);
#311=CARTESIAN_POINT('',(-1.21972465232193E-014,7.99999999999998,199.196152420625));
#312=AXIS2_PLACEMENT_3D('',#439,#440,#441);
#313=SURFACE_SIDE_STYLE('',(#442));
#314=DRAUGHTING_PRE_DEFINED_CURVE_FONT('continuous');
#315=COLOUR_RGB('',0.0,1.0,1.0);
#316=EDGE_LOOP('',(#443));
#317=EDGE_LOOP('',(#444));
#318=AXIS2_PLACEMENT_3D('',#445,#446,#447);
#319=SURFACE_SIDE_STYLE('',(#448));
#320=DRAUGHTING_PRE_DEFINED_CURVE_FONT('continuous');
#321=COLOUR_RGB('',0.0,1.0,1.0);
#322=EDGE_LOOP('',(#449));
#323=EDGE_LOOP('',(#450));
#324=AXIS2_PLACEMENT_3D('',#451,#452,#453);
#325=SURFACE_SIDE_STYLE('',(#454));
#326=DRAUGHTING_PRE_DEFINED_CURVE_FONT('continuous');
#327=COLOUR_RGB('',0.0,1.0,1.0);
#328=EDGE_LOOP('',(#455));
#329=EDGE_LOOP('',(#456));
#330=AXIS2_PLACEMENT_3D('',#457,#458,#459);
#331=SURFACE_SIDE_STYLE('',(#460));
#332=DRAUGHTING_PRE_DEFINED_CURVE_FONT('continuous');
#333=COLOUR_RGB('',0.0,1.0,1.0);
#334=EDGE_LOOP('',(#461));
#335=EDGE_LOOP('',(#462));
#336=AXIS2_PLACEMENT_3D('',#463,#464,#465);
#337=SURFACE_SIDE_STYLE('',(#466));
#338=DRAUGHTING_PRE_DEFINED_CURVE_FONT('continuous');
#339=COLOUR_RGB('',0.0,1.0,1.0);
#340=EDGE_LOOP('',(#467));
#341=EDGE_LOOP('',(#468));
#342=AXIS2_PLACEMENT_3D('',#469,#470,#471);
#343=SURFACE_SIDE_STYLE('',(#472));
#344=DRAUGHTING_PRE_DEFINED_CURVE_FONT('continuous');
#345=COLOUR_RGB('',0.0,1.0,1.0);
#346=EDGE_LOOP('',(#473));
#347=EDGE_LOOP('',(#474));
#348=AXIS2_PLACEMENT_3D('',#475,#476,#477);
#349=SURFACE_SIDE_STYLE('',(#478));
#350=DRAUGHTING_PRE_DEFINED_CURVE_FONT('continuous');
#351=COLOUR_RGB('',0.0,1.0,1.0);
#352=EDGE_LOOP('',(#479));
#353=EDGE_LOOP('',(#480));
#354=AXIS2_PLACEMENT_3D('',#481,#482,#483);
#355=DRAUGHTING_PRE_DEFINED_CURVE_FONT('continuous');
#356=COLOUR_RGB('',0.0,1.0,1.0);
#357=CARTESIAN_POINT('',(-1.22464679914735E-015,8.0,20.0));
#358=AXIS2_PLACEMENT_3D('',#484,#485,#486);
#359=DRAUGHTING_PRE_DEFINED_CURVE_FONT('continuous');
#360=COLOUR_RGB('',0.0,1.0,1.0);
#361=CARTESIAN_POINT('',(-1.16341445918999E-015,8.15,19.0));
#362=AXIS2_PLACEMENT_3D('',#487,#488,#489);
#363=SURFACE_SIDE_STYLE('',(#490));
#364=DRAUGHTING_PRE_DEFINED_CURVE_FONT('continuous');
#365=COLOUR_RGB('',0.0,1.0,1.0);
#366=EDGE_LOOP('',(#491));
#367=EDGE_LOOP('',(#492));
#368=AXIS2_PLACEMENT_3D('',#493,#494,#495);
#369=DRAUGHTING_PRE_DEFINED_CURVE_FONT('continuous');
#370=COLOUR_RGB('',0.0,1.0,1.0);
#371=CARTESIAN_POINT('',(-1.51550041394485E-014,7.99999999999997,247.5));
#372=AXIS2_PLACEMENT_3D('',#496,#497,#498);
#373=SURFACE_SIDE_STYLE('',(#499));
#374=DRAUGHTING_PRE_DEFINED_CURVE_FONT('continuous');
#375=COLOUR_RGB('',0.0,1.0,1.0);
#376=EDGE_LOOP('',(#500));
#377=EDGE_LOOP('',(#501));
#378=AXIS2_PLACEMENT_3D('',#502,#503,#504);
#379=DRAUGHTING_PRE_DEFINED_CURVE_FONT('continuous');
#380=COLOUR_RGB('',0.0,1.0,1.0);
#381=CARTESIAN_POINT('',(-1.26444782018087E-014,10.5,206.50000001));
#382=AXIS2_PLACEMENT_3D('',#505,#506,#507);
#383=DRAUGHTING_PRE_DEFINED_CURVE_FONT('continuous');
#384=COLOUR_RGB('',0.0,1.0,1.0);
#385=CARTESIAN_POINT('',(-1.04094977927525E-015,8.15,17.0));
#386=AXIS2_PLACEMENT_3D('',#508,#509,#510);
#387=DRAUGHTING_PRE_DEFINED_CURVE_FONT('continuous');
#388=COLOUR_RGB('',0.0,1.0,1.0);
#389=CARTESIAN_POINT('',(-1.16341445918999E-015,6.2,19.0));
#390=AXIS2_PLACEMENT_3D('',#511,#512,#513);
#392=SURFACE_STYLE_FILL_AREA(#514);
#393=ORIENTED_EDGE('',*,*,#65,.F.);
#394=ORIENTED_EDGE('',*,*,#112,.T.);
#395=CARTESIAN_POINT('',(-1.40068977652479E-014,-2.80137955304957E-014,228.75));
#396=DIRECTION('',(6.12323399573677E-017,1.22464679914735E-016,-1.0));
#397=DIRECTION('',(-1.23259516440783E-032,1.0,1.22464679914735E-016));
#398=CARTESIAN_POINT('',(-1.22464679912712E-014,-2.44929359825424E-014,199.999999996696));
#399=DIRECTION('',(6.12323399573677E-017,1.22464679914735E-016,-1.0));
#400=DIRECTION('',(-1.23259516440783E-032,1.0,1.22464679914735E-016));
#401=CARTESIAN_POINT('',(0.0,0.0,0.0));
#402=DIRECTION('',(6.12323399573677E-017,1.22464679914735E-016,-1.0));
#403=DIRECTION('',(-1.23259516440783E-032,1.0,1.22464679914735E-016));
#404=SURFACE_STYLE_FILL_AREA(#515);
#405=ORIENTED_EDGE('',*,*,#72,.F.);
#406=ORIENTED_EDGE('',*,*,#117,.T.);
#407=CARTESIAN_POINT('',(-1.26024195833448E-014,-2.52048391666895E-014,205.813130645));
#408=DIRECTION('',(6.12323399573677E-017,1.22464679914735E-016,-1.0));
#409=DIRECTION('',(-1.23259516440783E-032,1.0,1.22464679914735E-016));
#410=SURFACE_STYLE_FILL_AREA(#516);
#411=ORIENTED_EDGE('',*,*,#57,.T.);
#412=CARTESIAN_POINT('',(0.0,4.0,0.0));
#413=DIRECTION('',(6.12323399573677E-017,1.22464679914735E-016,-1.0));
#414=DIRECTION('',(-1.0,0.0,-6.12323399573677E-017));
#415=CARTESIAN_POINT('',(-1.28587913910472E-014,-2.57175827820944E-014,206.50000001));
#416=DIRECTION('',(6.12323399573677E-017,1.22464679914735E-016,-1.0));
#417=DIRECTION('',(-1.23259516440783E-032,1.0,1.22464679914735E-016));
#418=CARTESIAN_POINT('',(-1.22464679914735E-015,-2.44929359829471E-015,20.0));
#419=DIRECTION('',(6.12323399573676E-017,1.22464679914735E-016,-1.0));
#420=DIRECTION('',(-1.23259516440783E-032,1.0,1.22464679914735E-016));
#421=SURFACE_STYLE_FILL_AREA(#517);
#422=CARTESIAN_POINT('',(-1.25603609648808E-014,-2.51207219297616E-014,205.12626128));
#423=DIRECTION('',(6.12323399573677E-017,1.22464679914735E-016,-1.0));
#424=DIRECTION('',(-1.23259516440783E-032,1.0,1.22464679914735E-016));
#425=SURFACE_STYLE_FILL_AREA(#518);
#426=ORIENTED_EDGE('',*,*,#112,.F.);
#427=CARTESIAN_POINT('',(-1.51550041394485E-014,3.99999999999997,247.5));
#428=DIRECTION('',(7.49879891330927E-033,-1.22464679914735E-016,1.0));
#429=DIRECTION('',(1.0,6.12323399573677E-017,0.0));
#430=SURFACE_STYLE_FILL_AREA(#519);
#431=ORIENTED_EDGE('',*,*,#121,.F.);
#432=ORIENTED_EDGE('',*,*,#67,.T.);
#433=CARTESIAN_POINT('',(-1.19403062916867E-015,-2.38806125833734E-015,19.5));
#434=DIRECTION('',(6.12323399573676E-017,1.22464679914735E-016,-1.0));
#435=DIRECTION('',(-1.23259516440783E-032,1.0,1.22464679914735E-016));
#436=CARTESIAN_POINT('',(-1.03176492828165E-015,-2.06352985656329E-015,16.85));
#437=DIRECTION('',(6.12323399573677E-017,1.22464679914735E-016,-1.0));
#438=DIRECTION('',(-1.23259516440783E-032,1.0,1.22464679914735E-016));
#439=CARTESIAN_POINT('',(-1.21972465232193E-014,-2.43944930464386E-014,199.196152420625));
#440=DIRECTION('',(6.12323399573677E-017,1.22464679914735E-016,-1.0));
#441=DIRECTION('',(-1.23259516440783E-032,1.0,1.22464679914735E-016));
#442=SURFACE_STYLE_FILL_AREA(#520);
#443=ORIENTED_EDGE('',*,*,#80,.F.);
#444=ORIENTED_EDGE('',*,*,#119,.T.);
#445=CARTESIAN_POINT('',(-1.03635735377845E-015,-2.07271470755689E-015,16.925));
#446=DIRECTION('',(-6.12323399573677E-017,-1.22464679914735E-016,1.0));
#447=DIRECTION('',(-1.23259516440783E-032,1.0,1.22464679914735E-016));
#448=SURFACE_STYLE_FILL_AREA(#521);
#449=ORIENTED_EDGE('',*,*,#55,.F.);
#450=ORIENTED_EDGE('',*,*,#72,.T.);
#451=CARTESIAN_POINT('',(-1.2403414478076E-014,-2.4806828956152E-014,202.563130638348));
#452=DIRECTION('',(6.12323399573677E-017,1.22464679914735E-016,-1.0));
#453=DIRECTION('',(-1.23259516440783E-032,1.0,1.22464679914735E-016));
#454=SURFACE_STYLE_FILL_AREA(#522);
#455=ORIENTED_EDGE('',*,*,#105,.F.);
#456=ORIENTED_EDGE('',*,*,#82,.T.);
#457=CARTESIAN_POINT('',(-6.71094666118333E-015,-1.34218933223667E-014,109.598076210312));
#458=DIRECTION('',(6.12323399573677E-017,1.22464679914735E-016,-1.0));
#459=DIRECTION('',(-1.23259516440783E-032,1.0,1.22464679914735E-016));
#460=SURFACE_STYLE_FILL_AREA(#523);
#461=ORIENTED_EDGE('',*,*,#117,.F.);
#462=ORIENTED_EDGE('',*,*,#65,.T.);
#463=CARTESIAN_POINT('',(-7.87347880381528,1.41715614025824,206.50000001));
#464=DIRECTION('',(0.0,0.0,1.0));
#465=DIRECTION('',(-1.0,0.0,0.0));
#466=SURFACE_STYLE_FILL_AREA(#524);
#467=ORIENTED_EDGE('',*,*,#82,.F.);
#468=ORIENTED_EDGE('',*,*,#55,.T.);
#469=CARTESIAN_POINT('',(-1.22218572572453E-014,-2.44437145144905E-014,199.59807620866));
#470=DIRECTION('',(-6.12323399573677E-017,-1.22464679914735E-016,1.0));
#471=DIRECTION('',(-1.23259516440783E-032,1.0,1.22464679914735E-016));
#472=SURFACE_STYLE_FILL_AREA(#525);
#473=ORIENTED_EDGE('',*,*,#57,.F.);
#474=ORIENTED_EDGE('',*,*,#80,.T.);
#475=CARTESIAN_POINT('',(-5.15882464140823E-016,-1.03176492828165E-015,8.42500000000001));
#476=DIRECTION('',(6.12323399573677E-017,1.22464679914735E-016,-1.0));
#477=DIRECTION('',(-1.23259516440783E-032,1.0,1.22464679914735E-016));
#478=SURFACE_STYLE_FILL_AREA(#526);
#479=ORIENTED_EDGE('',*,*,#119,.F.);
#480=ORIENTED_EDGE('',*,*,#107,.T.);
#481=CARTESIAN_POINT('',(-1.10218211923262E-015,-2.20436423846523E-015,18.0));
#482=DIRECTION('',(6.12323399573677E-017,1.22464679914735E-016,-1.0));
#483=DIRECTION('',(-1.23259516440783E-032,1.0,1.22464679914735E-016));
#484=CARTESIAN_POINT('',(-1.22464679914735E-015,-2.44929359829471E-015,20.0));
#485=DIRECTION('',(6.12323399573677E-017,1.22464679914735E-016,-1.0));
#486=DIRECTION('',(-1.23259516440783E-032,1.0,1.22464679914735E-016));
#487=CARTESIAN_POINT('',(-1.16341445918999E-015,-2.32682891837997E-015,19.0));
#488=DIRECTION('',(6.12323399573677E-017,1.22464679914735E-016,-1.0));
#489=DIRECTION('',(-1.23259516440783E-032,1.0,1.22464679914735E-016));
#490=SURFACE_STYLE_FILL_AREA(#527);
#491=ORIENTED_EDGE('',*,*,#107,.F.);
#492=ORIENTED_EDGE('',*,*,#121,.T.);
#493=CARTESIAN_POINT('',(-1.16341445918999E-015,7.175,19.0));
#494=DIRECTION('',(7.49879891330927E-033,-1.22464679914735E-016,1.0));
#495=DIRECTION('',(1.0,6.12323399573677E-017,0.0));
#496=CARTESIAN_POINT('',(-1.51550041394485E-014,-3.0310008278897E-014,247.5));
#497=DIRECTION('',(6.12323399573677E-017,1.22464679914735E-016,-1.0));
#498=DIRECTION('',(-1.23259516440783E-032,1.0,1.22464679914735E-016));
#499=SURFACE_STYLE_FILL_AREA(#528);
#500=ORIENTED_EDGE('',*,*,#105,.T.);
#501=ORIENTED_EDGE('',*,*,#67,.F.);
#502=CARTESIAN_POINT('',(-1.22464679914735E-015,7.1,20.0));
#503=DIRECTION('',(6.12323399573677E-017,1.22464679914735E-016,-1.0));
#504=DIRECTION('',(-1.0,0.0,-6.12323399573677E-017));
#505=CARTESIAN_POINT('',(-1.26444782018087E-014,-2.52889564036175E-014,206.50000001));
#506=DIRECTION('',(6.12323399573677E-017,1.22464679914735E-016,-1.0));
#507=DIRECTION('',(-1.23259516440783E-032,1.0,1.22464679914735E-016));
#508=CARTESIAN_POINT('',(-1.04094977927525E-015,-2.0818995585505E-015,17.0));
#509=DIRECTION('',(6.12323399573677E-017,1.22464679914735E-016,-1.0));
#510=DIRECTION('',(-1.23259516440783E-032,1.0,1.22464679914735E-016));
#511=CARTESIAN_POINT('',(-1.16341445918999E-015,-2.32682891837997E-015,19.0));
#512=DIRECTION('',(6.12323399573676E-017,1.22464679914735E-016,-1.0));
#513=DIRECTION('',(-1.23259516440783E-032,1.0,1.22464679914735E-016));
#514=FILL_AREA_STYLE('',(#529));
#515=FILL_AREA_STYLE('',(#530));
#516=FILL_AREA_STYLE('',(#531));
#517=FILL_AREA_STYLE('',(#532));
#518=FILL_AREA_STYLE('',(#533));
#519=FILL_AREA_STYLE('',(#534));
#520=FILL_AREA_STYLE('',(#535));
#521=FILL_AREA_STYLE('',(#536));
#522=FILL_AREA_STYLE('',(#537));
#523=FILL_AREA_STYLE('',(#538));
#524=FILL_AREA_STYLE('',(#539));
#525=FILL_AREA_STYLE('',(#540));
#526=FILL_AREA_STYLE('',(#541));
#527=FILL_AREA_STYLE('',(#542));
#528=FILL_AREA_STYLE('',(#543));
#529=FILL_AREA_STYLE_COLOUR('',#544);
#530=FILL_AREA_STYLE_COLOUR('',#545);
#531=FILL_AREA_STYLE_COLOUR('',#546);
#532=FILL_AREA_STYLE_COLOUR('',#547);
#533=FILL_AREA_STYLE_COLOUR('',#548);
#534=FILL_AREA_STYLE_COLOUR('',#549);
#535=FILL_AREA_STYLE_COLOUR('',#550);
#536=FILL_AREA_STYLE_COLOUR('',#551);
#537=FILL_AREA_STYLE_COLOUR('',#552);
#538=FILL_AREA_STYLE_COLOUR('',#553);
#539=FILL_AREA_STYLE_COLOUR('',#554);
#540=FILL_AREA_STYLE_COLOUR('',#555);
#541=FILL_AREA_STYLE_COLOUR('',#556);
#542=FILL_AREA_STYLE_COLOUR('',#557);
#543=FILL_AREA_STYLE_COLOUR('',#558);
#544=COLOUR_RGB('',0.0,1.0,1.0);
#545=COLOUR_RGB('',0.0,1.0,1.0);
#546=COLOUR_RGB('',0.0,1.0,1.0);
#547=COLOUR_RGB('',0.0,1.0,1.0);
#548=COLOUR_RGB('',0.0,1.0,1.0);
#549=COLOUR_RGB('',0.0,1.0,1.0);
#550=COLOUR_RGB('',0.0,1.0,1.0);
#551=COLOUR_RGB('',0.0,1.0,1.0);
#552=COLOUR_RGB('',0.0,1.0,1.0);
#553=COLOUR_RGB('',0.0,1.0,1.0);
#554=COLOUR_RGB('',0.0,1.0,1.0);
#555=COLOUR_RGB('',0.0,1.0,1.0);
#556=COLOUR_RGB('',0.0,1.0,1.0);
#557=COLOUR_RGB('',0.0,1.0,1.0);
#558=COLOUR_RGB('',0.0,1.0,1.0);
ENDSEC;
END-ISO-10303-21;
