ISO-10303-21;
HEADER;
FILE_DESCRIPTION((''),'1');
FILE_NAME('T:/02_3D_Field-HP\X2\FF71FF6FFF8CFF9F5916\X0\2013/02_Step_Field-HP\X2\FF71FF6FFF8CFF9F5916\X0\2013/MGT6-d-200_045034-060049.stp','2017-02-08T07:48:07',(''),(''),'Spatial Interop R21 SP3','Kubotek KeyCreator 2011 V10.0.2 (22737)',' ');
FILE_SCHEMA(('automotive_design'));
ENDSEC;
DATA;
#1=MECHANICAL_DESIGN_GEOMETRIC_PRESENTATION_REPRESENTATION(' ',(#10,#11,#12,#13,#14,#15,#16,#17,#18,#19,#20,#21,#22,#23,#24,#25,#26,#27,#28,#29,#30,#31,#32,#33,#34,#35,#36,#37),#6);
#2=PRODUCT_DEFINITION_CONTEXT('',#38,'design');
#3=APPLICATION_PROTOCOL_DEFINITION('INTERNATIONAL STANDARD','automotive_design',1994,#38);
#4=PRODUCT_CATEGORY_RELATIONSHIP('NONE','NONE',#39,#40);
#5=SHAPE_DEFINITION_REPRESENTATION(#41,#42);
#6= (GEOMETRIC_REPRESENTATION_CONTEXT(3)GLOBAL_UNCERTAINTY_ASSIGNED_CONTEXT((#45))GLOBAL_UNIT_ASSIGNED_CONTEXT((#47,#48,#49))REPRESENTATION_CONTEXT('NONE','WORKSPACE'));
#10=STYLED_ITEM('',(#51,#52),#53);
#11=STYLED_ITEM('',(#54,#55),#56);
#12=STYLED_ITEM('',(#57,#58),#59);
#13=STYLED_ITEM('',(#60,#61),#62);
#14=STYLED_ITEM('',(#63,#64),#65);
#15=STYLED_ITEM('',(#66),#67);
#16=STYLED_ITEM('',(#68),#69);
#17=STYLED_ITEM('',(#70,#71),#72);
#18=STYLED_ITEM('',(#73,#74),#75);
#19=STYLED_ITEM('',(#76,#77),#78);
#20=STYLED_ITEM('',(#79),#80);
#21=STYLED_ITEM('',(#81),#82);
#22=STYLED_ITEM('',(#83),#84);
#23=STYLED_ITEM('',(#85,#86),#87);
#24=STYLED_ITEM('',(#88),#89);
#25=STYLED_ITEM('',(#90),#91);
#26=STYLED_ITEM('',(#92),#93);
#27=STYLED_ITEM('',(#94),#95);
#28=STYLED_ITEM('',(#96),#97);
#29=STYLED_ITEM('',(#98,#99),#100);
#30=STYLED_ITEM('',(#101),#102);
#31=STYLED_ITEM('',(#103,#104),#105);
#32=STYLED_ITEM('',(#106,#107),#108);
#33=STYLED_ITEM('',(#109,#110),#111);
#34=STYLED_ITEM('',(#112),#113);
#35=STYLED_ITEM('',(#114,#115),#116);
#36=STYLED_ITEM('',(#117,#118),#119);
#37=STYLED_ITEM('',(#120),#121);
#38=APPLICATION_CONTEXT(' ');
#39=PRODUCT_CATEGORY('part','NONE');
#40=PRODUCT_RELATED_PRODUCT_CATEGORY('detail',' ',(#122));
#41=PRODUCT_DEFINITION_SHAPE('NONE','NONE',#123);
#42=ADVANCED_BREP_SHAPE_REPRESENTATION('240[2]',(#72,#124),#6);
#45=UNCERTAINTY_MEASURE_WITH_UNIT(LENGTH_MEASURE(1.0E-006),#47,'','');
#47= (CONVERSION_BASED_UNIT('MILLIMETRE',#127)LENGTH_UNIT()NAMED_UNIT(#130));
#48= (NAMED_UNIT(#132)PLANE_ANGLE_UNIT()SI_UNIT($,.RADIAN.));
#49= (NAMED_UNIT(#132)SOLID_ANGLE_UNIT()SI_UNIT($,.STERADIAN.));
#51=PRESENTATION_STYLE_ASSIGNMENT((#138));
#52=PRESENTATION_STYLE_ASSIGNMENT((#139));
#53=ADVANCED_FACE('240[2]',(#140,#141),#142,.T.);
#54=PRESENTATION_STYLE_ASSIGNMENT((#143));
#55=PRESENTATION_STYLE_ASSIGNMENT((#144));
#56=ADVANCED_FACE('240[2]',(#145,#146),#147,.T.);
#57=PRESENTATION_STYLE_ASSIGNMENT((#148));
#58=PRESENTATION_STYLE_ASSIGNMENT((#149));
#59=ADVANCED_FACE('240[2]',(#150,#151),#152,.T.);
#60=PRESENTATION_STYLE_ASSIGNMENT((#153));
#61=PRESENTATION_STYLE_ASSIGNMENT((#154));
#62=ADVANCED_FACE('240[2]',(#155,#156),#157,.T.);
#63=PRESENTATION_STYLE_ASSIGNMENT((#158));
#64=PRESENTATION_STYLE_ASSIGNMENT((#159));
#65=ADVANCED_FACE('240[2]',(#160,#161),#162,.T.);
#66=PRESENTATION_STYLE_ASSIGNMENT((#163));
#67=EDGE_CURVE('240[2]',#164,#164,#165,.T.);
#68=PRESENTATION_STYLE_ASSIGNMENT((#166));
#69=EDGE_CURVE('240[2]',#167,#167,#168,.T.);
#70=PRESENTATION_STYLE_ASSIGNMENT((#169));
#71=PRESENTATION_STYLE_ASSIGNMENT((#170));
#72=MANIFOLD_SOLID_BREP('240[2]',#171);
#73=PRESENTATION_STYLE_ASSIGNMENT((#172));
#74=PRESENTATION_STYLE_ASSIGNMENT((#173));
#75=ADVANCED_FACE('240[2]',(#174,#175),#176,.T.);
#76=PRESENTATION_STYLE_ASSIGNMENT((#177));
#77=PRESENTATION_STYLE_ASSIGNMENT((#178));
#78=ADVANCED_FACE('240[2]',(#179,#180),#181,.T.);
#79=PRESENTATION_STYLE_ASSIGNMENT((#182));
#80=EDGE_CURVE('240[2]',#183,#183,#184,.T.);
#81=PRESENTATION_STYLE_ASSIGNMENT((#185));
#82=EDGE_CURVE('240[2]',#186,#186,#187,.T.);
#83=PRESENTATION_STYLE_ASSIGNMENT((#188));
#84=EDGE_CURVE('240[2]',#189,#189,#190,.T.);
#85=PRESENTATION_STYLE_ASSIGNMENT((#191));
#86=PRESENTATION_STYLE_ASSIGNMENT((#192));
#87=ADVANCED_FACE('240[2]',(#193,#194),#195,.T.);
#88=PRESENTATION_STYLE_ASSIGNMENT((#196));
#89=EDGE_CURVE('240[2]',#197,#197,#198,.T.);
#90=PRESENTATION_STYLE_ASSIGNMENT((#199));
#91=EDGE_CURVE('240[2]',#200,#200,#201,.T.);
#92=PRESENTATION_STYLE_ASSIGNMENT((#202));
#93=EDGE_CURVE('240[2]',#203,#203,#204,.T.);
#94=PRESENTATION_STYLE_ASSIGNMENT((#205));
#95=EDGE_CURVE('240[2]',#206,#206,#207,.T.);
#96=PRESENTATION_STYLE_ASSIGNMENT((#208));
#97=EDGE_CURVE('240[2]',#209,#209,#210,.T.);
#98=PRESENTATION_STYLE_ASSIGNMENT((#211));
#99=PRESENTATION_STYLE_ASSIGNMENT((#212));
#100=ADVANCED_FACE('240[2]',(#213,#214),#215,.T.);
#101=PRESENTATION_STYLE_ASSIGNMENT((#216));
#102=EDGE_CURVE('240[2]',#217,#217,#218,.T.);
#103=PRESENTATION_STYLE_ASSIGNMENT((#219));
#104=PRESENTATION_STYLE_ASSIGNMENT((#220));
#105=ADVANCED_FACE('240[2]',(#221,#222),#223,.T.);
#106=PRESENTATION_STYLE_ASSIGNMENT((#224));
#107=PRESENTATION_STYLE_ASSIGNMENT((#225));
#108=ADVANCED_FACE('240[2]',(#226),#227,.T.);
#109=PRESENTATION_STYLE_ASSIGNMENT((#228));
#110=PRESENTATION_STYLE_ASSIGNMENT((#229));
#111=ADVANCED_FACE('240[2]',(#230),#231,.T.);
#112=PRESENTATION_STYLE_ASSIGNMENT((#232));
#113=EDGE_CURVE('240[2]',#233,#233,#234,.T.);
#114=PRESENTATION_STYLE_ASSIGNMENT((#235));
#115=PRESENTATION_STYLE_ASSIGNMENT((#236));
#116=ADVANCED_FACE('240[2]',(#237,#238),#239,.T.);
#117=PRESENTATION_STYLE_ASSIGNMENT((#240));
#118=PRESENTATION_STYLE_ASSIGNMENT((#241));
#119=ADVANCED_FACE('240[2]',(#242,#243),#244,.T.);
#120=PRESENTATION_STYLE_ASSIGNMENT((#245));
#121=EDGE_CURVE('240[2]',#246,#246,#247,.T.);
#122=PRODUCT('240[2]','240[2]','PART-240[2]-DESC',(#248));
#123=PRODUCT_DEFINITION('NONE','NONE',#249,#2);
#124=AXIS2_PLACEMENT_3D('',#250,#251,#252);
#127=LENGTH_MEASURE_WITH_UNIT(LENGTH_MEASURE(1.0),#253);
#130=DIMENSIONAL_EXPONENTS(1.0,0.0,0.0,0.0,0.0,0.0,0.0);
#132=DIMENSIONAL_EXPONENTS(0.0,0.0,0.0,0.0,0.0,0.0,0.0);
#138=SURFACE_STYLE_USAGE(.BOTH.,#254);
#139=CURVE_STYLE('',#255,POSITIVE_LENGTH_MEASURE(1000.0),#256);
#140=FACE_BOUND('',#257,.T.);
#141=FACE_BOUND('',#258,.T.);
#142=CYLINDRICAL_SURFACE('',#259,8.0);
#143=SURFACE_STYLE_USAGE(.BOTH.,#260);
#144=CURVE_STYLE('',#261,POSITIVE_LENGTH_MEASURE(1000.0),#262);
#145=FACE_BOUND('',#263,.T.);
#146=FACE_BOUND('',#264,.T.);
#147=CYLINDRICAL_SURFACE('',#265,8.0);
#148=SURFACE_STYLE_USAGE(.BOTH.,#266);
#149=CURVE_STYLE('',#267,POSITIVE_LENGTH_MEASURE(1000.0),#268);
#150=FACE_OUTER_BOUND('',#269,.T.);
#151=FACE_BOUND('',#270,.T.);
#152=PLANE('',#271);
#153=SURFACE_STYLE_USAGE(.BOTH.,#272);
#154=CURVE_STYLE('',#273,POSITIVE_LENGTH_MEASURE(1000.0),#274);
#155=FACE_BOUND('',#275,.T.);
#156=FACE_BOUND('',#276,.T.);
#157=CYLINDRICAL_SURFACE('',#277,6.2);
#158=SURFACE_STYLE_USAGE(.BOTH.,#278);
#159=CURVE_STYLE('',#279,POSITIVE_LENGTH_MEASURE(1000.0),#280);
#160=FACE_BOUND('',#281,.T.);
#161=FACE_BOUND('',#282,.T.);
#162=CONICAL_SURFACE('',#283,8.075,0.785398163397431);
#163=CURVE_STYLE('',#284,POSITIVE_LENGTH_MEASURE(1000.0),#285);
#164=VERTEX_POINT('',#286);
#165=CIRCLE('',#287,8.0);
#166=CURVE_STYLE('',#288,POSITIVE_LENGTH_MEASURE(1000.0),#289);
#167=VERTEX_POINT('',#290);
#168=CIRCLE('',#291,8.0);
#169=SURFACE_STYLE_USAGE(.BOTH.,#292);
#170=CURVE_STYLE('',#293,POSITIVE_LENGTH_MEASURE(1000.0),#294);
#171=CLOSED_SHELL('',(#59,#111,#53,#87,#119,#105,#56,#78,#62,#75,#116,#65,#100,#108));
#172=SURFACE_STYLE_USAGE(.BOTH.,#295);
#173=CURVE_STYLE('',#296,POSITIVE_LENGTH_MEASURE(1000.0),#297);
#174=FACE_OUTER_BOUND('',#298,.T.);
#175=FACE_BOUND('',#299,.T.);
#176=PLANE('',#300);
#177=SURFACE_STYLE_USAGE(.BOTH.,#301);
#178=CURVE_STYLE('',#302,POSITIVE_LENGTH_MEASURE(1000.0),#303);
#179=FACE_OUTER_BOUND('',#304,.T.);
#180=FACE_BOUND('',#305,.T.);
#181=PLANE('',#306);
#182=CURVE_STYLE('',#307,POSITIVE_LENGTH_MEASURE(1000.0),#308);
#183=VERTEX_POINT('',#309);
#184=CIRCLE('',#310,11.0);
#185=CURVE_STYLE('',#311,POSITIVE_LENGTH_MEASURE(1000.0),#312);
#186=VERTEX_POINT('',#313);
#187=CIRCLE('',#314,8.15);
#188=CURVE_STYLE('',#315,POSITIVE_LENGTH_MEASURE(1000.0),#316);
#189=VERTEX_POINT('',#317);
#190=CIRCLE('',#318,8.0);
#191=SURFACE_STYLE_USAGE(.BOTH.,#319);
#192=CURVE_STYLE('',#320,POSITIVE_LENGTH_MEASURE(1000.0),#321);
#193=FACE_BOUND('',#322,.T.);
#194=FACE_BOUND('',#323,.T.);
#195=CONICAL_SURFACE('',#324,10.75,0.349065845655958);
#196=CURVE_STYLE('',#325,POSITIVE_LENGTH_MEASURE(1000.0),#326);
#197=VERTEX_POINT('',#327);
#198=CIRCLE('',#328,10.5);
#199=CURVE_STYLE('',#329,POSITIVE_LENGTH_MEASURE(1000.0),#330);
#200=VERTEX_POINT('',#331);
#201=CIRCLE('',#332,8.0);
#202=CURVE_STYLE('',#333,POSITIVE_LENGTH_MEASURE(1000.0),#334);
#203=VERTEX_POINT('',#335);
#204=CIRCLE('',#336,11.0);
#205=CURVE_STYLE('',#337,POSITIVE_LENGTH_MEASURE(1000.0),#338);
#206=VERTEX_POINT('',#339);
#207=CIRCLE('',#340,6.2);
#208=CURVE_STYLE('',#341,POSITIVE_LENGTH_MEASURE(1000.0),#342);
#209=VERTEX_POINT('',#343);
#210=CIRCLE('',#344,6.2);
#211=SURFACE_STYLE_USAGE(.BOTH.,#345);
#212=CURVE_STYLE('',#346,POSITIVE_LENGTH_MEASURE(1000.0),#347);
#213=FACE_BOUND('',#348,.T.);
#214=FACE_BOUND('',#349,.T.);
#215=CYLINDRICAL_SURFACE('',#350,8.0);
#216=CURVE_STYLE('',#351,POSITIVE_LENGTH_MEASURE(1000.0),#352);
#217=VERTEX_POINT('',#353);
#218=CIRCLE('',#354,8.0);
#219=SURFACE_STYLE_USAGE(.BOTH.,#355);
#220=CURVE_STYLE('',#356,POSITIVE_LENGTH_MEASURE(1000.0),#357);
#221=FACE_BOUND('',#358,.T.);
#222=FACE_BOUND('',#359,.T.);
#223=CONICAL_SURFACE('',#360,9.5,1.30899693937581);
#224=SURFACE_STYLE_USAGE(.BOTH.,#361);
#225=CURVE_STYLE('',#362,POSITIVE_LENGTH_MEASURE(1000.0),#363);
#226=FACE_OUTER_BOUND('',#364,.T.);
#227=PLANE('',#365);
#228=SURFACE_STYLE_USAGE(.BOTH.,#366);
#229=CURVE_STYLE('',#367,POSITIVE_LENGTH_MEASURE(1000.0),#368);
#230=FACE_OUTER_BOUND('',#369,.T.);
#231=PLANE('',#370);
#232=CURVE_STYLE('',#371,POSITIVE_LENGTH_MEASURE(1000.0),#372);
#233=VERTEX_POINT('',#373);
#234=CIRCLE('',#374,8.0);
#235=SURFACE_STYLE_USAGE(.BOTH.,#375);
#236=CURVE_STYLE('',#376,POSITIVE_LENGTH_MEASURE(1000.0),#377);
#237=FACE_BOUND('',#378,.T.);
#238=FACE_BOUND('',#379,.T.);
#239=CYLINDRICAL_SURFACE('',#380,8.15);
#240=SURFACE_STYLE_USAGE(.BOTH.,#381);
#241=CURVE_STYLE('',#382,POSITIVE_LENGTH_MEASURE(1000.0),#383);
#242=FACE_BOUND('',#384,.T.);
#243=FACE_BOUND('',#385,.T.);
#244=CYLINDRICAL_SURFACE('',#386,11.0);
#245=CURVE_STYLE('',#387,POSITIVE_LENGTH_MEASURE(1000.0),#388);
#246=VERTEX_POINT('',#389);
#247=CIRCLE('',#390,8.15);
#248=PRODUCT_CONTEXT('',#38,'mechanical');
#249=PRODUCT_DEFINITION_FORMATION_WITH_SPECIFIED_SOURCE(' ','NONE',#122,.NOT_KNOWN.);
#250=CARTESIAN_POINT('',(0.0,0.0,0.0));
#251=DIRECTION('',(0.0,0.0,1.0));
#252=DIRECTION('',(1.0,0.0,0.0));
#253= (NAMED_UNIT(#130)LENGTH_UNIT()SI_UNIT(.MILLI.,.METRE.));
#254=SURFACE_SIDE_STYLE('',(#392));
#255=DRAUGHTING_PRE_DEFINED_CURVE_FONT('continuous');
#256=COLOUR_RGB('',0.0,1.0,1.0);
#257=EDGE_LOOP('',(#393));
#258=EDGE_LOOP('',(#394));
#259=AXIS2_PLACEMENT_3D('',#395,#396,#397);
#260=SURFACE_SIDE_STYLE('',(#398));
#261=DRAUGHTING_PRE_DEFINED_CURVE_FONT('continuous');
#262=COLOUR_RGB('',0.0,1.0,1.0);
#263=EDGE_LOOP('',(#399));
#264=EDGE_LOOP('',(#400));
#265=AXIS2_PLACEMENT_3D('',#401,#402,#403);
#266=SURFACE_SIDE_STYLE('',(#404));
#267=DRAUGHTING_PRE_DEFINED_CURVE_FONT('continuous');
#268=COLOUR_RGB('',0.0,1.0,1.0);
#269=EDGE_LOOP('',(#405));
#270=EDGE_LOOP('',(#406));
#271=AXIS2_PLACEMENT_3D('',#407,#408,#409);
#272=SURFACE_SIDE_STYLE('',(#410));
#273=DRAUGHTING_PRE_DEFINED_CURVE_FONT('continuous');
#274=COLOUR_RGB('',0.0,1.0,1.0);
#275=EDGE_LOOP('',(#411));
#276=EDGE_LOOP('',(#412));
#277=AXIS2_PLACEMENT_3D('',#413,#414,#415);
#278=SURFACE_SIDE_STYLE('',(#416));
#279=DRAUGHTING_PRE_DEFINED_CURVE_FONT('continuous');
#280=COLOUR_RGB('',0.0,1.0,1.0);
#281=EDGE_LOOP('',(#417));
#282=EDGE_LOOP('',(#418));
#283=AXIS2_PLACEMENT_3D('',#419,#420,#421);
#284=DRAUGHTING_PRE_DEFINED_CURVE_FONT('continuous');
#285=COLOUR_RGB('',0.0,1.0,1.0);
#286=CARTESIAN_POINT('',(0.0,8.0,0.0));
#287=AXIS2_PLACEMENT_3D('',#422,#423,#424);
#288=DRAUGHTING_PRE_DEFINED_CURVE_FONT('continuous');
#289=COLOUR_RGB('',0.0,1.0,1.0);
#290=CARTESIAN_POINT('',(-1.03176492828165E-015,8.0,16.85));
#291=AXIS2_PLACEMENT_3D('',#425,#426,#427);
#292=SURFACE_SIDE_STYLE('',(#428));
#293=DRAUGHTING_PRE_DEFINED_CURVE_FONT('continuous');
#294=COLOUR_RGB('',0.0,1.0,1.0);
#295=SURFACE_SIDE_STYLE('',(#429));
#296=DRAUGHTING_PRE_DEFINED_CURVE_FONT('continuous');
#297=COLOUR_RGB('',0.0,1.0,1.0);
#298=EDGE_LOOP('',(#430));
#299=EDGE_LOOP('',(#431));
#300=AXIS2_PLACEMENT_3D('',#432,#433,#434);
#301=SURFACE_SIDE_STYLE('',(#435));
#302=DRAUGHTING_PRE_DEFINED_CURVE_FONT('continuous');
#303=COLOUR_RGB('',0.0,1.0,1.0);
#304=EDGE_LOOP('',(#436));
#305=EDGE_LOOP('',(#437));
#306=AXIS2_PLACEMENT_3D('',#438,#439,#440);
#307=DRAUGHTING_PRE_DEFINED_CURVE_FONT('continuous');
#308=COLOUR_RGB('',0.0,1.0,1.0);
#309=CARTESIAN_POINT('',(-1.22464679912712E-014,11.0,199.999999996696));
#310=AXIS2_PLACEMENT_3D('',#441,#442,#443);
#311=DRAUGHTING_PRE_DEFINED_CURVE_FONT('continuous');
#312=COLOUR_RGB('',0.0,1.0,1.0);
#313=CARTESIAN_POINT('',(-1.04094977927525E-015,8.15,17.0));
#314=AXIS2_PLACEMENT_3D('',#444,#445,#446);
#315=DRAUGHTING_PRE_DEFINED_CURVE_FONT('continuous');
#316=COLOUR_RGB('',0.0,1.0,1.0);
#317=CARTESIAN_POINT('',(-1.21972465232193E-014,7.99999999999998,199.196152420625));
#318=AXIS2_PLACEMENT_3D('',#447,#448,#449);
#319=SURFACE_SIDE_STYLE('',(#450));
#320=DRAUGHTING_PRE_DEFINED_CURVE_FONT('continuous');
#321=COLOUR_RGB('',0.0,1.0,1.0);
#322=EDGE_LOOP('',(#451));
#323=EDGE_LOOP('',(#452));
#324=AXIS2_PLACEMENT_3D('',#453,#454,#455);
#325=DRAUGHTING_PRE_DEFINED_CURVE_FONT('continuous');
#326=COLOUR_RGB('',0.0,1.0,1.0);
#327=CARTESIAN_POINT('',(-1.26444782018087E-014,10.5,206.50000001));
#328=AXIS2_PLACEMENT_3D('',#456,#457,#458);
#329=DRAUGHTING_PRE_DEFINED_CURVE_FONT('continuous');
#330=COLOUR_RGB('',0.0,1.0,1.0);
#331=CARTESIAN_POINT('',(-1.28587913910472E-014,7.99999999999997,206.50000001));
#332=AXIS2_PLACEMENT_3D('',#459,#460,#461);
#333=DRAUGHTING_PRE_DEFINED_CURVE_FONT('continuous');
#334=COLOUR_RGB('',0.0,1.0,1.0);
#335=CARTESIAN_POINT('',(-1.25603609648808E-014,11.0,205.12626128));
#336=AXIS2_PLACEMENT_3D('',#462,#463,#464);
#337=DRAUGHTING_PRE_DEFINED_CURVE_FONT('continuous');
#338=COLOUR_RGB('',0.0,1.0,1.0);
#339=CARTESIAN_POINT('',(-1.22464679914735E-015,6.2,20.0));
#340=AXIS2_PLACEMENT_3D('',#465,#466,#467);
#341=DRAUGHTING_PRE_DEFINED_CURVE_FONT('continuous');
#342=COLOUR_RGB('',0.0,1.0,1.0);
#343=CARTESIAN_POINT('',(-1.16341445918999E-015,6.2,19.0));
#344=AXIS2_PLACEMENT_3D('',#468,#469,#470);
#345=SURFACE_SIDE_STYLE('',(#471));
#346=DRAUGHTING_PRE_DEFINED_CURVE_FONT('continuous');
#347=COLOUR_RGB('',0.0,1.0,1.0);
#348=EDGE_LOOP('',(#472));
#349=EDGE_LOOP('',(#473));
#350=AXIS2_PLACEMENT_3D('',#474,#475,#476);
#351=DRAUGHTING_PRE_DEFINED_CURVE_FONT('continuous');
#352=COLOUR_RGB('',0.0,1.0,1.0);
#353=CARTESIAN_POINT('',(-1.22464679914735E-015,8.0,20.0));
#354=AXIS2_PLACEMENT_3D('',#477,#478,#479);
#355=SURFACE_SIDE_STYLE('',(#480));
#356=DRAUGHTING_PRE_DEFINED_CURVE_FONT('continuous');
#357=COLOUR_RGB('',0.0,1.0,1.0);
#358=EDGE_LOOP('',(#481));
#359=EDGE_LOOP('',(#482));
#360=AXIS2_PLACEMENT_3D('',#483,#484,#485);
#361=SURFACE_SIDE_STYLE('',(#486));
#362=DRAUGHTING_PRE_DEFINED_CURVE_FONT('continuous');
#363=COLOUR_RGB('',0.0,1.0,1.0);
#364=EDGE_LOOP('',(#487));
#365=AXIS2_PLACEMENT_3D('',#488,#489,#490);
#366=SURFACE_SIDE_STYLE('',(#491));
#367=DRAUGHTING_PRE_DEFINED_CURVE_FONT('continuous');
#368=COLOUR_RGB('',0.0,1.0,1.0);
#369=EDGE_LOOP('',(#492));
#370=AXIS2_PLACEMENT_3D('',#493,#494,#495);
#371=DRAUGHTING_PRE_DEFINED_CURVE_FONT('continuous');
#372=COLOUR_RGB('',0.0,1.0,1.0);
#373=CARTESIAN_POINT('',(-1.51550041394485E-014,7.99999999999997,247.5));
#374=AXIS2_PLACEMENT_3D('',#496,#497,#498);
#375=SURFACE_SIDE_STYLE('',(#499));
#376=DRAUGHTING_PRE_DEFINED_CURVE_FONT('continuous');
#377=COLOUR_RGB('',0.0,1.0,1.0);
#378=EDGE_LOOP('',(#500));
#379=EDGE_LOOP('',(#501));
#380=AXIS2_PLACEMENT_3D('',#502,#503,#504);
#381=SURFACE_SIDE_STYLE('',(#505));
#382=DRAUGHTING_PRE_DEFINED_CURVE_FONT('continuous');
#383=COLOUR_RGB('',0.0,1.0,1.0);
#384=EDGE_LOOP('',(#506));
#385=EDGE_LOOP('',(#507));
#386=AXIS2_PLACEMENT_3D('',#508,#509,#510);
#387=DRAUGHTING_PRE_DEFINED_CURVE_FONT('continuous');
#388=COLOUR_RGB('',0.0,1.0,1.0);
#389=CARTESIAN_POINT('',(-1.16341445918999E-015,8.15,19.0));
#390=AXIS2_PLACEMENT_3D('',#511,#512,#513);
#392=SURFACE_STYLE_FILL_AREA(#514);
#393=ORIENTED_EDGE('',*,*,#91,.F.);
#394=ORIENTED_EDGE('',*,*,#113,.T.);
#395=CARTESIAN_POINT('',(-1.40068977652479E-014,-2.80137955304957E-014,228.75));
#396=DIRECTION('',(-6.12323399573677E-017,-1.22464679914735E-016,1.0));
#397=DIRECTION('',(-1.23259516440783E-032,1.0,1.22464679914735E-016));
#398=SURFACE_STYLE_FILL_AREA(#515);
#399=ORIENTED_EDGE('',*,*,#102,.F.);
#400=ORIENTED_EDGE('',*,*,#84,.T.);
#401=CARTESIAN_POINT('',(-6.71094666118333E-015,-1.34218933223667E-014,109.598076210312));
#402=DIRECTION('',(-6.12323399573677E-017,-1.22464679914735E-016,1.0));
#403=DIRECTION('',(-1.23259516440783E-032,1.0,1.22464679914735E-016));
#404=SURFACE_STYLE_FILL_AREA(#516);
#405=ORIENTED_EDGE('',*,*,#89,.F.);
#406=ORIENTED_EDGE('',*,*,#91,.T.);
#407=CARTESIAN_POINT('',(-7.87347880381528,1.41715614025824,206.50000001));
#408=DIRECTION('',(0.0,0.0,1.0));
#409=DIRECTION('',(1.0,-0.0,0.0));
#410=SURFACE_STYLE_FILL_AREA(#517);
#411=ORIENTED_EDGE('',*,*,#97,.F.);
#412=ORIENTED_EDGE('',*,*,#95,.T.);
#413=CARTESIAN_POINT('',(-1.19403062916867E-015,-2.38806125833734E-015,19.5));
#414=DIRECTION('',(-6.12323399573676E-017,-1.22464679914735E-016,1.0));
#415=DIRECTION('',(-1.23259516440783E-032,1.0,1.22464679914735E-016));
#416=SURFACE_STYLE_FILL_AREA(#518);
#417=ORIENTED_EDGE('',*,*,#69,.F.);
#418=ORIENTED_EDGE('',*,*,#82,.T.);
#419=CARTESIAN_POINT('',(-1.03635735377845E-015,-2.07271470755689E-015,16.925));
#420=DIRECTION('',(-6.12323399573677E-017,-1.22464679914735E-016,1.0));
#421=DIRECTION('',(-1.23259516440783E-032,1.0,1.22464679914735E-016));
#422=CARTESIAN_POINT('',(0.0,0.0,0.0));
#423=DIRECTION('',(6.12323399573677E-017,1.22464679914735E-016,-1.0));
#424=DIRECTION('',(-1.23259516440783E-032,1.0,1.22464679914735E-016));
#425=CARTESIAN_POINT('',(-1.03176492828165E-015,-2.06352985656329E-015,16.85));
#426=DIRECTION('',(6.12323399573677E-017,1.22464679914735E-016,-1.0));
#427=DIRECTION('',(-1.23259516440783E-032,1.0,1.22464679914735E-016));
#428=SURFACE_STYLE_FILL_AREA(#519);
#429=SURFACE_STYLE_FILL_AREA(#520);
#430=ORIENTED_EDGE('',*,*,#121,.F.);
#431=ORIENTED_EDGE('',*,*,#97,.T.);
#432=CARTESIAN_POINT('',(-1.16341445918999E-015,7.175,19.0));
#433=DIRECTION('',(-9.18338008663382E-049,-1.22464679914735E-016,1.0));
#434=DIRECTION('',(1.0,-7.49879891330927E-033,0.0));
#435=SURFACE_STYLE_FILL_AREA(#521);
#436=ORIENTED_EDGE('',*,*,#102,.T.);
#437=ORIENTED_EDGE('',*,*,#95,.F.);
#438=CARTESIAN_POINT('',(-1.22464679914735E-015,7.1,20.0));
#439=DIRECTION('',(6.12323399573677E-017,1.22464679914735E-016,-1.0));
#440=DIRECTION('',(-1.0,0.0,-6.12323399573677E-017));
#441=CARTESIAN_POINT('',(-1.22464679912712E-014,-2.44929359825424E-014,199.999999996696));
#442=DIRECTION('',(6.12323399573677E-017,1.22464679914735E-016,-1.0));
#443=DIRECTION('',(-1.23259516440783E-032,1.0,1.22464679914735E-016));
#444=CARTESIAN_POINT('',(-1.04094977927525E-015,-2.0818995585505E-015,17.0));
#445=DIRECTION('',(6.12323399573677E-017,1.22464679914735E-016,-1.0));
#446=DIRECTION('',(-1.23259516440783E-032,1.0,1.22464679914735E-016));
#447=CARTESIAN_POINT('',(-1.21972465232193E-014,-2.43944930464386E-014,199.196152420625));
#448=DIRECTION('',(6.12323399573677E-017,1.22464679914735E-016,-1.0));
#449=DIRECTION('',(-1.23259516440783E-032,1.0,1.22464679914735E-016));
#450=SURFACE_STYLE_FILL_AREA(#522);
#451=ORIENTED_EDGE('',*,*,#93,.F.);
#452=ORIENTED_EDGE('',*,*,#89,.T.);
#453=CARTESIAN_POINT('',(-1.26024195833448E-014,-2.52048391666895E-014,205.813130645));
#454=DIRECTION('',(6.12323399573677E-017,1.22464679914735E-016,-1.0));
#455=DIRECTION('',(-1.23259516440783E-032,1.0,1.22464679914735E-016));
#456=CARTESIAN_POINT('',(-1.26444782018087E-014,-2.52889564036175E-014,206.50000001));
#457=DIRECTION('',(6.12323399573677E-017,1.22464679914735E-016,-1.0));
#458=DIRECTION('',(-1.23259516440783E-032,1.0,1.22464679914735E-016));
#459=CARTESIAN_POINT('',(-1.28587913910472E-014,-2.57175827820944E-014,206.50000001));
#460=DIRECTION('',(6.12323399573677E-017,1.22464679914735E-016,-1.0));
#461=DIRECTION('',(-1.23259516440783E-032,1.0,1.22464679914735E-016));
#462=CARTESIAN_POINT('',(-1.25603609648808E-014,-2.51207219297616E-014,205.12626128));
#463=DIRECTION('',(6.12323399573677E-017,1.22464679914735E-016,-1.0));
#464=DIRECTION('',(-1.23259516440783E-032,1.0,1.22464679914735E-016));
#465=CARTESIAN_POINT('',(-1.22464679914735E-015,-2.44929359829471E-015,20.0));
#466=DIRECTION('',(6.12323399573676E-017,1.22464679914735E-016,-1.0));
#467=DIRECTION('',(-1.23259516440783E-032,1.0,1.22464679914735E-016));
#468=CARTESIAN_POINT('',(-1.16341445918999E-015,-2.32682891837997E-015,19.0));
#469=DIRECTION('',(6.12323399573676E-017,1.22464679914735E-016,-1.0));
#470=DIRECTION('',(-1.23259516440783E-032,1.0,1.22464679914735E-016));
#471=SURFACE_STYLE_FILL_AREA(#523);
#472=ORIENTED_EDGE('',*,*,#67,.F.);
#473=ORIENTED_EDGE('',*,*,#69,.T.);
#474=CARTESIAN_POINT('',(-5.15882464140823E-016,-1.03176492828165E-015,8.42500000000001));
#475=DIRECTION('',(-6.12323399573677E-017,-1.22464679914735E-016,1.0));
#476=DIRECTION('',(-1.23259516440783E-032,1.0,1.22464679914735E-016));
#477=CARTESIAN_POINT('',(-1.22464679914735E-015,-2.44929359829471E-015,20.0));
#478=DIRECTION('',(6.12323399573677E-017,1.22464679914735E-016,-1.0));
#479=DIRECTION('',(-1.23259516440783E-032,1.0,1.22464679914735E-016));
#480=SURFACE_STYLE_FILL_AREA(#524);
#481=ORIENTED_EDGE('',*,*,#84,.F.);
#482=ORIENTED_EDGE('',*,*,#80,.T.);
#483=CARTESIAN_POINT('',(-1.22218572572453E-014,-2.44437145144905E-014,199.59807620866));
#484=DIRECTION('',(-6.12323399573677E-017,-1.22464679914735E-016,1.0));
#485=DIRECTION('',(-1.23259516440783E-032,1.0,1.22464679914735E-016));
#486=SURFACE_STYLE_FILL_AREA(#525);
#487=ORIENTED_EDGE('',*,*,#67,.T.);
#488=CARTESIAN_POINT('',(0.0,4.0,0.0));
#489=DIRECTION('',(6.12323399573677E-017,1.22464679914735E-016,-1.0));
#490=DIRECTION('',(-1.0,0.0,-6.12323399573677E-017));
#491=SURFACE_STYLE_FILL_AREA(#526);
#492=ORIENTED_EDGE('',*,*,#113,.F.);
#493=CARTESIAN_POINT('',(-1.51550041394485E-014,3.99999999999997,247.5));
#494=DIRECTION('',(-9.18338008663382E-049,-1.22464679914735E-016,1.0));
#495=DIRECTION('',(1.0,-7.49879891330927E-033,0.0));
#496=CARTESIAN_POINT('',(-1.51550041394485E-014,-3.0310008278897E-014,247.5));
#497=DIRECTION('',(6.12323399573677E-017,1.22464679914735E-016,-1.0));
#498=DIRECTION('',(-1.23259516440783E-032,1.0,1.22464679914735E-016));
#499=SURFACE_STYLE_FILL_AREA(#527);
#500=ORIENTED_EDGE('',*,*,#82,.F.);
#501=ORIENTED_EDGE('',*,*,#121,.T.);
#502=CARTESIAN_POINT('',(-1.10218211923262E-015,-2.20436423846523E-015,18.0));
#503=DIRECTION('',(-6.12323399573677E-017,-1.22464679914735E-016,1.0));
#504=DIRECTION('',(-1.23259516440783E-032,1.0,1.22464679914735E-016));
#505=SURFACE_STYLE_FILL_AREA(#528);
#506=ORIENTED_EDGE('',*,*,#80,.F.);
#507=ORIENTED_EDGE('',*,*,#93,.T.);
#508=CARTESIAN_POINT('',(-1.2403414478076E-014,-2.4806828956152E-014,202.563130638348));
#509=DIRECTION('',(-6.12323399573677E-017,-1.22464679914735E-016,1.0));
#510=DIRECTION('',(-1.23259516440783E-032,1.0,1.22464679914735E-016));
#511=CARTESIAN_POINT('',(-1.16341445918999E-015,-2.32682891837997E-015,19.0));
#512=DIRECTION('',(6.12323399573677E-017,1.22464679914735E-016,-1.0));
#513=DIRECTION('',(-1.23259516440783E-032,1.0,1.22464679914735E-016));
#514=FILL_AREA_STYLE('',(#529));
#515=FILL_AREA_STYLE('',(#530));
#516=FILL_AREA_STYLE('',(#531));
#517=FILL_AREA_STYLE('',(#532));
#518=FILL_AREA_STYLE('',(#533));
#519=FILL_AREA_STYLE('',(#534));
#520=FILL_AREA_STYLE('',(#535));
#521=FILL_AREA_STYLE('',(#536));
#522=FILL_AREA_STYLE('',(#537));
#523=FILL_AREA_STYLE('',(#538));
#524=FILL_AREA_STYLE('',(#539));
#525=FILL_AREA_STYLE('',(#540));
#526=FILL_AREA_STYLE('',(#541));
#527=FILL_AREA_STYLE('',(#542));
#528=FILL_AREA_STYLE('',(#543));
#529=FILL_AREA_STYLE_COLOUR('',#544);
#530=FILL_AREA_STYLE_COLOUR('',#545);
#531=FILL_AREA_STYLE_COLOUR('',#546);
#532=FILL_AREA_STYLE_COLOUR('',#547);
#533=FILL_AREA_STYLE_COLOUR('',#548);
#534=FILL_AREA_STYLE_COLOUR('',#549);
#535=FILL_AREA_STYLE_COLOUR('',#550);
#536=FILL_AREA_STYLE_COLOUR('',#551);
#537=FILL_AREA_STYLE_COLOUR('',#552);
#538=FILL_AREA_STYLE_COLOUR('',#553);
#539=FILL_AREA_STYLE_COLOUR('',#554);
#540=FILL_AREA_STYLE_COLOUR('',#555);
#541=FILL_AREA_STYLE_COLOUR('',#556);
#542=FILL_AREA_STYLE_COLOUR('',#557);
#543=FILL_AREA_STYLE_COLOUR('',#558);
#544=COLOUR_RGB('',0.0,1.0,1.0);
#545=COLOUR_RGB('',0.0,1.0,1.0);
#546=COLOUR_RGB('',0.0,1.0,1.0);
#547=COLOUR_RGB('',0.0,1.0,1.0);
#548=COLOUR_RGB('',0.0,1.0,1.0);
#549=COLOUR_RGB('',0.0,1.0,1.0);
#550=COLOUR_RGB('',0.0,1.0,1.0);
#551=COLOUR_RGB('',0.0,1.0,1.0);
#552=COLOUR_RGB('',0.0,1.0,1.0);
#553=COLOUR_RGB('',0.0,1.0,1.0);
#554=COLOUR_RGB('',0.0,1.0,1.0);
#555=COLOUR_RGB('',0.0,1.0,1.0);
#556=COLOUR_RGB('',0.0,1.0,1.0);
#557=COLOUR_RGB('',0.0,1.0,1.0);
#558=COLOUR_RGB('',0.0,1.0,1.0);
ENDSEC;
END-ISO-10303-21;
