ISO-10303-21;
HEADER;
FILE_DESCRIPTION((''),'1');
FILE_NAME('T:/02_3D_Field-HP\X2\FF71FF6FFF8CFF9F5916\X0\2013/02_Step_Field-HP\X2\FF71FF6FFF8CFF9F5916\X0\2013/MGT6-d-150_M2-6.stp','2017-02-08T05:58:33',(''),(''),'Spatial Interop R21 SP3','Kubotek KeyCreator 2011 V10.0.2 (22737)',' ');
FILE_SCHEMA(('automotive_design'));
ENDSEC;
DATA;
#1=MECHANICAL_DESIGN_GEOMETRIC_PRESENTATION_REPRESENTATION(' ',(#10,#11,#12,#13,#14,#15,#16,#17,#18,#19,#20,#21,#22,#23,#24,#25,#26,#27,#28,#29,#30,#31,#32,#33,#34,#35,#36,#37),#6);
#2=PRODUCT_DEFINITION_CONTEXT('',#38,'design');
#3=APPLICATION_PROTOCOL_DEFINITION('INTERNATIONAL STANDARD','automotive_design',1994,#38);
#4=PRODUCT_CATEGORY_RELATIONSHIP('NONE','NONE',#39,#40);
#5=SHAPE_DEFINITION_REPRESENTATION(#41,#42);
#6= (GEOMETRIC_REPRESENTATION_CONTEXT(3)GLOBAL_UNCERTAINTY_ASSIGNED_CONTEXT((#45))GLOBAL_UNIT_ASSIGNED_CONTEXT((#47,#48,#49))REPRESENTATION_CONTEXT('NONE','WORKSPACE'));
#10=STYLED_ITEM('',(#51,#52),#53);
#11=STYLED_ITEM('',(#54),#55);
#12=STYLED_ITEM('',(#56,#57),#58);
#13=STYLED_ITEM('',(#59,#60),#61);
#14=STYLED_ITEM('',(#62,#63),#64);
#15=STYLED_ITEM('',(#65),#66);
#16=STYLED_ITEM('',(#67,#68),#69);
#17=STYLED_ITEM('',(#70),#71);
#18=STYLED_ITEM('',(#72),#73);
#19=STYLED_ITEM('',(#74),#75);
#20=STYLED_ITEM('',(#76,#77),#78);
#21=STYLED_ITEM('',(#79,#80),#81);
#22=STYLED_ITEM('',(#82),#83);
#23=STYLED_ITEM('',(#84,#85),#86);
#24=STYLED_ITEM('',(#87,#88),#89);
#25=STYLED_ITEM('',(#90,#91),#92);
#26=STYLED_ITEM('',(#93),#94);
#27=STYLED_ITEM('',(#95,#96),#97);
#28=STYLED_ITEM('',(#98,#99),#100);
#29=STYLED_ITEM('',(#101),#102);
#30=STYLED_ITEM('',(#103),#104);
#31=STYLED_ITEM('',(#105),#106);
#32=STYLED_ITEM('',(#107),#108);
#33=STYLED_ITEM('',(#109,#110),#111);
#34=STYLED_ITEM('',(#112,#113),#114);
#35=STYLED_ITEM('',(#115,#116),#117);
#36=STYLED_ITEM('',(#118),#119);
#37=STYLED_ITEM('',(#120),#121);
#38=APPLICATION_CONTEXT(' ');
#39=PRODUCT_CATEGORY('part','NONE');
#40=PRODUCT_RELATED_PRODUCT_CATEGORY('detail',' ',(#122));
#41=PRODUCT_DEFINITION_SHAPE('NONE','NONE',#123);
#42=ADVANCED_BREP_SHAPE_REPRESENTATION('240[2]',(#69,#124),#6);
#45=UNCERTAINTY_MEASURE_WITH_UNIT(LENGTH_MEASURE(1.0E-006),#47,'','');
#47= (CONVERSION_BASED_UNIT('MILLIMETRE',#127)LENGTH_UNIT()NAMED_UNIT(#130));
#48= (NAMED_UNIT(#132)PLANE_ANGLE_UNIT()SI_UNIT($,.RADIAN.));
#49= (NAMED_UNIT(#132)SOLID_ANGLE_UNIT()SI_UNIT($,.STERADIAN.));
#51=PRESENTATION_STYLE_ASSIGNMENT((#138));
#52=PRESENTATION_STYLE_ASSIGNMENT((#139));
#53=ADVANCED_FACE('240[2]',(#140,#141),#142,.T.);
#54=PRESENTATION_STYLE_ASSIGNMENT((#143));
#55=EDGE_CURVE('240[2]',#144,#144,#145,.T.);
#56=PRESENTATION_STYLE_ASSIGNMENT((#146));
#57=PRESENTATION_STYLE_ASSIGNMENT((#147));
#58=ADVANCED_FACE('240[2]',(#148,#149),#150,.T.);
#59=PRESENTATION_STYLE_ASSIGNMENT((#151));
#60=PRESENTATION_STYLE_ASSIGNMENT((#152));
#61=ADVANCED_FACE('240[2]',(#153,#154),#155,.T.);
#62=PRESENTATION_STYLE_ASSIGNMENT((#156));
#63=PRESENTATION_STYLE_ASSIGNMENT((#157));
#64=ADVANCED_FACE('240[2]',(#158,#159),#160,.T.);
#65=PRESENTATION_STYLE_ASSIGNMENT((#161));
#66=EDGE_CURVE('240[2]',#162,#162,#163,.T.);
#67=PRESENTATION_STYLE_ASSIGNMENT((#164));
#68=PRESENTATION_STYLE_ASSIGNMENT((#165));
#69=MANIFOLD_SOLID_BREP('240[2]',#166);
#70=PRESENTATION_STYLE_ASSIGNMENT((#167));
#71=EDGE_CURVE('240[2]',#168,#168,#169,.T.);
#72=PRESENTATION_STYLE_ASSIGNMENT((#170));
#73=EDGE_CURVE('240[2]',#171,#171,#172,.T.);
#74=PRESENTATION_STYLE_ASSIGNMENT((#173));
#75=EDGE_CURVE('240[2]',#174,#174,#175,.T.);
#76=PRESENTATION_STYLE_ASSIGNMENT((#176));
#77=PRESENTATION_STYLE_ASSIGNMENT((#177));
#78=ADVANCED_FACE('240[2]',(#178,#179),#180,.T.);
#79=PRESENTATION_STYLE_ASSIGNMENT((#181));
#80=PRESENTATION_STYLE_ASSIGNMENT((#182));
#81=ADVANCED_FACE('240[2]',(#183,#184),#185,.T.);
#82=PRESENTATION_STYLE_ASSIGNMENT((#186));
#83=EDGE_CURVE('240[2]',#187,#187,#188,.T.);
#84=PRESENTATION_STYLE_ASSIGNMENT((#189));
#85=PRESENTATION_STYLE_ASSIGNMENT((#190));
#86=ADVANCED_FACE('240[2]',(#191,#192),#193,.T.);
#87=PRESENTATION_STYLE_ASSIGNMENT((#194));
#88=PRESENTATION_STYLE_ASSIGNMENT((#195));
#89=ADVANCED_FACE('240[2]',(#196,#197),#198,.T.);
#90=PRESENTATION_STYLE_ASSIGNMENT((#199));
#91=PRESENTATION_STYLE_ASSIGNMENT((#200));
#92=ADVANCED_FACE('240[2]',(#201),#202,.T.);
#93=PRESENTATION_STYLE_ASSIGNMENT((#203));
#94=EDGE_CURVE('240[2]',#204,#204,#205,.T.);
#95=PRESENTATION_STYLE_ASSIGNMENT((#206));
#96=PRESENTATION_STYLE_ASSIGNMENT((#207));
#97=ADVANCED_FACE('240[2]',(#208,#209),#210,.T.);
#98=PRESENTATION_STYLE_ASSIGNMENT((#211));
#99=PRESENTATION_STYLE_ASSIGNMENT((#212));
#100=ADVANCED_FACE('240[2]',(#213,#214),#215,.T.);
#101=PRESENTATION_STYLE_ASSIGNMENT((#216));
#102=EDGE_CURVE('240[2]',#217,#217,#218,.T.);
#103=PRESENTATION_STYLE_ASSIGNMENT((#219));
#104=EDGE_CURVE('240[2]',#220,#220,#221,.T.);
#105=PRESENTATION_STYLE_ASSIGNMENT((#222));
#106=EDGE_CURVE('240[2]',#223,#223,#224,.T.);
#107=PRESENTATION_STYLE_ASSIGNMENT((#225));
#108=EDGE_CURVE('240[2]',#226,#226,#227,.T.);
#109=PRESENTATION_STYLE_ASSIGNMENT((#228));
#110=PRESENTATION_STYLE_ASSIGNMENT((#229));
#111=ADVANCED_FACE('240[2]',(#230),#231,.T.);
#112=PRESENTATION_STYLE_ASSIGNMENT((#232));
#113=PRESENTATION_STYLE_ASSIGNMENT((#233));
#114=ADVANCED_FACE('240[2]',(#234,#235),#236,.T.);
#115=PRESENTATION_STYLE_ASSIGNMENT((#237));
#116=PRESENTATION_STYLE_ASSIGNMENT((#238));
#117=ADVANCED_FACE('240[2]',(#239,#240),#241,.T.);
#118=PRESENTATION_STYLE_ASSIGNMENT((#242));
#119=EDGE_CURVE('240[2]',#243,#243,#244,.T.);
#120=PRESENTATION_STYLE_ASSIGNMENT((#245));
#121=EDGE_CURVE('240[2]',#246,#246,#247,.T.);
#122=PRODUCT('240[2]','240[2]','PART-240[2]-DESC',(#248));
#123=PRODUCT_DEFINITION('NONE','NONE',#249,#2);
#124=AXIS2_PLACEMENT_3D('',#250,#251,#252);
#127=LENGTH_MEASURE_WITH_UNIT(LENGTH_MEASURE(1.0),#253);
#130=DIMENSIONAL_EXPONENTS(1.0,0.0,0.0,0.0,0.0,0.0,0.0);
#132=DIMENSIONAL_EXPONENTS(0.0,0.0,0.0,0.0,0.0,0.0,0.0);
#138=SURFACE_STYLE_USAGE(.BOTH.,#254);
#139=CURVE_STYLE('',#255,POSITIVE_LENGTH_MEASURE(1000.0),#256);
#140=FACE_BOUND('',#257,.T.);
#141=FACE_BOUND('',#258,.T.);
#142=CONICAL_SURFACE('',#259,9.50000000000041,1.30899693899587);
#143=CURVE_STYLE('',#260,POSITIVE_LENGTH_MEASURE(1000.0),#261);
#144=VERTEX_POINT('',#262);
#145=CIRCLE('',#263,11.0000000000001);
#146=SURFACE_STYLE_USAGE(.BOTH.,#264);
#147=CURVE_STYLE('',#265,POSITIVE_LENGTH_MEASURE(1000.0),#266);
#148=FACE_OUTER_BOUND('',#267,.T.);
#149=FACE_BOUND('',#268,.T.);
#150=PLANE('',#269);
#151=SURFACE_STYLE_USAGE(.BOTH.,#270);
#152=CURVE_STYLE('',#271,POSITIVE_LENGTH_MEASURE(1000.0),#272);
#153=FACE_BOUND('',#273,.T.);
#154=FACE_BOUND('',#274,.T.);
#155=CYLINDRICAL_SURFACE('',#275,7.99999999999966);
#156=SURFACE_STYLE_USAGE(.BOTH.,#276);
#157=CURVE_STYLE('',#277,POSITIVE_LENGTH_MEASURE(1000.0),#278);
#158=FACE_BOUND('',#279,.T.);
#159=FACE_BOUND('',#280,.T.);
#160=CYLINDRICAL_SURFACE('',#281,8.1499999999993);
#161=CURVE_STYLE('',#282,POSITIVE_LENGTH_MEASURE(1000.0),#283);
#162=VERTEX_POINT('',#284);
#163=CIRCLE('',#285,10.5000000000001);
#164=SURFACE_STYLE_USAGE(.BOTH.,#286);
#165=CURVE_STYLE('',#287,POSITIVE_LENGTH_MEASURE(1000.0),#288);
#166=CLOSED_SHELL('',(#117,#92,#111,#61,#86,#81,#53,#78,#58,#89,#97,#64,#114,#100));
#167=CURVE_STYLE('',#289,POSITIVE_LENGTH_MEASURE(1000.0),#290);
#168=VERTEX_POINT('',#291);
#169=CIRCLE('',#292,6.20000000000312);
#170=CURVE_STYLE('',#293,POSITIVE_LENGTH_MEASURE(1000.0),#294);
#171=VERTEX_POINT('',#295);
#172=CIRCLE('',#296,7.99999999999966);
#173=CURVE_STYLE('',#297,POSITIVE_LENGTH_MEASURE(1000.0),#298);
#174=VERTEX_POINT('',#299);
#175=CIRCLE('',#300,7.99999999999965);
#176=SURFACE_STYLE_USAGE(.BOTH.,#301);
#177=CURVE_STYLE('',#302,POSITIVE_LENGTH_MEASURE(1000.0),#303);
#178=FACE_BOUND('',#304,.T.);
#179=FACE_BOUND('',#305,.T.);
#180=CYLINDRICAL_SURFACE('',#306,8.00000000000018);
#181=SURFACE_STYLE_USAGE(.BOTH.,#307);
#182=CURVE_STYLE('',#308,POSITIVE_LENGTH_MEASURE(1000.0),#309);
#183=FACE_BOUND('',#310,.T.);
#184=FACE_BOUND('',#311,.T.);
#185=CYLINDRICAL_SURFACE('',#312,11.0000000000001);
#186=CURVE_STYLE('',#313,POSITIVE_LENGTH_MEASURE(1000.0),#314);
#187=VERTEX_POINT('',#315);
#188=CIRCLE('',#316,7.99999999999966);
#189=SURFACE_STYLE_USAGE(.BOTH.,#317);
#190=CURVE_STYLE('',#318,POSITIVE_LENGTH_MEASURE(1000.0),#319);
#191=FACE_BOUND('',#320,.T.);
#192=FACE_BOUND('',#321,.T.);
#193=CONICAL_SURFACE('',#322,10.7500000000001,0.349065850398565);
#194=SURFACE_STYLE_USAGE(.BOTH.,#323);
#195=CURVE_STYLE('',#324,POSITIVE_LENGTH_MEASURE(1000.0),#325);
#196=FACE_BOUND('',#326,.T.);
#197=FACE_BOUND('',#327,.T.);
#198=CYLINDRICAL_SURFACE('',#328,6.20000000000312);
#199=SURFACE_STYLE_USAGE(.BOTH.,#329);
#200=CURVE_STYLE('',#330,POSITIVE_LENGTH_MEASURE(1000.0),#331);
#201=FACE_OUTER_BOUND('',#332,.T.);
#202=PLANE('',#333);
#203=CURVE_STYLE('',#334,POSITIVE_LENGTH_MEASURE(1000.0),#335);
#204=VERTEX_POINT('',#336);
#205=CIRCLE('',#337,11.0000000000001);
#206=SURFACE_STYLE_USAGE(.BOTH.,#338);
#207=CURVE_STYLE('',#339,POSITIVE_LENGTH_MEASURE(1000.0),#340);
#208=FACE_OUTER_BOUND('',#341,.T.);
#209=FACE_BOUND('',#342,.T.);
#210=PLANE('',#343);
#211=SURFACE_STYLE_USAGE(.BOTH.,#344);
#212=CURVE_STYLE('',#345,POSITIVE_LENGTH_MEASURE(1000.0),#346);
#213=FACE_BOUND('',#347,.T.);
#214=FACE_BOUND('',#348,.T.);
#215=CYLINDRICAL_SURFACE('',#349,7.99999999999966);
#216=CURVE_STYLE('',#350,POSITIVE_LENGTH_MEASURE(1000.0),#351);
#217=VERTEX_POINT('',#352);
#218=CIRCLE('',#353,8.1499999999993);
#219=CURVE_STYLE('',#354,POSITIVE_LENGTH_MEASURE(1000.0),#355);
#220=VERTEX_POINT('',#356);
#221=CIRCLE('',#357,8.00000000000071);
#222=CURVE_STYLE('',#358,POSITIVE_LENGTH_MEASURE(1000.0),#359);
#223=VERTEX_POINT('',#360);
#224=CIRCLE('',#361,6.20000000000312);
#225=CURVE_STYLE('',#362,POSITIVE_LENGTH_MEASURE(1000.0),#363);
#226=VERTEX_POINT('',#364);
#227=CIRCLE('',#365,8.1499999999993);
#228=SURFACE_STYLE_USAGE(.BOTH.,#366);
#229=CURVE_STYLE('',#367,POSITIVE_LENGTH_MEASURE(1000.0),#368);
#230=FACE_OUTER_BOUND('',#369,.T.);
#231=PLANE('',#370);
#232=SURFACE_STYLE_USAGE(.BOTH.,#371);
#233=CURVE_STYLE('',#372,POSITIVE_LENGTH_MEASURE(1000.0),#373);
#234=FACE_BOUND('',#374,.T.);
#235=FACE_BOUND('',#375,.T.);
#236=CONICAL_SURFACE('',#376,8.07499999999948,0.124354994546199);
#237=SURFACE_STYLE_USAGE(.BOTH.,#377);
#238=CURVE_STYLE('',#378,POSITIVE_LENGTH_MEASURE(1000.0),#379);
#239=FACE_OUTER_BOUND('',#380,.T.);
#240=FACE_BOUND('',#381,.T.);
#241=PLANE('',#382);
#242=CURVE_STYLE('',#383,POSITIVE_LENGTH_MEASURE(1000.0),#384);
#243=VERTEX_POINT('',#385);
#244=CIRCLE('',#386,7.99999999999966);
#245=CURVE_STYLE('',#387,POSITIVE_LENGTH_MEASURE(1000.0),#388);
#246=VERTEX_POINT('',#389);
#247=CIRCLE('',#390,7.99999999999966);
#248=PRODUCT_CONTEXT('',#38,'mechanical');
#249=PRODUCT_DEFINITION_FORMATION_WITH_SPECIFIED_SOURCE(' ','NONE',#122,.NOT_KNOWN.);
#250=CARTESIAN_POINT('',(0.0,0.0,0.0));
#251=DIRECTION('',(0.0,0.0,1.0));
#252=DIRECTION('',(1.0,0.0,0.0));
#253= (NAMED_UNIT(#130)LENGTH_UNIT()SI_UNIT(.MILLI.,.METRE.));
#254=SURFACE_SIDE_STYLE('',(#392));
#255=DRAUGHTING_PRE_DEFINED_CURVE_FONT('continuous');
#256=COLOUR_RGB('',0.0,1.0,1.0);
#257=EDGE_LOOP('',(#393));
#258=EDGE_LOOP('',(#394));
#259=AXIS2_PLACEMENT_3D('',#395,#396,#397);
#260=DRAUGHTING_PRE_DEFINED_CURVE_FONT('continuous');
#261=COLOUR_RGB('',0.0,1.0,1.0);
#262=CARTESIAN_POINT('',(-9.18485099360493E-015,11.0000000000001,149.999999999996));
#263=AXIS2_PLACEMENT_3D('',#398,#399,#400);
#264=SURFACE_SIDE_STYLE('',(#401));
#265=DRAUGHTING_PRE_DEFINED_CURVE_FONT('continuous');
#266=COLOUR_RGB('',0.0,1.0,1.0);
#267=EDGE_LOOP('',(#402));
#268=EDGE_LOOP('',(#403));
#269=AXIS2_PLACEMENT_3D('',#404,#405,#406);
#270=SURFACE_SIDE_STYLE('',(#407));
#271=DRAUGHTING_PRE_DEFINED_CURVE_FONT('continuous');
#272=COLOUR_RGB('',0.0,1.0,1.0);
#273=EDGE_LOOP('',(#408));
#274=EDGE_LOOP('',(#409));
#275=AXIS2_PLACEMENT_3D('',#410,#411,#412);
#276=SURFACE_SIDE_STYLE('',(#413));
#277=DRAUGHTING_PRE_DEFINED_CURVE_FONT('continuous');
#278=COLOUR_RGB('',0.0,1.0,1.0);
#279=EDGE_LOOP('',(#414));
#280=EDGE_LOOP('',(#415));
#281=AXIS2_PLACEMENT_3D('',#416,#417,#418);
#282=DRAUGHTING_PRE_DEFINED_CURVE_FONT('continuous');
#283=COLOUR_RGB('',0.0,1.0,1.0);
#284=CARTESIAN_POINT('',(-9.58286120332788E-015,10.5000000000001,156.499999999998));
#285=AXIS2_PLACEMENT_3D('',#419,#420,#421);
#286=SURFACE_SIDE_STYLE('',(#422));
#287=DRAUGHTING_PRE_DEFINED_CURVE_FONT('continuous');
#288=COLOUR_RGB('',0.0,1.0,1.0);
#289=DRAUGHTING_PRE_DEFINED_CURVE_FONT('continuous');
#290=COLOUR_RGB('',0.0,1.0,1.0);
#291=CARTESIAN_POINT('',(-1.16341445918709E-015,6.20000000000311,18.9999999999526));
#292=AXIS2_PLACEMENT_3D('',#423,#424,#425);
#293=DRAUGHTING_PRE_DEFINED_CURVE_FONT('continuous');
#294=COLOUR_RGB('',0.0,1.0,1.0);
#295=CARTESIAN_POINT('',(-1.20933871415803E-014,7.99999999999963,197.500000000003));
#296=AXIS2_PLACEMENT_3D('',#426,#427,#428);
#297=DRAUGHTING_PRE_DEFINED_CURVE_FONT('continuous');
#298=COLOUR_RGB('',0.0,1.0,1.0);
#299=CARTESIAN_POINT('',(-1.22464679914794E-015,7.99999999999965,20.0000000000095));
#300=AXIS2_PLACEMENT_3D('',#429,#430,#431);
#301=SURFACE_SIDE_STYLE('',(#432));
#302=DRAUGHTING_PRE_DEFINED_CURVE_FONT('continuous');
#303=COLOUR_RGB('',0.0,1.0,1.0);
#304=EDGE_LOOP('',(#433));
#305=EDGE_LOOP('',(#434));
#306=AXIS2_PLACEMENT_3D('',#435,#436,#437);
#307=SURFACE_SIDE_STYLE('',(#438));
#308=DRAUGHTING_PRE_DEFINED_CURVE_FONT('continuous');
#309=COLOUR_RGB('',0.0,1.0,1.0);
#310=EDGE_LOOP('',(#439));
#311=EDGE_LOOP('',(#440));
#312=AXIS2_PLACEMENT_3D('',#441,#442,#443);
#313=DRAUGHTING_PRE_DEFINED_CURVE_FONT('continuous');
#314=COLOUR_RGB('',0.0,1.0,1.0);
#315=CARTESIAN_POINT('',(0.0,7.99999999999966,0.0));
#316=AXIS2_PLACEMENT_3D('',#444,#445,#446);
#317=SURFACE_SIDE_STYLE('',(#447));
#318=DRAUGHTING_PRE_DEFINED_CURVE_FONT('continuous');
#319=COLOUR_RGB('',0.0,1.0,1.0);
#320=EDGE_LOOP('',(#448));
#321=EDGE_LOOP('',(#449));
#322=AXIS2_PLACEMENT_3D('',#450,#451,#452);
#323=SURFACE_SIDE_STYLE('',(#453));
#324=DRAUGHTING_PRE_DEFINED_CURVE_FONT('continuous');
#325=COLOUR_RGB('',0.0,1.0,1.0);
#326=EDGE_LOOP('',(#454));
#327=EDGE_LOOP('',(#455));
#328=AXIS2_PLACEMENT_3D('',#456,#457,#458);
#329=SURFACE_SIDE_STYLE('',(#459));
#330=DRAUGHTING_PRE_DEFINED_CURVE_FONT('continuous');
#331=COLOUR_RGB('',0.0,1.0,1.0);
#332=EDGE_LOOP('',(#460));
#333=AXIS2_PLACEMENT_3D('',#461,#462,#463);
#334=DRAUGHTING_PRE_DEFINED_CURVE_FONT('continuous');
#335=COLOUR_RGB('',0.0,1.0,1.0);
#336=CARTESIAN_POINT('',(-9.49874396764118E-015,11.0000000000001,155.126261290269));
#337=AXIS2_PLACEMENT_3D('',#464,#465,#466);
#338=SURFACE_SIDE_STYLE('',(#467));
#339=DRAUGHTING_PRE_DEFINED_CURVE_FONT('continuous');
#340=COLOUR_RGB('',0.0,1.0,1.0);
#341=EDGE_LOOP('',(#468));
#342=EDGE_LOOP('',(#469));
#343=AXIS2_PLACEMENT_3D('',#470,#471,#472);
#344=SURFACE_SIDE_STYLE('',(#473));
#345=DRAUGHTING_PRE_DEFINED_CURVE_FONT('continuous');
#346=COLOUR_RGB('',0.0,1.0,1.0);
#347=EDGE_LOOP('',(#474));
#348=EDGE_LOOP('',(#475));
#349=AXIS2_PLACEMENT_3D('',#476,#477,#478);
#350=DRAUGHTING_PRE_DEFINED_CURVE_FONT('continuous');
#351=COLOUR_RGB('',0.0,1.0,1.0);
#352=CARTESIAN_POINT('',(-1.1634144591908E-015,8.14999999999929,19.0000000000132));
#353=AXIS2_PLACEMENT_3D('',#479,#480,#481);
#354=DRAUGHTING_PRE_DEFINED_CURVE_FONT('continuous');
#355=COLOUR_RGB('',0.0,1.0,1.0);
#356=CARTESIAN_POINT('',(-9.13562952547823E-015,8.00000000000069,149.196152422704));
#357=AXIS2_PLACEMENT_3D('',#482,#483,#484);
#358=DRAUGHTING_PRE_DEFINED_CURVE_FONT('continuous');
#359=COLOUR_RGB('',0.0,1.0,1.0);
#360=CARTESIAN_POINT('',(-1.22464679914294E-015,6.20000000000311,19.999999999928));
#361=AXIS2_PLACEMENT_3D('',#485,#486,#487);
#362=DRAUGHTING_PRE_DEFINED_CURVE_FONT('continuous');
#363=COLOUR_RGB('',0.0,1.0,1.0);
#364=CARTESIAN_POINT('',(-1.04094977927532E-015,8.14999999999929,17.0000000000011));
#365=AXIS2_PLACEMENT_3D('',#488,#489,#490);
#366=SURFACE_SIDE_STYLE('',(#491));
#367=DRAUGHTING_PRE_DEFINED_CURVE_FONT('continuous');
#368=COLOUR_RGB('',0.0,1.0,1.0);
#369=EDGE_LOOP('',(#492));
#370=AXIS2_PLACEMENT_3D('',#493,#494,#495);
#371=SURFACE_SIDE_STYLE('',(#496));
#372=DRAUGHTING_PRE_DEFINED_CURVE_FONT('continuous');
#373=COLOUR_RGB('',0.0,1.0,1.0);
#374=EDGE_LOOP('',(#497));
#375=EDGE_LOOP('',(#498));
#376=AXIS2_PLACEMENT_3D('',#499,#500,#501);
#377=SURFACE_SIDE_STYLE('',(#502));
#378=DRAUGHTING_PRE_DEFINED_CURVE_FONT('continuous');
#379=COLOUR_RGB('',0.0,1.0,1.0);
#380=EDGE_LOOP('',(#503));
#381=EDGE_LOOP('',(#504));
#382=AXIS2_PLACEMENT_3D('',#505,#506,#507);
#383=DRAUGHTING_PRE_DEFINED_CURVE_FONT('continuous');
#384=COLOUR_RGB('',0.0,1.0,1.0);
#385=CARTESIAN_POINT('',(-9.79717439317861E-015,7.99999999999964,156.499999999998));
#386=AXIS2_PLACEMENT_3D('',#508,#509,#510);
#387=DRAUGHTING_PRE_DEFINED_CURVE_FONT('continuous');
#388=COLOUR_RGB('',0.0,1.0,1.0);
#389=CARTESIAN_POINT('',(-9.67470971326317E-016,7.99999999999965,15.7999999999985));
#390=AXIS2_PLACEMENT_3D('',#511,#512,#513);
#392=SURFACE_STYLE_FILL_AREA(#514);
#393=ORIENTED_EDGE('',*,*,#104,.F.);
#394=ORIENTED_EDGE('',*,*,#55,.T.);
#395=CARTESIAN_POINT('',(-9.16024025954158E-015,-1.83204805190831E-014,149.59807621135));
#396=DIRECTION('',(-6.12323399573677E-017,-1.22464679914735E-016,1.0));
#397=DIRECTION('',(-1.23259516440783E-032,1.0,1.22464679914735E-016));
#398=CARTESIAN_POINT('',(-9.18485099360493E-015,-1.83697019872098E-014,149.999999999996));
#399=DIRECTION('',(6.12323399573677E-017,1.22464679914735E-016,-1.0));
#400=DIRECTION('',(-1.23259516440783E-032,1.0,1.22464679914735E-016));
#401=SURFACE_STYLE_FILL_AREA(#515);
#402=ORIENTED_EDGE('',*,*,#75,.T.);
#403=ORIENTED_EDGE('',*,*,#106,.F.);
#404=CARTESIAN_POINT('',(8.00000009999965,-8.00000009999965,19.9999999995649));
#405=DIRECTION('',(6.12323399573677E-017,2.7788264622418E-011,-1.0));
#406=DIRECTION('',(-1.0,0.0,-6.12323399573677E-017));
#407=SURFACE_STYLE_FILL_AREA(#516);
#408=ORIENTED_EDGE('',*,*,#119,.F.);
#409=ORIENTED_EDGE('',*,*,#73,.T.);
#410=CARTESIAN_POINT('',(-1.09452807673795E-014,-2.18905615347589E-014,178.750000000001));
#411=DIRECTION('',(6.12323399573677E-017,1.22464679914735E-016,-1.0));
#412=DIRECTION('',(-1.23259516440783E-032,1.0,1.22464679914735E-016));
#413=SURFACE_STYLE_FILL_AREA(#517);
#414=ORIENTED_EDGE('',*,*,#108,.F.);
#415=ORIENTED_EDGE('',*,*,#102,.T.);
#416=CARTESIAN_POINT('',(-1.10218211923306E-015,-2.20436423846611E-015,18.0000000000071));
#417=DIRECTION('',(6.12323399573677E-017,1.22464679914735E-016,-1.0));
#418=DIRECTION('',(-1.23259516440783E-032,1.0,1.22464679914735E-016));
#419=CARTESIAN_POINT('',(-9.58286120332788E-015,-1.91657224066557E-014,156.499999999998));
#420=DIRECTION('',(6.12323399573677E-017,1.22464679914735E-016,-1.0));
#421=DIRECTION('',(-1.23259516440783E-032,1.0,1.22464679914735E-016));
#422=SURFACE_STYLE_FILL_AREA(#518);
#423=CARTESIAN_POINT('',(-1.16341445918709E-015,-2.32682891837417E-015,18.9999999999526));
#424=DIRECTION('',(6.12323399573677E-017,1.22464679914735E-016,-1.0));
#425=DIRECTION('',(-1.23259516440783E-032,1.0,1.22464679914735E-016));
#426=CARTESIAN_POINT('',(-1.20933871415803E-014,-2.41867742831607E-014,197.500000000003));
#427=DIRECTION('',(6.12323399573677E-017,1.22464679914735E-016,-1.0));
#428=DIRECTION('',(-1.23259516440783E-032,1.0,1.22464679914735E-016));
#429=CARTESIAN_POINT('',(-3.36468379447812E-016,-2.44929359829587E-015,20.0000000000095));
#430=DIRECTION('',(6.12323399573677E-017,1.22464679914735E-016,-1.0));
#431=DIRECTION('',(-1.11022302462521E-016,1.0,1.22464679914735E-016));
#432=SURFACE_STYLE_FILL_AREA(#519);
#433=ORIENTED_EDGE('',*,*,#75,.F.);
#434=ORIENTED_EDGE('',*,*,#104,.T.);
#435=CARTESIAN_POINT('',(-1.22464679914794E-015,-1.38631545731671E-015,20.0000000000095));
#436=DIRECTION('',(-6.12323399573677E-017,-1.33523551339119E-016,1.0));
#437=DIRECTION('',(-1.22460635382237E-016,-1.0,-1.33523551339119E-016));
#438=SURFACE_STYLE_FILL_AREA(#520);
#439=ORIENTED_EDGE('',*,*,#55,.F.);
#440=ORIENTED_EDGE('',*,*,#94,.T.);
#441=CARTESIAN_POINT('',(-9.34179748062306E-015,-1.86835949612461E-014,152.563130645133));
#442=DIRECTION('',(6.12323399573677E-017,1.22464679914735E-016,-1.0));
#443=DIRECTION('',(-1.23259516440783E-032,1.0,1.22464679914735E-016));
#444=CARTESIAN_POINT('',(0.0,0.0,0.0));
#445=DIRECTION('',(6.12323399573677E-017,1.22464679914735E-016,-1.0));
#446=DIRECTION('',(-1.23259516440783E-032,1.0,1.22464679914735E-016));
#447=SURFACE_STYLE_FILL_AREA(#521);
#448=ORIENTED_EDGE('',*,*,#66,.T.);
#449=ORIENTED_EDGE('',*,*,#94,.F.);
#450=CARTESIAN_POINT('',(-9.54080258548453E-015,-1.9081605170969E-014,155.813130645134));
#451=DIRECTION('',(6.12323399573677E-017,1.22464679914735E-016,-1.0));
#452=DIRECTION('',(-1.23259516440783E-032,1.0,1.22464679914735E-016));
#453=SURFACE_STYLE_FILL_AREA(#522);
#454=ORIENTED_EDGE('',*,*,#71,.F.);
#455=ORIENTED_EDGE('',*,*,#106,.T.);
#456=CARTESIAN_POINT('',(-1.19403062916598E-015,-2.38806125833195E-015,19.499999999956));
#457=DIRECTION('',(6.12323399573677E-017,1.22464679914735E-016,-1.0));
#458=DIRECTION('',(-1.23259516440783E-032,1.0,1.22464679914735E-016));
#459=SURFACE_STYLE_FILL_AREA(#523);
#460=ORIENTED_EDGE('',*,*,#83,.T.);
#461=CARTESIAN_POINT('',(0.0,3.99999999999983,0.0));
#462=DIRECTION('',(6.12323399573677E-017,1.22464679914735E-016,-1.0));
#463=DIRECTION('',(-1.0,0.0,-6.12323399573677E-017));
#464=CARTESIAN_POINT('',(-9.49874396764118E-015,-1.89974879352823E-014,155.126261290269));
#465=DIRECTION('',(6.12323399573677E-017,1.22464679914735E-016,-1.0));
#466=DIRECTION('',(-1.23259516440783E-032,1.0,1.22464679914735E-016));
#467=SURFACE_STYLE_FILL_AREA(#524);
#468=ORIENTED_EDGE('',*,*,#102,.F.);
#469=ORIENTED_EDGE('',*,*,#71,.T.);
#470=CARTESIAN_POINT('',(-1.16341445918894E-015,7.1750000000012,18.9999999999829));
#471=DIRECTION('',(-5.90581560793272E-038,-3.10563057308091E-011,1.0));
#472=DIRECTION('',(1.0,-1.9016478196484E-027,0.0));
#473=SURFACE_STYLE_FILL_AREA(#525);
#474=ORIENTED_EDGE('',*,*,#83,.F.);
#475=ORIENTED_EDGE('',*,*,#121,.T.);
#476=CARTESIAN_POINT('',(-4.83735485663159E-016,-9.67470971326317E-016,7.89999999999926));
#477=DIRECTION('',(6.12323399573677E-017,1.22464679914735E-016,-1.0));
#478=DIRECTION('',(-1.23259516440783E-032,1.0,1.22464679914735E-016));
#479=CARTESIAN_POINT('',(-1.1634144591908E-015,-2.32682891838158E-015,19.0000000000132));
#480=DIRECTION('',(6.12323399573677E-017,1.22464679914735E-016,-1.0));
#481=DIRECTION('',(-1.23259516440783E-032,1.0,1.22464679914735E-016));
#482=CARTESIAN_POINT('',(-9.13562952547823E-015,-1.82712590509564E-014,149.196152422704));
#483=DIRECTION('',(6.12323399573676E-017,1.22464679914735E-016,-1.0));
#484=DIRECTION('',(-1.23259516440783E-032,1.0,1.22464679914735E-016));
#485=CARTESIAN_POINT('',(-3.3646837944475E-016,-1.11702596873956E-015,19.9999999999595));
#486=DIRECTION('',(6.12323399573676E-017,1.22464679914735E-016,-1.0));
#487=DIRECTION('',(-1.43254583822529E-016,1.0,1.22464679914735E-016));
#488=CARTESIAN_POINT('',(-1.04094977927532E-015,-2.08189955855063E-015,17.0000000000011));
#489=DIRECTION('',(6.12323399573677E-017,1.22464679914735E-016,-1.0));
#490=DIRECTION('',(-1.23259516440783E-032,1.0,1.22464679914735E-016));
#491=SURFACE_STYLE_FILL_AREA(#526);
#492=ORIENTED_EDGE('',*,*,#73,.F.);
#493=CARTESIAN_POINT('',(-1.20933871415803E-014,3.9999999999998,197.500000000003));
#494=DIRECTION('',(-1.50949372273655E-048,-1.22464679914735E-016,1.0));
#495=DIRECTION('',(1.0,-1.23259516440783E-032,0.0));
#496=SURFACE_STYLE_FILL_AREA(#527);
#497=ORIENTED_EDGE('',*,*,#121,.F.);
#498=ORIENTED_EDGE('',*,*,#108,.T.);
#499=CARTESIAN_POINT('',(-1.00421037530082E-015,-2.00842075060163E-015,16.3999999999998));
#500=DIRECTION('',(-6.12323399573677E-017,-1.22464679914735E-016,1.0));
#501=DIRECTION('',(-1.23259516440783E-032,1.0,1.22464679914735E-016));
#502=SURFACE_STYLE_FILL_AREA(#528);
#503=ORIENTED_EDGE('',*,*,#66,.F.);
#504=ORIENTED_EDGE('',*,*,#119,.T.);
#505=CARTESIAN_POINT('',(-7.87347880381494,1.41715614025818,156.499999999998));
#506=DIRECTION('',(0.0,0.0,1.0));
#507=DIRECTION('',(-1.0,0.0,0.0));
#508=CARTESIAN_POINT('',(-9.79717439317861E-015,-1.95943487863572E-014,156.499999999998));
#509=DIRECTION('',(6.12323399573677E-017,1.22464679914735E-016,-1.0));
#510=DIRECTION('',(-1.23259516440783E-032,1.0,1.22464679914735E-016));
#511=CARTESIAN_POINT('',(-9.67470971326317E-016,-1.93494194265263E-015,15.7999999999985));
#512=DIRECTION('',(6.12323399573677E-017,1.22464679914735E-016,-1.0));
#513=DIRECTION('',(-1.23259516440783E-032,1.0,1.22464679914735E-016));
#514=FILL_AREA_STYLE('',(#529));
#515=FILL_AREA_STYLE('',(#530));
#516=FILL_AREA_STYLE('',(#531));
#517=FILL_AREA_STYLE('',(#532));
#518=FILL_AREA_STYLE('',(#533));
#519=FILL_AREA_STYLE('',(#534));
#520=FILL_AREA_STYLE('',(#535));
#521=FILL_AREA_STYLE('',(#536));
#522=FILL_AREA_STYLE('',(#537));
#523=FILL_AREA_STYLE('',(#538));
#524=FILL_AREA_STYLE('',(#539));
#525=FILL_AREA_STYLE('',(#540));
#526=FILL_AREA_STYLE('',(#541));
#527=FILL_AREA_STYLE('',(#542));
#528=FILL_AREA_STYLE('',(#543));
#529=FILL_AREA_STYLE_COLOUR('',#544);
#530=FILL_AREA_STYLE_COLOUR('',#545);
#531=FILL_AREA_STYLE_COLOUR('',#546);
#532=FILL_AREA_STYLE_COLOUR('',#547);
#533=FILL_AREA_STYLE_COLOUR('',#548);
#534=FILL_AREA_STYLE_COLOUR('',#549);
#535=FILL_AREA_STYLE_COLOUR('',#550);
#536=FILL_AREA_STYLE_COLOUR('',#551);
#537=FILL_AREA_STYLE_COLOUR('',#552);
#538=FILL_AREA_STYLE_COLOUR('',#553);
#539=FILL_AREA_STYLE_COLOUR('',#554);
#540=FILL_AREA_STYLE_COLOUR('',#555);
#541=FILL_AREA_STYLE_COLOUR('',#556);
#542=FILL_AREA_STYLE_COLOUR('',#557);
#543=FILL_AREA_STYLE_COLOUR('',#558);
#544=COLOUR_RGB('',0.0,1.0,1.0);
#545=COLOUR_RGB('',0.0,1.0,1.0);
#546=COLOUR_RGB('',0.0,1.0,1.0);
#547=COLOUR_RGB('',0.0,1.0,1.0);
#548=COLOUR_RGB('',0.0,1.0,1.0);
#549=COLOUR_RGB('',0.0,1.0,1.0);
#550=COLOUR_RGB('',0.0,1.0,1.0);
#551=COLOUR_RGB('',0.0,1.0,1.0);
#552=COLOUR_RGB('',0.0,1.0,1.0);
#553=COLOUR_RGB('',0.0,1.0,1.0);
#554=COLOUR_RGB('',0.0,1.0,1.0);
#555=COLOUR_RGB('',0.0,1.0,1.0);
#556=COLOUR_RGB('',0.0,1.0,1.0);
#557=COLOUR_RGB('',0.0,1.0,1.0);
#558=COLOUR_RGB('',0.0,1.0,1.0);
ENDSEC;
END-ISO-10303-21;
